  0
SECTION
  2
HEADER
  9
$ACADVER
  1
AC1009
  9
$INSBASE
 10
0.0
 20
0.0
 30
0.0
  9
$EXTMIN
 10
-200.0000000000011084
 20
-252.761137368873591
 30
-0.0000000000002402
  9
$EXTMAX
 10
793.3154371625978456
 20
1428.4609961523690345
 30
1060.0
  9
$LIMMIN
 10
0.0
 20
0.0
  9
$LIMMAX
 10
595.0
 20
421.0
  9
$ORTHOMODE
 70
     1
  9
$REGENMODE
 70
     1
  9
$FILLMODE
 70
     1
  9
$QTEXTMODE
 70
     0
  9
$MIRRTEXT
 70
     0
  9
$DRAGMODE
 70
     2
  9
$LTSCALE
 40
10.0
  9
$OSMODE
 70
    39
  9
$ATTMODE
 70
     1
  9
$TEXTSIZE
 40
3.5
  9
$TRACEWID
 40
1.0
  9
$TEXTSTYLE
  7
STANDARD
  9
$CLAYER
  8
INDEX2
  9
$CELTYPE
  6
BYLAYER
  9
$CECOLOR
 62
   256
  9
$DIMSCALE
 40
1.0
  9
$DIMASZ
 40
3.5
  9
$DIMEXO
 40
1.0
  9
$DIMDLI
 40
7.0
  9
$DIMRND
 40
0.0
  9
$DIMDLE
 40
0.0
  9
$DIMEXE
 40
1.0
  9
$DIMTP
 40
0.0
  9
$DIMTM
 40
0.0
  9
$DIMTXT
 40
3.5
  9
$DIMCEN
 40
1.5
  9
$DIMTSZ
 40
0.0
  9
$DIMTOL
 70
     0
  9
$DIMLIM
 70
     0
  9
$DIMTIH
 70
     0
  9
$DIMTOH
 70
     0
  9
$DIMSE1
 70
     0
  9
$DIMSE2
 70
     0
  9
$DIMTAD
 70
     1
  9
$DIMZIN
 70
     8
  9
$DIMBLK
  1

  9
$DIMASO
 70
     1
  9
$DIMSHO
 70
     0
  9
$DIMPOST
  1

  9
$DIMAPOST
  1

  9
$DIMALT
 70
     0
  9
$DIMALTD
 70
     2
  9
$DIMALTF
 40
25.3999999999999986
  9
$DIMLFAC
 40
2.0
  9
$DIMTOFL
 70
     1
  9
$DIMTVP
 40
0.0
  9
$DIMTIX
 70
     0
  9
$DIMSOXD
 70
     0
  9
$DIMSAH
 70
     0
  9
$DIMBLK1
  1

  9
$DIMBLK2
  1

  9
$DIMSTYLE
  2
STANDARD
  9
$DIMCLRD
 70
     0
  9
$DIMCLRE
 70
     0
  9
$DIMCLRT
 70
     1
  9
$DIMTFAC
 40
0.5142857142857143
  9
$DIMGAP
 40
1.5
  9
$LUNITS
 70
     2
  9
$LUPREC
 70
     2
  9
$SKETCHINC
 40
1.0
  9
$FILLETRAD
 40
2.0
  9
$AUNITS
 70
     0
  9
$AUPREC
 70
     0
  9
$MENU
  1
ACAD
  9
$ELEVATION
 40
0.0
  9
$PELEVATION
 40
0.0
  9
$THICKNESS
 40
0.0
  9
$LIMCHECK
 70
     0
  9
$BLIPMODE
 70
     0
  9
$CHAMFERA
 40
0.0
  9
$CHAMFERB
 40
0.0
  9
$SKPOLY
 70
     0
  9
$TDCREATE
 40
2458193.491747684776783
  9
$TDUPDATE
 40
2458591.3139699078164995
  9
$TDINDWG
 40
0.5469791667
  9
$TDUSRTIMER
 40
0.5469791667
  9
$USRTIMER
 70
     1
  9
$ANGBASE
 50
0.0
  9
$ANGDIR
 70
     0
  9
$PDMODE
 70
     0
  9
$PDSIZE
 40
0.0
  9
$PLINEWID
 40
0.0
  9
$COORDS
 70
     1
  9
$SPLFRAME
 70
     0
  9
$SPLINETYPE
 70
     6
  9
$SPLINESEGS
 70
     8
  9
$ATTDIA
 70
     1
  9
$ATTREQ
 70
     1
  9
$HANDLING
 70
     1
  9
$HANDSEED
  5
82A5
  9
$SURFTAB1
 70
     6
  9
$SURFTAB2
 70
     6
  9
$SURFTYPE
 70
     6
  9
$SURFU
 70
     6
  9
$SURFV
 70
     6
  9
$UCSNAME
  2

  9
$UCSORG
 10
0.0
 20
0.0
 30
0.0
  9
$UCSXDIR
 10
1.0
 20
0.0
 30
0.0
  9
$UCSYDIR
 10
0.0
 20
1.0
 30
0.0
  9
$PUCSNAME
  2

  9
$PUCSORG
 10
0.0
 20
0.0
 30
0.0
  9
$PUCSXDIR
 10
1.0
 20
0.0
 30
0.0
  9
$PUCSYDIR
 10
0.0
 20
1.0
 30
0.0
  9
$USERI1
 70
     0
  9
$USERI2
 70
     0
  9
$USERI3
 70
     0
  9
$USERI4
 70
     0
  9
$USERI5
 70
     0
  9
$USERR1
 40
0.0
  9
$USERR2
 40
0.0
  9
$USERR3
 40
0.0
  9
$USERR4
 40
0.0
  9
$USERR5
 40
0.0
  9
$WORLDVIEW
 70
     1
  9
$SHADEDGE
 70
     3
  9
$SHADEDIF
 70
    70
  9
$TILEMODE
 70
     1
  9
$MAXACTVP
 70
    16
  9
$PLIMCHECK
 70
     0
  9
$PEXTMIN
 10
-343.5275561283106072
 20
-291.8794041567920772
 30
-0.0000000000004613
  9
$PEXTMAX
 10
415.2709805307796955
 20
706.0820775703045911
 30
0.0000000000001202
  9
$PLIMMIN
 10
-3.1749999523162851
 20
-3.1749999523162851
  9
$PLIMMAX
 10
416.8139832019805908
 20
590.8040039539338295
  9
$UNITMODE
 70
     0
  9
$VISRETAIN
 70
     0
  9
$PLINEGEN
 70
     0
  9
$PSLTSCALE
 70
     1
  0
ENDSEC
  0
SECTION
  2
TABLES
  0
TABLE
  2
VPORT
 70
     1
  0
VPORT
  2
*ACTIVE
 70
     0
 10
0.0
 20
0.0
 11
1.0
 21
1.0
 12
0.0
 22
0.0
 13
0.0
 23
0.0
 14
1.0
 24
1.0
 15
10.0
 25
10.0
 16
-0.0000000000012506
 26
0.0
 36
5452.6316273296843065
 17
984.777088205105315
 27
563.5934156896408922
 37
529.9999999999997726
 40
2137.7392043331001332
 41
1.894865525672371
 42
50.0
 43
0.0
 44
0.0
 50
0.0
 51
0.0
 71
     0
 72
  1500
 73
     1
 74
     1
 75
     0
 76
     0
 77
     0
 78
     0
  0
ENDTAB
  0
TABLE
  2
LTYPE
 70
     9
  0
LTYPE
  2
CONTINUOUS
 70
     0
  3
Solid line
 72
    65
 73
     0
 40
0.0
  0
LTYPE
  2
JIS_08_11
 70
     0
  3
1SASEN11 ___ _ ___ _ ___ _ ___ _ ___ _ ___
 72
    65
 73
     4
 40
12.8000000000000007
 49
11.0
 49
-0.6
 49
0.6
 49
-0.6
  0
LTYPE
  2
VERDECKT2
 70
     0
  3
Verdeckt (.5x) _ _ _ _ _ _ _ _ _ _ _ _ _ _ _ _ 
 72
    65
 73
     2
 40
4.7624999999999993
 49
3.1749999999999989
 49
-1.587499999999999
  0
ENDTAB
  0
TABLE
  2
LAYER
 70
    21
  0
LAYER
  2
0
 70
     0
 62
     7
  6
CONTINUOUS
  0
LAYER
  2
BEM
 70
     0
 62
     7
  6
CONTINUOUS
  0
LAYER
  2
ADSK_ASSOC_ENTITY_BACKUPS
 70
     1
 62
    -7
  6
CONTINUOUS
  0
LAYER
  2
DEFPOINTS
 70
     0
 62
     7
  6
CONTINUOUS
  0
LAYER
  2
INDEX2
 70
     0
 62
   150
  6
CONTINUOUS
  0
ENDTAB
  0
TABLE
  2
STYLE
 70
     4
  0
STYLE
  2
STANDARD
 70
     0
 40
0.0
 41
0.8
 50
0.0
 71
     0
 42
3.5
  3
simplex.shx
  4

  0
STYLE
  2
GREEKS
 70
     0
 40
0.0
 41
0.8
 50
0.0
 71
     0
 42
2.5
  3
SIMPLEX.shx
  4

  0
ENDTAB
  0
TABLE
  2
VIEW
 70
     2
  0
ENDTAB
  0
TABLE
  2
UCS
 70
     0
  0
ENDTAB
  0
TABLE
  2
APPID
 70
    48
  0
APPID
  2
ACAD
 70
     0
  0
APPID
  2
ACAD_NAV_VCDISPLAY
 70
     0
  0
APPID
  2
ACAD_EXEMPT_FROM_CAD_STANDARDS
 70
     0
  0
APPID
  2
ACAD_PSEXT
 70
     0
  0
APPID
  2
ACAUTHENVIRON
 70
     0
  0
APPID
  2
ACDBDYNAMICBLOCKTRUENAME
 70
     0
  0
APPID
  2
ACDBDYNAMICBLOCKGUID
 70
     0
  0
APPID
  2
ACAECLAYERSTANDARD
 70
     0
  0
APPID
  2
ACCMTRANSPARENCY
 70
     0
  0
APPID
  2
ACAD_STEPID
 70
     0
  0
APPID
  2
ACSYNERGY
 70
     0
  0
APPID
  2
SYNERGY_BODY_TBR_ID
 70
     0
  0
APPID
  2
ACAD_VIEW_EDGE_ID
 70
     0
  0
APPID
  2
ACAD_DSTYLE_DIMJAG
 70
     0
  0
APPID
  2
ACAD_DSTYLE_DIMTALN
 70
     0
  0
APPID
  2
ACADANNOMONITORALERTICONDI
 70
     0
  0
APPID
  2
ACADANNOTATIVE
 70
     0
  0
APPID
  2
ACADANNOAV
 70
     0
  0
APPID
  2
ACSYNERGYSKETCH
 70
     0
  0
APPID
  2
ACAD_MODELDOC_XFORM
 70
     0
  0
APPID
  2
ACDBBLOCKREPETAG
 70
     0
  0
APPID
  2
ACADANNOPO
 70
     0
  0
APPID
  2
ACAD_ASSOCPERSSUBENTMANAGER
 70
     0
  0
APPID
  2
ACDBDYNAMICBLOCKTRUENAME2
 70
     0
  0
APPID
  2
GRADIENTCOLOR1ACI
 70
     0
  0
APPID
  2
GRADIENTCOLOR2ACI
 70
     0
  0
APPID
  2
ACAD_DSTYLE_DIMRADIAL_EXTENSION
 70
     0
  0
APPID
  2
ACAD_MLEADERVER
 70
     0
  0
APPID
  2
ACAD_OBJECT_CHANGE_GUID
 70
     0
  0
APPID
  2
MCAD_NO_VIS
 70
     0
  0
APPID
  2
ACAD_TEMP_GRAPHIC
 70
     0
  0
APPID
  2
ACATTRIBSERVICES
 70
     0
  0
APPID
  2
DESIGNERASSEMBLIES
 70
     0
  0
APPID
  2
ACAD_DSTYLE_DIMBREAK
 70
     0
  0
APPID
  2
GENIUS_GENSCREG_15
 70
     0
  0
APPID
  2
GENIUS_GENOBJ-N-SDF_13
 70
     0
  0
APPID
  2
GENIUS_GENODEF_13
 70
     0
  0
APPID
  2
ACAD_DSTYLE_DIMARC_LENGTH_
 70
     0
  0
APPID
  2
ACAD_DSTYLE_DIM_LINETYPE
 70
     0
  0
APPID
  2
ACAD_DSTYLE_DIM_EXT1_LINETYPE
 70
     0
  0
APPID
  2
ACAD_DSTYLE_DIM_EXT2_LINETYPE
 70
     0
  0
APPID
  2
RAK
 70
     0
  0
APPID
  2
GENIUS_GENDTOL_13
 70
     0
  0
APPID
  2
ACAD_DSTYLE_DIMINSPECT
 70
     0
  0
APPID
  2
ACAD_DSTYLE_DIMANGULAR_EXT
 70
     0
  0
APPID
  2
PLOTTRANSPARENCY
 70
     0
  0
APPID
  2
PE_URL
 70
     0
  0
APPID
  2
AcDbAttr
 70
     0
  0
ENDTAB
  0
TABLE
  2
DIMSTYLE
 70
     3
  0
DIMSTYLE
  2
STANDARD
 70
     0
  3

  4

  5

  6

  7

 40
1.0
 41
0.18
 42
0.0625
 43
0.38
 44
0.18
 45
0.0
 46
0.0
 47
0.0
 48
0.0
140
0.18
141
0.09
142
0.0
143
25.3999999999999986
144
1.0
145
0.0
146
1.0
147
0.09
 71
     0
 72
     0
 73
     1
 74
     1
 75
     0
 76
     0
 77
     0
 78
     0
170
     0
171
     2
172
     0
173
     0
174
     0
175
     0
176
     0
177
     0
178
     0
  0
ENDTAB
  0
ENDSEC
  0
SECTION
  2
BLOCKS
  0
BLOCK
  8
0
  2
$MODEL_SPACE
 70
     0
 10
0.0
 20
0.0
 30
0.0
  3
$MODEL_SPACE
  1

  0
ENDBLK
  5
38
  8
0
  0
BLOCK
 67
     1
  8
0
  2
$PAPER_SPACE
 70
     0
 10
0.0
 20
0.0
 30
0.0
  3
$PAPER_SPACE
  1

  0
ENDBLK
  5
BC1
 67
     1
  8
0
  0
BLOCK
  8
0
  2
*S0
 70
     1
 10
0.0
 20
0.0
 30
0.0
  3
*S0
  1

  0
ENDBLK
  5
571
  8
0
  0
BLOCK
  8
0
  2
_NONE
 70
     0
 10
0.0
 20
0.0
 30
0.0
  3
_NONE
  1

  0
ENDBLK
  5
11C0
  8
0
  0
BLOCK
  8
0
  2
123
 70
     0
 10
0.0
 20
0.0
 30
0.0
  3
123
  1

  0
LINE
  5
14A3
  8
BEM
 10
0.0
 20
0.0
 30
0.0
 11
15.4991845013463507
 21
-0.0000000000000284
 31
0.0
1001
ACDBBLOCKREPETAG
1070
     1
1071
        0
1005
14A3
  0
LINE
  5
14A4
  8
BEM
 10
2.4991845013463769
 20
-1.500000000000028
 30
0.0
 11
5.4991845013463774
 21
-1.500000000000028
 31
0.0
1001
ACDBBLOCKREPETAG
1070
     1
1071
        1
1005
14A4
  0
LINE
  5
14A5
  8
BEM
 10
7.4991845013463481
 20
-1.500000000000028
 30
0.0
 11
10.4991845013463507
 21
-1.500000000000028
 31
0.0
1001
ACDBBLOCKREPETAG
1070
     1
1071
        2
1005
14A5
  0
LINE
  5
14A6
  8
BEM
 10
12.4991845013463507
 20
-1.500000000000028
 30
0.0
 11
15.4991845013463507
 21
-1.500000000000028
 31
0.0
1001
ACDBBLOCKREPETAG
1070
     1
1071
        3
1005
14A6
  0
POLYLINE
  5
14A7
  8
0
 66
     1
 10
0.0
 20
0.0
 30
0.0
 70
     1
1001
ACDBBLOCKREPETAG
1070
     1
1071
        4
1005
14A7
  0
VERTEX
  5
7993
  8
0
 10
10.2127767082253005
 20
-0.0000000000000284
 30
0.0
  0
VERTEX
  5
7994
  8
0
 10
6.2864077931210707
 20
3.3928740806512101
 30
0.0
  0
VERTEX
  5
7995
  8
0
 10
6.2864077931210707
 20
-0.0000000000000284
 30
0.0
  0
VERTEX
  5
7996
  8
0
 10
10.2127767082253005
 20
-0.0000000000000284
 30
0.0
  0
SEQEND
  5
7997
  8
0
  0
LINE
  5
14A9
  8
BEM
  6
BYBLOCK
 62
     7
 10
0.0
 20
0.0
 30
0.0
 11
0.0
 21
0.0
 31
0.0
  0
ENDBLK
  5
148D
  8
0
  0
BLOCK
  8
0
  2
A$C67F30A60
 70
     0
 10
0.0
 20
0.0
 30
0.0
  3
A$C67F30A60
  1

  0
CIRCLE
  5
78A3
  8
0
  6
CONTINUOUS
 62
     3
 10
0.0000000000000001
 20
0.0
 30
0.0
 40
105.736148740275695
  0
CIRCLE
  5
78A4
  8
0
  6
CONTINUOUS
 62
     3
 10
0.0000000000001395
 20
0.0
 30
0.0
 40
106.6000000000000938
  0
CIRCLE
  5
78A5
  8
0
  6
CONTINUOUS
 62
     3
 10
0.000000000000162
 20
0.0
 30
0.0
 40
123.4000000000002046
  0
CIRCLE
  5
78A6
  8
0
  6
CONTINUOUS
 62
     3
 10
0.0000000000001666
 20
0.0
 30
0.0
 40
117.4142249004363947
  0
CIRCLE
  5
78A7
  8
0
  6
CONTINUOUS
 62
     3
 10
0.0000000000001663
 20
0.0
 30
0.0
 40
114.9188577160246041
  0
CIRCLE
  5
78A8
  8
0
  6
CONTINUOUS
 62
     3
 10
0.0000000000001486
 20
0.0
 30
0.0
 40
112.0
  0
ARC
  5
78A9
  8
0
  6
CONTINUOUS
 62
     3
 10
-0.0000000000000676
 20
-0.0000000000000522
 30
0.0
 40
136.7500000000009095
 50
181.2570466461845058
 51
178.7429533538154089
  0
CIRCLE
  5
78AA
  8
0
  6
CONTINUOUS
 62
     3
 10
-0.0000000000000079
 20
0.0000000000000093
 30
0.0
 40
200.0000000000009948
  0
CIRCLE
  5
78AB
  8
0
  6
CONTINUOUS
 62
     3
 10
0.0000000000000089
 20
0.0000000000000142
 30
0.0
 40
136.5000000000007958
  0
LINE
  5
78AC
  8
0
  6
CONTINUOUS
 62
     3
 10
-136.9791316720794896
 20
-4.7928932188137301
 30
-0.0000000000000568
 11
-136.9791316720794896
 21
4.7928932188136173
 31
-0.0000000000000568
  0
LINE
  5
78AD
  8
0
  6
CONTINUOUS
 62
     3
 10
-138.9791316720794896
 20
-2.500000000000056
 30
-0.0000000000000568
 11
-138.9791316720794896
 21
2.4999999999999432
 31
-0.0000000000000568
  0
LINE
  5
78AE
  8
0
  6
CONTINUOUS
 62
     3
 10
-137.9791316720794896
 20
-4.7928932188137301
 30
-0.0000000000000568
 11
-137.9791316720794896
 21
4.7928932188136173
 31
-0.0000000000000568
  0
ARC
  5
78AF
  8
0
  6
CONTINUOUS
 62
     3
 10
-137.4791316720794896
 20
-4.7928932188137301
 30
-0.0000000000000568
 40
0.5
 50
180.0
 51
0.0
  0
ARC
  5
78B0
  8
0
  6
CONTINUOUS
 62
     3
 10
-137.4791316720794896
 20
4.7928932188136173
 30
-0.0000000000000568
 40
0.5
 50
0.0
 51
180.0
  0
LINE
  5
78B1
  8
0
  6
CONTINUOUS
 62
     3
 10
-138.4791316720794896
 20
2.9999999999999432
 30
-0.0000000000000568
 11
-137.9791316720794896
 21
2.9999999999999432
 31
-0.0000000000000567
  0
LINE
  5
78B2
  8
0
  6
CONTINUOUS
 62
     3
 10
-138.4791316720794896
 20
-3.000000000000056
 30
-0.0000000000000568
 11
-137.9791316720794896
 21
-3.000000000000056
 31
-0.0000000000000567
  0
ARC
  5
78B3
  8
0
  6
CONTINUOUS
 62
     3
 10
-138.4791316720794043
 20
-2.499999999999956
 30
-0.0000000000000568
 40
0.5000000000001
 50
180.0000000000243858
 51
270.0
  0
ARC
  5
78B4
  8
0
  6
CONTINUOUS
 62
     3
 10
-138.4791316720794043
 20
2.4999999999998419
 30
-0.0000000000000568
 40
0.5000000000001137
 50
90.0000000000130314
 51
179.9999999999884039
  0
LINE
  5
78B5
  8
0
  6
CONTINUOUS
 62
     3
 10
-136.9791316720794896
 20
2.9999999999999432
 30
-0.0000000000000568
 11
-136.4670289850274969
 21
2.9999999999999432
 31
-0.0000000000000567
  0
LINE
  5
78B6
  8
0
  6
CONTINUOUS
 62
     3
 10
-136.9791316720794896
 20
-3.000000000000056
 30
-0.0000000000000568
 11
-136.4670289850274969
 21
-3.000000000000056
 31
-0.0000000000000567
  0
CIRCLE
  5
78B7
  8
0
  6
VERDECKT2
 62
     1
 10
0.0
 20
0.0
 30
0.0
 40
108.6251133647416935
  0
CIRCLE
  5
78B8
  8
0
  6
VERDECKT2
 62
     1
 10
0.0000000000001395
 20
0.0
 30
0.0
 40
109.5000000000000995
  0
CIRCLE
  5
78B9
  8
0
  6
VERDECKT2
 62
     1
 10
0.000000000000162
 20
0.0
 30
0.0
 40
120.500000000000199
  0
CIRCLE
  5
78BA
  8
0
  6
VERDECKT2
 62
     1
 10
0.0000000000001486
 20
0.0
 30
0.0
 40
114.9000000000000057
  0
CIRCLE
  5
78BB
  8
0
  6
VERDECKT2
 62
     1
 10
0.0000000000000081
 20
-0.0000000000000987
 30
0.0
 40
132.5000000000011937
  0
LINE
  5
78BC
  8
0
  6
VERDECKT2
 62
     1
 10
-136.4588857495191974
 20
3.349999999999894
 30
-0.0000000000000568
 11
-132.4576441735256083
 21
3.349999999999894
 31
-0.000000000000056
  0
LINE
  5
78BD
  8
0
  6
VERDECKT2
 62
     1
 10
-136.4588857495191974
 20
-3.3500000000000929
 30
-0.0000000000000568
 11
-132.4576441735256083
 21
-3.3500000000000929
 31
-0.000000000000056
  0
CIRCLE
  5
78BE
  8
0
  6
VERDECKT2
 62
     1
 10
-0.0000000000000112
 20
0.0000000000000083
 30
0.0
 40
137.3071991238153089
  0
ARC
  5
78BF
  8
0
  6
VERDECKT2
 62
     1
 10
-0.0000000000242261
 20
0.0000000000003797
 30
0.0
 40
136.7499999999766942
 50
178.7429533538154089
 51
180.0000000000001137
  0
ARC
  5
78C0
  8
0
  6
VERDECKT2
 62
     1
 10
-0.0000000000130279
 20
-0.0000000000003619
 30
0.0
 40
136.7499999999878924
 50
179.999999999999801
 51
181.2570466461845058
  0
CIRCLE
  5
78C1
  8
0
  6
VERDECKT2
 62
     1
 10
-0.0000000000000084
 20
0.0000000000000092
 30
0.0
 40
183.5291969828600998
  0
CIRCLE
  5
78C2
  8
0
  6
VERDECKT2
 62
     1
 10
0.0000000000000081
 20
0.0000000000000139
 30
0.0
 40
132.5000000000009948
  0
CIRCLE
  5
78C3
  8
0
  6
VERDECKT2
 62
     1
 10
0.0000000000000089
 20
0.0000000000000142
 30
0.0
 40
110.0000000000007958
  0
LINE
  5
78C4
  8
0
  6
VERDECKT2
 62
     1
 10
-131.9791316720796033
 20
-4.7928932188136741
 30
0.0
 11
-131.9791316720796033
 21
4.7928932188135596
 31
0.0
  0
LINE
  5
78C5
  8
0
  6
VERDECKT2
 62
     1
 10
-130.9791316720794043
 20
-4.7928932188137301
 30
0.0
 11
-130.9791316720794043
 21
4.7928932188136173
 31
0.0
  0
ARC
  5
78C6
  8
0
  6
VERDECKT2
 62
     1
 10
-131.4791316720794896
 20
-4.7928932188137301
 30
0.0
 40
0.5000000000001137
 50
180.0
 51
0.0
  0
ARC
  5
78C7
  8
0
  6
VERDECKT2
 62
     1
 10
-131.4791316720794896
 20
4.7928932188136173
 30
0.0
 40
0.5000000000001137
 50
0.0000000000065138
 51
180.0000000000065086
  0
LINE
  5
78C8
  8
0
  6
VERDECKT2
 62
     1
 10
-136.4670289850274969
 20
2.9999999999999432
 30
-0.0000000000000568
 11
-131.9791316720796033
 21
2.9999999999999432
 31
-0.0000000000000559
  0
LINE
  5
78C9
  8
0
  6
VERDECKT2
 62
     1
 10
-136.4670289850274969
 20
-3.000000000000056
 30
-0.0000000000000568
 11
-131.9791316720796033
 21
-3.000000000000056
 31
-0.0000000000000559
  0
ENDBLK
  5
78CB
  8
0
  0
BLOCK
  8
0
  2
A$C29F96D22
 70
     0
 10
0.0
 20
0.0
 30
0.0
  3
A$C29F96D22
  1

  0
LINE
  5
78CF
  8
0
  6
CONTINUOUS
 62
     3
 10
-108.6251133647416935
 20
0.0
 30
0.0
 11
108.6251133647416935
 21
0.0
 31
0.0
210
0.0
220
1.0
230
-0.0000000000000002
  0
LINE
  5
78D0
  8
0
  6
CONTINUOUS
 62
     3
 10
-117.4142249004364942
 20
1060.0
 30
-0.0000000000002354
 11
117.4142249004363947
 21
1060.0
 31
-0.0000000000002354
210
0.0
220
1.0
230
-0.0000000000000002
  0
LINE
  5
78D1
  8
0
  6
CONTINUOUS
 62
     3
 10
-108.6251133647416935
 20
0.0000000000000009
 30
0.0
 11
-109.5
 21
9.9999999999928395
 31
-0.0000000000000022
210
0.0
220
1.0
230
-0.0000000000000002
  0
LINE
  5
78D2
  8
0
  6
CONTINUOUS
 62
     3
 10
108.6251133647416935
 20
0.0000000000000009
 30
0.0
 11
109.5
 21
9.9999999999928395
 31
-0.0000000000000022
210
0.0
220
1.0
230
-0.0000000000000002
  0
LINE
  5
78D3
  8
0
  6
CONTINUOUS
 62
     3
 10
109.5000000000000995
 20
931.6998551221628304
 30
-0.0000000000002069
 11
109.5000000000000995
 21
312.0000000000003979
 31
-0.0000000000000693
210
0.0
220
1.0
230
-0.0000000000000002
  0
LINE
  5
78D4
  8
0
  6
CONTINUOUS
 62
     3
 10
109.5000000000000995
 20
140.0000000000003126
 30
-0.0000000000000311
 11
109.5000000000000995
 21
9.9999999999928395
 31
-0.0000000000000022
210
0.0
220
1.0
230
-0.0000000000000002
  0
LINE
  5
78D5
  8
0
  6
CONTINUOUS
 62
     3
 10
-109.5000000000000995
 20
931.6998551221628304
 30
-0.0000000000002069
 11
-109.5000000000000995
 21
312.0000000000003979
 31
-0.0000000000000693
210
0.0
220
1.0
230
-0.0000000000000002
  0
LINE
  5
78D6
  8
0
  6
CONTINUOUS
 62
     3
 10
-109.5000000000000995
 20
140.0000000000003126
 30
-0.0000000000000311
 11
-109.5000000000000995
 21
9.9999999999928395
 31
-0.0000000000000022
210
0.0
220
1.0
230
-0.0000000000000002
  0
ARC
  5
78D7
  8
0
  6
CONTINUOUS
 62
     3
 10
80.4999999999963052
 20
1038.1425070056041022
 30
0.0
 40
42.9000000000039705
210
0.0
220
-0.0000000000000002
230
-1.0
 50
0.0000000000018193
 51
30.6304422515275192
  0
ARC
  5
78D8
  8
0
  6
CONTINUOUS
 62
     3
 10
-80.4999999999961773
 20
1038.1425070056041022
 30
0.0
 40
42.9000000000040274
210
0.0
220
-0.0000000000000002
230
-1.0
 50
149.3695577484724879
 51
179.9999999999982094
  0
ARC
  5
78D9
  8
0
  6
CONTINUOUS
 62
     3
 10
119.4999999999994031
 20
931.6998551221632852
 30
0.0
 40
9.9999999999991385
210
0.0
220
-0.0000000000000002
230
-1.0
 50
145.6131069731204093
 51
180.0000000000032117
  0
ARC
  5
78DA
  8
0
  6
CONTINUOUS
 62
     3
 10
-119.4999999999995026
 20
931.6998551221632852
 30
0.0
 40
9.9999999999993463
210
0.0
220
-0.0000000000000002
230
-1.0
 50
359.9999999999980105
 51
34.3868930268802231
  0
ARC
  5
78DB
  8
0
  6
CONTINUOUS
 62
     3
 10
94.000000000000739
 20
949.1515026088615059
 30
0.0
 40
20.8999999999994017
210
0.0
220
-0.0000000000000002
230
-1.0
 50
325.613106973114327
 51
0.0000000000009414
  0
ARC
  5
78DC
  8
0
  6
CONTINUOUS
 62
     3
 10
-94.0000000000013074
 20
949.1515026088612785
 30
0.0
 40
20.8999999999987303
210
0.0
220
-0.0000000000000002
230
-1.0
 50
179.9999999999984084
 51
214.3868930268866109
  0
LINE
  5
78DD
  8
0
  6
CONTINUOUS
 62
     3
 10
114.9000000000000057
 20
974.8244460927450064
 30
-0.0000000000002165
 11
114.9000000000000057
 21
949.151502608861847
 31
-0.0000000000002108
210
0.0
220
1.0
230
-0.0000000000000002
  0
LINE
  5
78DE
  8
0
  6
CONTINUOUS
 62
     3
 10
-114.9000000000001052
 20
974.8244460927450064
 30
-0.0000000000002165
 11
-114.9000000000001052
 21
949.151502608861847
 31
-0.0000000000002108
210
0.0
220
1.0
230
-0.0000000000000002
  0
ARC
  5
78DF
  8
0
  6
CONTINUOUS
 62
     3
 10
132.9000000000035868
 20
974.8244460927438695
 30
0.0
 40
18.0000000000034284
210
0.0
220
-0.0000000000000002
230
-1.0
 50
149.3645523418553864
 51
179.9999999999963052
  0
ARC
  5
78E0
  8
0
  6
CONTINUOUS
 62
     3
 10
-132.9000000000035016
 20
974.8244460927438695
 30
0.0
 40
18.0000000000034497
210
0.0
220
-0.0000000000000002
230
-1.0
 50
0.0000000000036258
 51
30.6354476581445283
  0
ARC
  5
78E1
  8
0
  6
CONTINUOUS
 62
     3
 10
80.5000000000006537
 20
1005.8574929943939651
 30
0.0
 40
42.8999999999994799
210
0.0
220
-0.0000000000000002
230
-1.0
 50
329.3645523418538801
 51
0.0000000000001654
  0
ARC
  5
78E2
  8
0
  6
CONTINUOUS
 62
     3
 10
-80.5000000000007105
 20
1005.8574929943939651
 30
0.0
 40
42.8999999999993094
210
0.0
220
-0.0000000000000002
230
-1.0
 50
179.999999999999801
 51
210.6354476581462905
  0
LINE
  5
78E3
  8
0
  6
CONTINUOUS
 62
     3
 10
123.4000000000001052
 20
1038.1425070056059212
 30
-0.0000000000002305
 11
123.4000000000001052
 21
1005.8574929943949883
 31
-0.0000000000002233
210
0.0
220
1.0
230
-0.0000000000000002
  0
LINE
  5
78E4
  8
0
  6
CONTINUOUS
 62
     3
 10
-123.4000000000002046
 20
1038.1425070056059212
 30
-0.0000000000002305
 11
-123.4000000000002046
 21
1005.8574929943949883
 31
-0.0000000000002233
210
0.0
220
1.0
230
-0.0000000000000002
  0
LINE
  5
78E5
  8
0
  6
CONTINUOUS
 62
     3
 10
-136.5000000000013074
 20
140.0000000000003979
 30
-0.0000000000000311
 11
136.5000000000011937
 21
140.0000000000003979
 31
-0.0000000000000311
210
0.0
220
1.0
230
-0.0000000000000002
  0
LINE
  5
78E6
  8
0
  6
CONTINUOUS
 62
     3
 10
-136.5000000000013074
 20
308.0000000000003979
 30
-0.0000000000000684
 11
136.5000000000011937
 21
308.0000000000003979
 31
-0.0000000000000684
210
0.0
220
1.0
230
-0.0000000000000002
  0
POLYLINE
  8
0
  5
799D
  62
3
  66
     1
 10
0.000000
 20
0.000000
 30
0.000000
  70
     8
  0
VERTEX
  8
0
  5
799E
 10
-136.459
 20
295.650
 30
-6.56000e-14
  70
    32
  0
VERTEX
  8
0
  5
799F
 10
-136.459
 20
295.641
 30
-6.56000e-14
  70
    32
  0
VERTEX
  8
0
  5
79A0
 10
-136.459
 20
295.632
 30
-6.56000e-14
  70
    32
  0
VERTEX
  8
0
  5
79A1
 10
-136.459
 20
295.624
 30
-6.56000e-14
  70
    32
  0
VERTEX
  8
0
  5
79A2
 10
-136.459
 20
295.615
 30
-6.56000e-14
  70
    32
  0
VERTEX
  8
0
  5
79A3
 10
-136.459
 20
295.606
 30
-6.56000e-14
  70
    32
  0
VERTEX
  8
0
  5
79A4
 10
-136.459
 20
295.597
 30
-6.56000e-14
  70
    32
  0
VERTEX
  8
0
  5
79A5
 10
-136.459
 20
295.588
 30
-6.56000e-14
  70
    32
  0
VERTEX
  8
0
  5
79A6
 10
-136.459
 20
295.580
 30
-6.55999e-14
  70
    32
  0
VERTEX
  8
0
  5
79A7
 10
-136.459
 20
295.571
 30
-6.55999e-14
  70
    32
  0
VERTEX
  8
0
  5
79A8
 10
-136.459
 20
295.562
 30
-6.55999e-14
  70
    32
  0
VERTEX
  8
0
  5
79A9
 10
-136.459
 20
295.553
 30
-6.55998e-14
  70
    32
  0
VERTEX
  8
0
  5
79AA
 10
-136.459
 20
295.544
 30
-6.55998e-14
  70
    32
  0
VERTEX
  8
0
  5
79AB
 10
-136.459
 20
295.535
 30
-6.55997e-14
  70
    32
  0
VERTEX
  8
0
  5
79AC
 10
-136.459
 20
295.526
 30
-6.55996e-14
  70
    32
  0
VERTEX
  8
0
  5
79AD
 10
-136.459
 20
295.517
 30
-6.55995e-14
  70
    32
  0
VERTEX
  8
0
  5
79AE
 10
-136.459
 20
295.509
 30
-6.55994e-14
  70
    32
  0
VERTEX
  8
0
  5
79AF
 10
-136.459
 20
295.500
 30
-6.55993e-14
  70
    32
  0
VERTEX
  8
0
  5
79B0
 10
-136.459
 20
295.491
 30
-6.55992e-14
  70
    32
  0
VERTEX
  8
0
  5
79B1
 10
-136.459
 20
295.482
 30
-6.55991e-14
  70
    32
  0
VERTEX
  8
0
  5
79B2
 10
-136.459
 20
295.473
 30
-6.55989e-14
  70
    32
  0
VERTEX
  8
0
  5
79B3
 10
-136.459
 20
295.464
 30
-6.55988e-14
  70
    32
  0
VERTEX
  8
0
  5
79B4
 10
-136.459
 20
295.455
 30
-6.55986e-14
  70
    32
  0
VERTEX
  8
0
  5
79B5
 10
-136.459
 20
295.446
 30
-6.55984e-14
  70
    32
  0
VERTEX
  8
0
  5
79B6
 10
-136.459
 20
295.437
 30
-6.55981e-14
  70
    32
  0
VERTEX
  8
0
  5
79B7
 10
-136.459
 20
295.428
 30
-6.55979e-14
  70
    32
  0
VERTEX
  8
0
  5
79B8
 10
-136.459
 20
295.419
 30
-6.55976e-14
  70
    32
  0
VERTEX
  8
0
  5
79B9
 10
-136.459
 20
295.410
 30
-6.55973e-14
  70
    32
  0
VERTEX
  8
0
  5
79BA
 10
-136.459
 20
295.401
 30
-6.55970e-14
  70
    32
  0
VERTEX
  8
0
  5
79BB
 10
-136.459
 20
295.392
 30
-6.55967e-14
  70
    32
  0
VERTEX
  8
0
  5
79BC
 10
-136.459
 20
295.383
 30
-6.55964e-14
  70
    32
  0
VERTEX
  8
0
  5
79BD
 10
-136.459
 20
295.375
 30
-6.55960e-14
  70
    32
  0
VERTEX
  8
0
  5
79BE
 10
-136.459
 20
295.366
 30
-6.55956e-14
  70
    32
  0
VERTEX
  8
0
  5
79BF
 10
-136.459
 20
295.357
 30
-6.55952e-14
  70
    32
  0
VERTEX
  8
0
  5
79C0
 10
-136.459
 20
295.348
 30
-6.55947e-14
  70
    32
  0
VERTEX
  8
0
  5
79C1
 10
-136.459
 20
295.339
 30
-6.55942e-14
  70
    32
  0
VERTEX
  8
0
  5
79C2
 10
-136.459
 20
295.330
 30
-6.55937e-14
  70
    32
  0
VERTEX
  8
0
  5
79C3
 10
-136.459
 20
295.321
 30
-6.55932e-14
  70
    32
  0
VERTEX
  8
0
  5
79C4
 10
-136.459
 20
295.312
 30
-6.55926e-14
  70
    32
  0
VERTEX
  8
0
  5
79C5
 10
-136.459
 20
295.303
 30
-6.55920e-14
  70
    32
  0
VERTEX
  8
0
  5
79C6
 10
-136.459
 20
295.294
 30
-6.55914e-14
  70
    32
  0
VERTEX
  8
0
  5
79C7
 10
-136.459
 20
295.285
 30
-6.55907e-14
  70
    32
  0
VERTEX
  8
0
  5
79C8
 10
-136.459
 20
295.276
 30
-6.55900e-14
  70
    32
  0
VERTEX
  8
0
  5
79C9
 10
-136.459
 20
295.267
 30
-6.55893e-14
  70
    32
  0
VERTEX
  8
0
  5
79CA
 10
-136.459
 20
295.258
 30
-6.55885e-14
  70
    32
  0
VERTEX
  8
0
  5
79CB
 10
-136.459
 20
295.249
 30
-6.55877e-14
  70
    32
  0
VERTEX
  8
0
  5
79CC
 10
-136.460
 20
295.240
 30
-6.55869e-14
  70
    32
  0
VERTEX
  8
0
  5
79CD
 10
-136.460
 20
295.231
 30
-6.55860e-14
  70
    32
  0
VERTEX
  8
0
  5
79CE
 10
-136.460
 20
295.221
 30
-6.55851e-14
  70
    32
  0
VERTEX
  8
0
  5
79CF
 10
-136.460
 20
295.212
 30
-6.55842e-14
  70
    32
  0
VERTEX
  8
0
  5
79D0
 10
-136.460
 20
295.203
 30
-6.55832e-14
  70
    32
  0
VERTEX
  8
0
  5
79D1
 10
-136.460
 20
295.194
 30
-6.55821e-14
  70
    32
  0
VERTEX
  8
0
  5
79D2
 10
-136.460
 20
295.185
 30
-6.55811e-14
  70
    32
  0
VERTEX
  8
0
  5
79D3
 10
-136.460
 20
295.176
 30
-6.55800e-14
  70
    32
  0
VERTEX
  8
0
  5
79D4
 10
-136.460
 20
295.167
 30
-6.55788e-14
  70
    32
  0
VERTEX
  8
0
  5
79D5
 10
-136.460
 20
295.158
 30
-6.55776e-14
  70
    32
  0
VERTEX
  8
0
  5
79D6
 10
-136.460
 20
295.149
 30
-6.55764e-14
  70
    32
  0
VERTEX
  8
0
  5
79D7
 10
-136.460
 20
295.140
 30
-6.55751e-14
  70
    32
  0
VERTEX
  8
0
  5
79D8
 10
-136.460
 20
295.131
 30
-6.55737e-14
  70
    32
  0
VERTEX
  8
0
  5
79D9
 10
-136.460
 20
295.122
 30
-6.55723e-14
  70
    32
  0
VERTEX
  8
0
  5
79DA
 10
-136.460
 20
295.113
 30
-6.55709e-14
  70
    32
  0
VERTEX
  8
0
  5
79DB
 10
-136.460
 20
295.104
 30
-6.55694e-14
  70
    32
  0
VERTEX
  8
0
  5
79DC
 10
-136.460
 20
295.095
 30
-6.55679e-14
  70
    32
  0
VERTEX
  8
0
  5
79DD
 10
-136.460
 20
295.086
 30
-6.55663e-14
  70
    32
  0
VERTEX
  8
0
  5
79DE
 10
-136.460
 20
295.077
 30
-6.55647e-14
  70
    32
  0
VERTEX
  8
0
  5
79DF
 10
-136.460
 20
295.068
 30
-6.55630e-14
  70
    32
  0
VERTEX
  8
0
  5
79E0
 10
-136.460
 20
295.059
 30
-6.55613e-14
  70
    32
  0
VERTEX
  8
0
  5
79E1
 10
-136.460
 20
295.050
 30
-6.55595e-14
  70
    32
  0
VERTEX
  8
0
  5
79E2
 10
-136.460
 20
295.041
 30
-6.55577e-14
  70
    32
  0
VERTEX
  8
0
  5
79E3
 10
-136.460
 20
295.032
 30
-6.55558e-14
  70
    32
  0
VERTEX
  8
0
  5
79E4
 10
-136.460
 20
295.023
 30
-6.55538e-14
  70
    32
  0
VERTEX
  8
0
  5
79E5
 10
-136.460
 20
295.014
 30
-6.55518e-14
  70
    32
  0
VERTEX
  8
0
  5
79E6
 10
-136.460
 20
295.005
 30
-6.55497e-14
  70
    32
  0
VERTEX
  8
0
  5
79E7
 10
-136.460
 20
294.996
 30
-6.55476e-14
  70
    32
  0
VERTEX
  8
0
  5
79E8
 10
-136.460
 20
294.987
 30
-6.55454e-14
  70
    32
  0
VERTEX
  8
0
  5
79E9
 10
-136.461
 20
294.978
 30
-6.55432e-14
  70
    32
  0
VERTEX
  8
0
  5
79EA
 10
-136.461
 20
294.969
 30
-6.55409e-14
  70
    32
  0
VERTEX
  8
0
  5
79EB
 10
-136.461
 20
294.960
 30
-6.55386e-14
  70
    32
  0
VERTEX
  8
0
  5
79EC
 10
-136.461
 20
294.951
 30
-6.55362e-14
  70
    32
  0
VERTEX
  8
0
  5
79ED
 10
-136.461
 20
294.942
 30
-6.55338e-14
  70
    32
  0
VERTEX
  8
0
  5
79EE
 10
-136.461
 20
294.933
 30
-6.55313e-14
  70
    32
  0
VERTEX
  8
0
  5
79EF
 10
-136.461
 20
294.924
 30
-6.55287e-14
  70
    32
  0
VERTEX
  8
0
  5
79F0
 10
-136.461
 20
294.914
 30
-6.55262e-14
  70
    32
  0
VERTEX
  8
0
  5
79F1
 10
-136.461
 20
294.905
 30
-6.55236e-14
  70
    32
  0
VERTEX
  8
0
  5
79F2
 10
-136.461
 20
294.896
 30
-6.55209e-14
  70
    32
  0
VERTEX
  8
0
  5
79F3
 10
-136.461
 20
294.887
 30
-6.55182e-14
  70
    32
  0
VERTEX
  8
0
  5
79F4
 10
-136.461
 20
294.878
 30
-6.55155e-14
  70
    32
  0
VERTEX
  8
0
  5
79F5
 10
-136.461
 20
294.869
 30
-6.55127e-14
  70
    32
  0
VERTEX
  8
0
  5
79F6
 10
-136.461
 20
294.860
 30
-6.55099e-14
  70
    32
  0
VERTEX
  8
0
  5
79F7
 10
-136.461
 20
294.852
 30
-6.55071e-14
  70
    32
  0
VERTEX
  8
0
  5
79F8
 10
-136.461
 20
294.843
 30
-6.55042e-14
  70
    32
  0
VERTEX
  8
0
  5
79F9
 10
-136.461
 20
294.834
 30
-6.55014e-14
  70
    32
  0
VERTEX
  8
0
  5
79FA
 10
-136.461
 20
294.825
 30
-6.54984e-14
  70
    32
  0
VERTEX
  8
0
  5
79FB
 10
-136.461
 20
294.816
 30
-6.54955e-14
  70
    32
  0
VERTEX
  8
0
  5
79FC
 10
-136.461
 20
294.807
 30
-6.54925e-14
  70
    32
  0
VERTEX
  8
0
  5
79FD
 10
-136.462
 20
294.798
 30
-6.54895e-14
  70
    32
  0
VERTEX
  8
0
  5
79FE
 10
-136.462
 20
294.789
 30
-6.54865e-14
  70
    32
  0
VERTEX
  8
0
  5
79FF
 10
-136.462
 20
294.780
 30
-6.54835e-14
  70
    32
  0
VERTEX
  8
0
  5
7A00
 10
-136.462
 20
294.771
 30
-6.54805e-14
  70
    32
  0
VERTEX
  8
0
  5
7A01
 10
-136.462
 20
294.762
 30
-6.54774e-14
  70
    32
  0
VERTEX
  8
0
  5
7A02
 10
-136.462
 20
294.753
 30
-6.54743e-14
  70
    32
  0
VERTEX
  8
0
  5
7A03
 10
-136.462
 20
294.744
 30
-6.54712e-14
  70
    32
  0
VERTEX
  8
0
  5
7A04
 10
-136.462
 20
294.735
 30
-6.54681e-14
  70
    32
  0
VERTEX
  8
0
  5
7A05
 10
-136.462
 20
294.726
 30
-6.54650e-14
  70
    32
  0
VERTEX
  8
0
  5
7A06
 10
-136.462
 20
294.717
 30
-6.54619e-14
  70
    32
  0
VERTEX
  8
0
  5
7A07
 10
-136.462
 20
294.708
 30
-6.54588e-14
  70
    32
  0
VERTEX
  8
0
  5
7A08
 10
-136.462
 20
294.699
 30
-6.54557e-14
  70
    32
  0
VERTEX
  8
0
  5
7A09
 10
-136.462
 20
294.690
 30
-6.54525e-14
  70
    32
  0
VERTEX
  8
0
  5
7A0A
 10
-136.462
 20
294.681
 30
-6.54494e-14
  70
    32
  0
VERTEX
  8
0
  5
7A0B
 10
-136.462
 20
294.673
 30
-6.54463e-14
  70
    32
  0
VERTEX
  8
0
  5
7A0C
 10
-136.462
 20
294.664
 30
-6.54432e-14
  70
    32
  0
VERTEX
  8
0
  5
7A0D
 10
-136.463
 20
294.655
 30
-6.54400e-14
  70
    32
  0
VERTEX
  8
0
  5
7A0E
 10
-136.463
 20
294.646
 30
-6.54369e-14
  70
    32
  0
VERTEX
  8
0
  5
7A0F
 10
-136.463
 20
294.637
 30
-6.54338e-14
  70
    32
  0
VERTEX
  8
0
  5
7A10
 10
-136.463
 20
294.628
 30
-6.54307e-14
  70
    32
  0
VERTEX
  8
0
  5
7A11
 10
-136.463
 20
294.619
 30
-6.54276e-14
  70
    32
  0
VERTEX
  8
0
  5
7A12
 10
-136.463
 20
294.610
 30
-6.54245e-14
  70
    32
  0
VERTEX
  8
0
  5
7A13
 10
-136.463
 20
294.602
 30
-6.54214e-14
  70
    32
  0
VERTEX
  8
0
  5
7A14
 10
-136.463
 20
294.593
 30
-6.54184e-14
  70
    32
  0
VERTEX
  8
0
  5
7A15
 10
-136.463
 20
294.584
 30
-6.54154e-14
  70
    32
  0
VERTEX
  8
0
  5
7A16
 10
-136.463
 20
294.575
 30
-6.54123e-14
  70
    32
  0
VERTEX
  8
0
  5
7A17
 10
-136.463
 20
294.566
 30
-6.54093e-14
  70
    32
  0
VERTEX
  8
0
  5
7A18
 10
-136.463
 20
294.558
 30
-6.54064e-14
  70
    32
  0
VERTEX
  8
0
  5
7A19
 10
-136.463
 20
294.549
 30
-6.54034e-14
  70
    32
  0
VERTEX
  8
0
  5
7A1A
 10
-136.463
 20
294.540
 30
-6.54005e-14
  70
    32
  0
VERTEX
  8
0
  5
7A1B
 10
-136.463
 20
294.531
 30
-6.53976e-14
  70
    32
  0
VERTEX
  8
0
  5
7A1C
 10
-136.464
 20
294.522
 30
-6.53947e-14
  70
    32
  0
VERTEX
  8
0
  5
7A1D
 10
-136.464
 20
294.514
 30
-6.53918e-14
  70
    32
  0
VERTEX
  8
0
  5
7A1E
 10
-136.464
 20
294.505
 30
-6.53890e-14
  70
    32
  0
VERTEX
  8
0
  5
7A1F
 10
-136.464
 20
294.496
 30
-6.53862e-14
  70
    32
  0
VERTEX
  8
0
  5
7A20
 10
-136.464
 20
294.487
 30
-6.53835e-14
  70
    32
  0
VERTEX
  8
0
  5
7A21
 10
-136.464
 20
294.479
 30
-6.53808e-14
  70
    32
  0
VERTEX
  8
0
  5
7A22
 10
-136.464
 20
294.470
 30
-6.53781e-14
  70
    32
  0
VERTEX
  8
0
  5
7A23
 10
-136.464
 20
294.461
 30
-6.53755e-14
  70
    32
  0
VERTEX
  8
0
  5
7A24
 10
-136.464
 20
294.452
 30
-6.53729e-14
  70
    32
  0
VERTEX
  8
0
  5
7A25
 10
-136.464
 20
294.444
 30
-6.53703e-14
  70
    32
  0
VERTEX
  8
0
  5
7A26
 10
-136.464
 20
294.435
 30
-6.53678e-14
  70
    32
  0
VERTEX
  8
0
  5
7A27
 10
-136.464
 20
294.426
 30
-6.53653e-14
  70
    32
  0
VERTEX
  8
0
  5
7A28
 10
-136.464
 20
294.418
 30
-6.53629e-14
  70
    32
  0
VERTEX
  8
0
  5
7A29
 10
-136.465
 20
294.409
 30
-6.53605e-14
  70
    32
  0
VERTEX
  8
0
  5
7A2A
 10
-136.465
 20
294.400
 30
-6.53582e-14
  70
    32
  0
VERTEX
  8
0
  5
7A2B
 10
-136.465
 20
294.392
 30
-6.53560e-14
  70
    32
  0
VERTEX
  8
0
  5
7A2C
 10
-136.465
 20
294.383
 30
-6.53537e-14
  70
    32
  0
VERTEX
  8
0
  5
7A2D
 10
-136.465
 20
294.374
 30
-6.53516e-14
  70
    32
  0
VERTEX
  8
0
  5
7A2E
 10
-136.465
 20
294.366
 30
-6.53495e-14
  70
    32
  0
VERTEX
  8
0
  5
7A2F
 10
-136.465
 20
294.357
 30
-6.53474e-14
  70
    32
  0
VERTEX
  8
0
  5
7A30
 10
-136.465
 20
294.349
 30
-6.53454e-14
  70
    32
  0
VERTEX
  8
0
  5
7A31
 10
-136.465
 20
294.340
 30
-6.53435e-14
  70
    32
  0
VERTEX
  8
0
  5
7A32
 10
-136.465
 20
294.331
 30
-6.53416e-14
  70
    32
  0
VERTEX
  8
0
  5
7A33
 10
-136.465
 20
294.323
 30
-6.53398e-14
  70
    32
  0
VERTEX
  8
0
  5
7A34
 10
-136.465
 20
294.314
 30
-6.53380e-14
  70
    32
  0
VERTEX
  8
0
  5
7A35
 10
-136.466
 20
294.306
 30
-6.53363e-14
  70
    32
  0
VERTEX
  8
0
  5
7A36
 10
-136.466
 20
294.297
 30
-6.53346e-14
  70
    32
  0
VERTEX
  8
0
  5
7A37
 10
-136.466
 20
294.289
 30
-6.53330e-14
  70
    32
  0
VERTEX
  8
0
  5
7A38
 10
-136.466
 20
294.280
 30
-6.53314e-14
  70
    32
  0
VERTEX
  8
0
  5
7A39
 10
-136.466
 20
294.272
 30
-6.53298e-14
  70
    32
  0
VERTEX
  8
0
  5
7A3A
 10
-136.466
 20
294.263
 30
-6.53283e-14
  70
    32
  0
VERTEX
  8
0
  5
7A3B
 10
-136.466
 20
294.255
 30
-6.53268e-14
  70
    32
  0
VERTEX
  8
0
  5
7A3C
 10
-136.466
 20
294.246
 30
-6.53254e-14
  70
    32
  0
VERTEX
  8
0
  5
7A3D
 10
-136.466
 20
294.238
 30
-6.53240e-14
  70
    32
  0
VERTEX
  8
0
  5
7A3E
 10
-136.466
 20
294.229
 30
-6.53226e-14
  70
    32
  0
VERTEX
  8
0
  5
7A3F
 10
-136.466
 20
294.221
 30
-6.53213e-14
  70
    32
  0
VERTEX
  8
0
  5
7A40
 10
-136.466
 20
294.213
 30
-6.53199e-14
  70
    32
  0
VERTEX
  8
0
  5
7A41
 10
-136.467
 20
294.204
 30
-6.53187e-14
  70
    32
  0
VERTEX
  8
0
  5
7A42
 10
-136.467
 20
294.196
 30
-6.53174e-14
  70
    32
  0
VERTEX
  8
0
  5
7A43
 10
-136.467
 20
294.187
 30
-6.53162e-14
  70
    32
  0
VERTEX
  8
0
  5
7A44
 10
-136.467
 20
294.179
 30
-6.53150e-14
  70
    32
  0
VERTEX
  8
0
  5
7A45
 10
-136.467
 20
294.171
 30
-6.53138e-14
  70
    32
  0
VERTEX
  8
0
  5
7A46
 10
-136.467
 20
294.162
 30
-6.53126e-14
  70
    32
  0
VERTEX
  8
0
  5
7A47
 10
-136.467
 20
294.154
 30
-6.53115e-14
  70
    32
  0
VERTEX
  8
0
  5
7A48
 10
-136.467
 20
294.146
 30
-6.53104e-14
  70
    32
  0
VERTEX
  8
0
  5
7A49
 10
-136.467
 20
294.137
 30
-6.53092e-14
  70
    32
  0
VERTEX
  8
0
  5
7A4A
 10
-136.467
 20
294.129
 30
-6.53081e-14
  70
    32
  0
VERTEX
  8
0
  5
7A4B
 10
-136.467
 20
294.121
 30
-6.53071e-14
  70
    32
  0
VERTEX
  8
0
  5
7A4C
 10
-136.468
 20
294.112
 30
-6.53060e-14
  70
    32
  0
VERTEX
  8
0
  5
7A4D
 10
-136.468
 20
294.104
 30
-6.53049e-14
  70
    32
  0
VERTEX
  8
0
  5
7A4E
 10
-136.468
 20
294.096
 30
-6.53039e-14
  70
    32
  0
VERTEX
  8
0
  5
7A4F
 10
-136.468
 20
294.088
 30
-6.53028e-14
  70
    32
  0
VERTEX
  8
0
  5
7A50
 10
-136.468
 20
294.079
 30
-6.53018e-14
  70
    32
  0
VERTEX
  8
0
  5
7A51
 10
-136.468
 20
294.071
 30
-6.53007e-14
  70
    32
  0
VERTEX
  8
0
  5
7A52
 10
-136.468
 20
294.063
 30
-6.52997e-14
  70
    32
  0
VERTEX
  8
0
  5
7A53
 10
-136.468
 20
294.055
 30
-6.52986e-14
  70
    32
  0
VERTEX
  8
0
  5
7A54
 10
-136.468
 20
294.047
 30
-6.52976e-14
  70
    32
  0
VERTEX
  8
0
  5
7A55
 10
-136.468
 20
294.039
 30
-6.52965e-14
  70
    32
  0
VERTEX
  8
0
  5
7A56
 10
-136.468
 20
294.030
 30
-6.52955e-14
  70
    32
  0
VERTEX
  8
0
  5
7A57
 10
-136.469
 20
294.022
 30
-6.52944e-14
  70
    32
  0
VERTEX
  8
0
  5
7A58
 10
-136.469
 20
294.014
 30
-6.52933e-14
  70
    32
  0
VERTEX
  8
0
  5
7A59
 10
-136.469
 20
294.006
 30
-6.52923e-14
  70
    32
  0
VERTEX
  8
0
  5
7A5A
 10
-136.469
 20
293.998
 30
-6.52912e-14
  70
    32
  0
VERTEX
  8
0
  5
7A5B
 10
-136.469
 20
293.990
 30
-6.52901e-14
  70
    32
  0
VERTEX
  8
0
  5
7A5C
 10
-136.469
 20
293.982
 30
-6.52889e-14
  70
    32
  0
VERTEX
  8
0
  5
7A5D
 10
-136.469
 20
293.974
 30
-6.52878e-14
  70
    32
  0
VERTEX
  8
0
  5
7A5E
 10
-136.469
 20
293.966
 30
-6.52866e-14
  70
    32
  0
VERTEX
  8
0
  5
7A5F
 10
-136.469
 20
293.958
 30
-6.52855e-14
  70
    32
  0
VERTEX
  8
0
  5
7A60
 10
-136.469
 20
293.950
 30
-6.52843e-14
  70
    32
  0
VERTEX
  8
0
  5
7A61
 10
-136.470
 20
293.942
 30
-6.52831e-14
  70
    32
  0
VERTEX
  8
0
  5
7A62
 10
-136.470
 20
293.934
 30
-6.52818e-14
  70
    32
  0
VERTEX
  8
0
  5
7A63
 10
-136.470
 20
293.926
 30
-6.52805e-14
  70
    32
  0
VERTEX
  8
0
  5
7A64
 10
-136.470
 20
293.918
 30
-6.52792e-14
  70
    32
  0
VERTEX
  8
0
  5
7A65
 10
-136.470
 20
293.910
 30
-6.52779e-14
  70
    32
  0
VERTEX
  8
0
  5
7A66
 10
-136.470
 20
293.902
 30
-6.52765e-14
  70
    32
  0
VERTEX
  8
0
  5
7A67
 10
-136.470
 20
293.894
 30
-6.52752e-14
  70
    32
  0
VERTEX
  8
0
  5
7A68
 10
-136.470
 20
293.886
 30
-6.52737e-14
  70
    32
  0
VERTEX
  8
0
  5
7A69
 10
-136.470
 20
293.879
 30
-6.52723e-14
  70
    32
  0
VERTEX
  8
0
  5
7A6A
 10
-136.470
 20
293.871
 30
-6.52708e-14
  70
    32
  0
VERTEX
  8
0
  5
7A6B
 10
-136.471
 20
293.863
 30
-6.52692e-14
  70
    32
  0
VERTEX
  8
0
  5
7A6C
 10
-136.471
 20
293.855
 30
-6.52676e-14
  70
    32
  0
VERTEX
  8
0
  5
7A6D
 10
-136.471
 20
293.847
 30
-6.52660e-14
  70
    32
  0
VERTEX
  8
0
  5
7A6E
 10
-136.471
 20
293.840
 30
-6.52643e-14
  70
    32
  0
VERTEX
  8
0
  5
7A6F
 10
-136.471
 20
293.832
 30
-6.52626e-14
  70
    32
  0
VERTEX
  8
0
  5
7A70
 10
-136.471
 20
293.824
 30
-6.52609e-14
  70
    32
  0
VERTEX
  8
0
  5
7A71
 10
-136.471
 20
293.816
 30
-6.52591e-14
  70
    32
  0
VERTEX
  8
0
  5
7A72
 10
-136.471
 20
293.809
 30
-6.52572e-14
  70
    32
  0
VERTEX
  8
0
  5
7A73
 10
-136.471
 20
293.801
 30
-6.52553e-14
  70
    32
  0
VERTEX
  8
0
  5
7A74
 10
-136.472
 20
293.793
 30
-6.52533e-14
  70
    32
  0
VERTEX
  8
0
  5
7A75
 10
-136.472
 20
293.786
 30
-6.52513e-14
  70
    32
  0
VERTEX
  8
0
  5
7A76
 10
-136.472
 20
293.778
 30
-6.52492e-14
  70
    32
  0
VERTEX
  8
0
  5
7A77
 10
-136.472
 20
293.770
 30
-6.52472e-14
  70
    32
  0
VERTEX
  8
0
  5
7A78
 10
-136.472
 20
293.763
 30
-6.52452e-14
  70
    32
  0
VERTEX
  8
0
  5
7A79
 10
-136.472
 20
293.755
 30
-6.52433e-14
  70
    32
  0
VERTEX
  8
0
  5
7A7A
 10
-136.472
 20
293.748
 30
-6.52414e-14
  70
    32
  0
VERTEX
  8
0
  5
7A7B
 10
-136.472
 20
293.740
 30
-6.52396e-14
  70
    32
  0
VERTEX
  8
0
  5
7A7C
 10
-136.472
 20
293.733
 30
-6.52378e-14
  70
    32
  0
VERTEX
  8
0
  5
7A7D
 10
-136.472
 20
293.725
 30
-6.52361e-14
  70
    32
  0
VERTEX
  8
0
  5
7A7E
 10
-136.473
 20
293.718
 30
-6.52344e-14
  70
    32
  0
VERTEX
  8
0
  5
7A7F
 10
-136.473
 20
293.710
 30
-6.52328e-14
  70
    32
  0
VERTEX
  8
0
  5
7A80
 10
-136.473
 20
293.703
 30
-6.52312e-14
  70
    32
  0
VERTEX
  8
0
  5
7A81
 10
-136.473
 20
293.695
 30
-6.52296e-14
  70
    32
  0
VERTEX
  8
0
  5
7A82
 10
-136.473
 20
293.688
 30
-6.52281e-14
  70
    32
  0
VERTEX
  8
0
  5
7A83
 10
-136.473
 20
293.680
 30
-6.52266e-14
  70
    32
  0
VERTEX
  8
0
  5
7A84
 10
-136.473
 20
293.673
 30
-6.52252e-14
  70
    32
  0
VERTEX
  8
0
  5
7A85
 10
-136.473
 20
293.666
 30
-6.52238e-14
  70
    32
  0
VERTEX
  8
0
  5
7A86
 10
-136.473
 20
293.658
 30
-6.52224e-14
  70
    32
  0
VERTEX
  8
0
  5
7A87
 10
-136.474
 20
293.651
 30
-6.52211e-14
  70
    32
  0
VERTEX
  8
0
  5
7A88
 10
-136.474
 20
293.644
 30
-6.52198e-14
  70
    32
  0
VERTEX
  8
0
  5
7A89
 10
-136.474
 20
293.636
 30
-6.52185e-14
  70
    32
  0
VERTEX
  8
0
  5
7A8A
 10
-136.474
 20
293.629
 30
-6.52173e-14
  70
    32
  0
VERTEX
  8
0
  5
7A8B
 10
-136.474
 20
293.622
 30
-6.52160e-14
  70
    32
  0
VERTEX
  8
0
  5
7A8C
 10
-136.474
 20
293.614
 30
-6.52148e-14
  70
    32
  0
VERTEX
  8
0
  5
7A8D
 10
-136.474
 20
293.607
 30
-6.52136e-14
  70
    32
  0
VERTEX
  8
0
  5
7A8E
 10
-136.474
 20
293.600
 30
-6.52125e-14
  70
    32
  0
VERTEX
  8
0
  5
7A8F
 10
-136.474
 20
293.593
 30
-6.52113e-14
  70
    32
  0
VERTEX
  8
0
  5
7A90
 10
-136.474
 20
293.586
 30
-6.52102e-14
  70
    32
  0
VERTEX
  8
0
  5
7A91
 10
-136.475
 20
293.579
 30
-6.52091e-14
  70
    32
  0
VERTEX
  8
0
  5
7A92
 10
-136.475
 20
293.571
 30
-6.52080e-14
  70
    32
  0
VERTEX
  8
0
  5
7A93
 10
-136.475
 20
293.564
 30
-6.52069e-14
  70
    32
  0
VERTEX
  8
0
  5
7A94
 10
-136.475
 20
293.557
 30
-6.52059e-14
  70
    32
  0
VERTEX
  8
0
  5
7A95
 10
-136.475
 20
293.550
 30
-6.52048e-14
  70
    32
  0
VERTEX
  8
0
  5
7A96
 10
-136.475
 20
293.543
 30
-6.52037e-14
  70
    32
  0
VERTEX
  8
0
  5
7A97
 10
-136.475
 20
293.536
 30
-6.52027e-14
  70
    32
  0
VERTEX
  8
0
  5
7A98
 10
-136.475
 20
293.529
 30
-6.52016e-14
  70
    32
  0
VERTEX
  8
0
  5
7A99
 10
-136.475
 20
293.522
 30
-6.52006e-14
  70
    32
  0
VERTEX
  8
0
  5
7A9A
 10
-136.476
 20
293.515
 30
-6.51995e-14
  70
    32
  0
VERTEX
  8
0
  5
7A9B
 10
-136.476
 20
293.508
 30
-6.51985e-14
  70
    32
  0
VERTEX
  8
0
  5
7A9C
 10
-136.476
 20
293.501
 30
-6.51975e-14
  70
    32
  0
VERTEX
  8
0
  5
7A9D
 10
-136.476
 20
293.494
 30
-6.51964e-14
  70
    32
  0
VERTEX
  8
0
  5
7A9E
 10
-136.476
 20
293.487
 30
-6.51953e-14
  70
    32
  0
VERTEX
  8
0
  5
7A9F
 10
-136.476
 20
293.481
 30
-6.51943e-14
  70
    32
  0
VERTEX
  8
0
  5
7AA0
 10
-136.476
 20
293.474
 30
-6.51932e-14
  70
    32
  0
VERTEX
  8
0
  5
7AA1
 10
-136.476
 20
293.467
 30
-6.51921e-14
  70
    32
  0
VERTEX
  8
0
  5
7AA2
 10
-136.476
 20
293.460
 30
-6.51910e-14
  70
    32
  0
VERTEX
  8
0
  5
7AA3
 10
-136.477
 20
293.453
 30
-6.51899e-14
  70
    32
  0
VERTEX
  8
0
  5
7AA4
 10
-136.477
 20
293.447
 30
-6.51888e-14
  70
    32
  0
VERTEX
  8
0
  5
7AA5
 10
-136.477
 20
293.440
 30
-6.51877e-14
  70
    32
  0
VERTEX
  8
0
  5
7AA6
 10
-136.477
 20
293.433
 30
-6.51865e-14
  70
    32
  0
VERTEX
  8
0
  5
7AA7
 10
-136.477
 20
293.426
 30
-6.51853e-14
  70
    32
  0
VERTEX
  8
0
  5
7AA8
 10
-136.477
 20
293.420
 30
-6.51841e-14
  70
    32
  0
VERTEX
  8
0
  5
7AA9
 10
-136.477
 20
293.413
 30
-6.51829e-14
  70
    32
  0
VERTEX
  8
0
  5
7AAA
 10
-136.477
 20
293.406
 30
-6.51817e-14
  70
    32
  0
VERTEX
  8
0
  5
7AAB
 10
-136.477
 20
293.400
 30
-6.51804e-14
  70
    32
  0
VERTEX
  8
0
  5
7AAC
 10
-136.478
 20
293.393
 30
-6.51791e-14
  70
    32
  0
VERTEX
  8
0
  5
7AAD
 10
-136.478
 20
293.387
 30
-6.51777e-14
  70
    32
  0
VERTEX
  8
0
  5
7AAE
 10
-136.478
 20
293.380
 30
-6.51764e-14
  70
    32
  0
VERTEX
  8
0
  5
7AAF
 10
-136.478
 20
293.374
 30
-6.51750e-14
  70
    32
  0
VERTEX
  8
0
  5
7AB0
 10
-136.478
 20
293.367
 30
-6.51735e-14
  70
    32
  0
VERTEX
  8
0
  5
7AB1
 10
-136.478
 20
293.361
 30
-6.51721e-14
  70
    32
  0
VERTEX
  8
0
  5
7AB2
 10
-136.478
 20
293.354
 30
-6.51706e-14
  70
    32
  0
VERTEX
  8
0
  5
7AB3
 10
-136.478
 20
293.348
 30
-6.51690e-14
  70
    32
  0
VERTEX
  8
0
  5
7AB4
 10
-136.478
 20
293.341
 30
-6.51674e-14
  70
    32
  0
VERTEX
  8
0
  5
7AB5
 10
-136.479
 20
293.335
 30
-6.51658e-14
  70
    32
  0
VERTEX
  8
0
  5
7AB6
 10
-136.479
 20
293.328
 30
-6.51641e-14
  70
    32
  0
VERTEX
  8
0
  5
7AB7
 10
-136.479
 20
293.322
 30
-6.51624e-14
  70
    32
  0
VERTEX
  8
0
  5
7AB8
 10
-136.479
 20
293.316
 30
-6.51606e-14
  70
    32
  0
VERTEX
  8
0
  5
7AB9
 10
-136.479
 20
293.309
 30
-6.51588e-14
  70
    32
  0
VERTEX
  8
0
  5
7ABA
 10
-136.479
 20
293.303
 30
-6.51570e-14
  70
    32
  0
VERTEX
  8
0
  5
7ABB
 10
-136.479
 20
293.297
 30
-6.51550e-14
  70
    32
  0
VERTEX
  8
0
  5
7ABC
 10
-136.479
 20
293.291
 30
-6.51531e-14
  70
    32
  0
VERTEX
  8
0
  5
7ABD
 10
-136.479
 20
293.284
 30
-6.51510e-14
  70
    32
  0
VERTEX
  8
0
  5
7ABE
 10
-136.479
 20
293.278
 30
-6.51490e-14
  70
    32
  0
VERTEX
  8
0
  5
7ABF
 10
-136.480
 20
293.272
 30
-6.51469e-14
  70
    32
  0
VERTEX
  8
0
  5
7AC0
 10
-136.480
 20
293.266
 30
-6.51450e-14
  70
    32
  0
VERTEX
  8
0
  5
7AC1
 10
-136.480
 20
293.260
 30
-6.51430e-14
  70
    32
  0
VERTEX
  8
0
  5
7AC2
 10
-136.480
 20
293.253
 30
-6.51412e-14
  70
    32
  0
VERTEX
  8
0
  5
7AC3
 10
-136.480
 20
293.247
 30
-6.51394e-14
  70
    32
  0
VERTEX
  8
0
  5
7AC4
 10
-136.480
 20
293.241
 30
-6.51376e-14
  70
    32
  0
VERTEX
  8
0
  5
7AC5
 10
-136.480
 20
293.235
 30
-6.51359e-14
  70
    32
  0
VERTEX
  8
0
  5
7AC6
 10
-136.480
 20
293.229
 30
-6.51342e-14
  70
    32
  0
VERTEX
  8
0
  5
7AC7
 10
-136.480
 20
293.223
 30
-6.51326e-14
  70
    32
  0
VERTEX
  8
0
  5
7AC8
 10
-136.481
 20
293.217
 30
-6.51310e-14
  70
    32
  0
VERTEX
  8
0
  5
7AC9
 10
-136.481
 20
293.211
 30
-6.51294e-14
  70
    32
  0
VERTEX
  8
0
  5
7ACA
 10
-136.481
 20
293.204
 30
-6.51279e-14
  70
    32
  0
VERTEX
  8
0
  5
7ACB
 10
-136.481
 20
293.198
 30
-6.51265e-14
  70
    32
  0
VERTEX
  8
0
  5
7ACC
 10
-136.481
 20
293.192
 30
-6.51250e-14
  70
    32
  0
VERTEX
  8
0
  5
7ACD
 10
-136.481
 20
293.186
 30
-6.51236e-14
  70
    32
  0
VERTEX
  8
0
  5
7ACE
 10
-136.481
 20
293.180
 30
-6.51223e-14
  70
    32
  0
VERTEX
  8
0
  5
7ACF
 10
-136.481
 20
293.174
 30
-6.51209e-14
  70
    32
  0
VERTEX
  8
0
  5
7AD0
 10
-136.481
 20
293.168
 30
-6.51196e-14
  70
    32
  0
VERTEX
  8
0
  5
7AD1
 10
-136.482
 20
293.162
 30
-6.51183e-14
  70
    32
  0
VERTEX
  8
0
  5
7AD2
 10
-136.482
 20
293.156
 30
-6.51171e-14
  70
    32
  0
VERTEX
  8
0
  5
7AD3
 10
-136.482
 20
293.150
 30
-6.51159e-14
  70
    32
  0
VERTEX
  8
0
  5
7AD4
 10
-136.482
 20
293.144
 30
-6.51147e-14
  70
    32
  0
VERTEX
  8
0
  5
7AD5
 10
-136.482
 20
293.139
 30
-6.51135e-14
  70
    32
  0
VERTEX
  8
0
  5
7AD6
 10
-136.482
 20
293.133
 30
-6.51123e-14
  70
    32
  0
VERTEX
  8
0
  5
7AD7
 10
-136.482
 20
293.127
 30
-6.51112e-14
  70
    32
  0
VERTEX
  8
0
  5
7AD8
 10
-136.482
 20
293.121
 30
-6.51101e-14
  70
    32
  0
VERTEX
  8
0
  5
7AD9
 10
-136.482
 20
293.115
 30
-6.51090e-14
  70
    32
  0
VERTEX
  8
0
  5
7ADA
 10
-136.483
 20
293.109
 30
-6.51079e-14
  70
    32
  0
VERTEX
  8
0
  5
7ADB
 10
-136.483
 20
293.103
 30
-6.51068e-14
  70
    32
  0
VERTEX
  8
0
  5
7ADC
 10
-136.483
 20
293.097
 30
-6.51057e-14
  70
    32
  0
VERTEX
  8
0
  5
7ADD
 10
-136.483
 20
293.092
 30
-6.51047e-14
  70
    32
  0
VERTEX
  8
0
  5
7ADE
 10
-136.483
 20
293.086
 30
-6.51036e-14
  70
    32
  0
VERTEX
  8
0
  5
7ADF
 10
-136.483
 20
293.080
 30
-6.51025e-14
  70
    32
  0
VERTEX
  8
0
  5
7AE0
 10
-136.483
 20
293.074
 30
-6.51015e-14
  70
    32
  0
VERTEX
  8
0
  5
7AE1
 10
-136.483
 20
293.068
 30
-6.51005e-14
  70
    32
  0
VERTEX
  8
0
  5
7AE2
 10
-136.483
 20
293.063
 30
-6.50994e-14
  70
    32
  0
VERTEX
  8
0
  5
7AE3
 10
-136.484
 20
293.057
 30
-6.50984e-14
  70
    32
  0
VERTEX
  8
0
  5
7AE4
 10
-136.484
 20
293.051
 30
-6.50973e-14
  70
    32
  0
VERTEX
  8
0
  5
7AE5
 10
-136.484
 20
293.046
 30
-6.50963e-14
  70
    32
  0
VERTEX
  8
0
  5
7AE6
 10
-136.484
 20
293.040
 30
-6.50952e-14
  70
    32
  0
VERTEX
  8
0
  5
7AE7
 10
-136.484
 20
293.034
 30
-6.50941e-14
  70
    32
  0
VERTEX
  8
0
  5
7AE8
 10
-136.484
 20
293.029
 30
-6.50931e-14
  70
    32
  0
VERTEX
  8
0
  5
7AE9
 10
-136.484
 20
293.023
 30
-6.50920e-14
  70
    32
  0
VERTEX
  8
0
  5
7AEA
 10
-136.484
 20
293.017
 30
-6.50909e-14
  70
    32
  0
VERTEX
  8
0
  5
7AEB
 10
-136.484
 20
293.012
 30
-6.50898e-14
  70
    32
  0
VERTEX
  8
0
  5
7AEC
 10
-136.484
 20
293.006
 30
-6.50887e-14
  70
    32
  0
VERTEX
  8
0
  5
7AED
 10
-136.485
 20
293.000
 30
-6.50875e-14
  70
    32
  0
VERTEX
  8
0
  5
7AEE
 10
-136.485
 20
292.995
 30
-6.50864e-14
  70
    32
  0
VERTEX
  8
0
  5
7AEF
 10
-136.485
 20
292.989
 30
-6.50852e-14
  70
    32
  0
VERTEX
  8
0
  5
7AF0
 10
-136.485
 20
292.984
 30
-6.50840e-14
  70
    32
  0
VERTEX
  8
0
  5
7AF1
 10
-136.485
 20
292.978
 30
-6.50827e-14
  70
    32
  0
VERTEX
  8
0
  5
7AF2
 10
-136.485
 20
292.973
 30
-6.50815e-14
  70
    32
  0
VERTEX
  8
0
  5
7AF3
 10
-136.485
 20
292.967
 30
-6.50802e-14
  70
    32
  0
VERTEX
  8
0
  5
7AF4
 10
-136.485
 20
292.962
 30
-6.50789e-14
  70
    32
  0
VERTEX
  8
0
  5
7AF5
 10
-136.485
 20
292.956
 30
-6.50776e-14
  70
    32
  0
VERTEX
  8
0
  5
7AF6
 10
-136.486
 20
292.951
 30
-6.50762e-14
  70
    32
  0
VERTEX
  8
0
  5
7AF7
 10
-136.486
 20
292.946
 30
-6.50748e-14
  70
    32
  0
VERTEX
  8
0
  5
7AF8
 10
-136.486
 20
292.940
 30
-6.50734e-14
  70
    32
  0
VERTEX
  8
0
  5
7AF9
 10
-136.486
 20
292.935
 30
-6.50719e-14
  70
    32
  0
VERTEX
  8
0
  5
7AFA
 10
-136.486
 20
292.930
 30
-6.50704e-14
  70
    32
  0
VERTEX
  8
0
  5
7AFB
 10
-136.486
 20
292.924
 30
-6.50688e-14
  70
    32
  0
VERTEX
  8
0
  5
7AFC
 10
-136.486
 20
292.919
 30
-6.50672e-14
  70
    32
  0
VERTEX
  8
0
  5
7AFD
 10
-136.486
 20
292.914
 30
-6.50656e-14
  70
    32
  0
VERTEX
  8
0
  5
7AFE
 10
-136.486
 20
292.908
 30
-6.50639e-14
  70
    32
  0
VERTEX
  8
0
  5
7AFF
 10
-136.487
 20
292.903
 30
-6.50622e-14
  70
    32
  0
VERTEX
  8
0
  5
7B00
 10
-136.487
 20
292.898
 30
-6.50604e-14
  70
    32
  0
VERTEX
  8
0
  5
7B01
 10
-136.487
 20
292.893
 30
-6.50586e-14
  70
    32
  0
VERTEX
  8
0
  5
7B02
 10
-136.487
 20
292.887
 30
-6.50567e-14
  70
    32
  0
VERTEX
  8
0
  5
7B03
 10
-136.487
 20
292.882
 30
-6.50548e-14
  70
    32
  0
VERTEX
  8
0
  5
7B04
 10
-136.487
 20
292.877
 30
-6.50528e-14
  70
    32
  0
VERTEX
  8
0
  5
7B05
 10
-136.487
 20
292.872
 30
-6.50508e-14
  70
    32
  0
VERTEX
  8
0
  5
7B06
 10
-136.487
 20
292.867
 30
-6.50487e-14
  70
    32
  0
VERTEX
  8
0
  5
7B07
 10
-136.487
 20
292.862
 30
-6.50467e-14
  70
    32
  0
VERTEX
  8
0
  5
7B08
 10
-136.487
 20
292.857
 30
-6.50447e-14
  70
    32
  0
VERTEX
  8
0
  5
7B09
 10
-136.488
 20
292.851
 30
-6.50428e-14
  70
    32
  0
VERTEX
  8
0
  5
7B0A
 10
-136.488
 20
292.846
 30
-6.50409e-14
  70
    32
  0
VERTEX
  8
0
  5
7B0B
 10
-136.488
 20
292.841
 30
-6.50391e-14
  70
    32
  0
VERTEX
  8
0
  5
7B0C
 10
-136.488
 20
292.836
 30
-6.50374e-14
  70
    32
  0
VERTEX
  8
0
  5
7B0D
 10
-136.488
 20
292.831
 30
-6.50357e-14
  70
    32
  0
VERTEX
  8
0
  5
7B0E
 10
-136.488
 20
292.826
 30
-6.50340e-14
  70
    32
  0
VERTEX
  8
0
  5
7B0F
 10
-136.488
 20
292.821
 30
-6.50324e-14
  70
    32
  0
VERTEX
  8
0
  5
7B10
 10
-136.488
 20
292.816
 30
-6.50308e-14
  70
    32
  0
VERTEX
  8
0
  5
7B11
 10
-136.488
 20
292.812
 30
-6.50292e-14
  70
    32
  0
VERTEX
  8
0
  5
7B12
 10
-136.489
 20
292.807
 30
-6.50277e-14
  70
    32
  0
VERTEX
  8
0
  5
7B13
 10
-136.489
 20
292.802
 30
-6.50263e-14
  70
    32
  0
VERTEX
  8
0
  5
7B14
 10
-136.489
 20
292.797
 30
-6.50248e-14
  70
    32
  0
VERTEX
  8
0
  5
7B15
 10
-136.489
 20
292.792
 30
-6.50235e-14
  70
    32
  0
VERTEX
  8
0
  5
7B16
 10
-136.489
 20
292.787
 30
-6.50221e-14
  70
    32
  0
VERTEX
  8
0
  5
7B17
 10
-136.489
 20
292.782
 30
-6.50208e-14
  70
    32
  0
VERTEX
  8
0
  5
7B18
 10
-136.489
 20
292.778
 30
-6.50195e-14
  70
    32
  0
VERTEX
  8
0
  5
7B19
 10
-136.489
 20
292.773
 30
-6.50182e-14
  70
    32
  0
VERTEX
  8
0
  5
7B1A
 10
-136.489
 20
292.768
 30
-6.50169e-14
  70
    32
  0
VERTEX
  8
0
  5
7B1B
 10
-136.489
 20
292.764
 30
-6.50157e-14
  70
    32
  0
VERTEX
  8
0
  5
7B1C
 10
-136.490
 20
292.759
 30
-6.50145e-14
  70
    32
  0
VERTEX
  8
0
  5
7B1D
 10
-136.490
 20
292.754
 30
-6.50134e-14
  70
    32
  0
VERTEX
  8
0
  5
7B1E
 10
-136.490
 20
292.750
 30
-6.50122e-14
  70
    32
  0
VERTEX
  8
0
  5
7B1F
 10
-136.490
 20
292.745
 30
-6.50111e-14
  70
    32
  0
VERTEX
  8
0
  5
7B20
 10
-136.490
 20
292.740
 30
-6.50099e-14
  70
    32
  0
VERTEX
  8
0
  5
7B21
 10
-136.490
 20
292.736
 30
-6.50088e-14
  70
    32
  0
VERTEX
  8
0
  5
7B22
 10
-136.490
 20
292.731
 30
-6.50077e-14
  70
    32
  0
VERTEX
  8
0
  5
7B23
 10
-136.490
 20
292.727
 30
-6.50067e-14
  70
    32
  0
VERTEX
  8
0
  5
7B24
 10
-136.490
 20
292.722
 30
-6.50056e-14
  70
    32
  0
VERTEX
  8
0
  5
7B25
 10
-136.490
 20
292.718
 30
-6.50045e-14
  70
    32
  0
VERTEX
  8
0
  5
7B26
 10
-136.490
 20
292.713
 30
-6.50035e-14
  70
    32
  0
VERTEX
  8
0
  5
7B27
 10
-136.491
 20
292.709
 30
-6.50024e-14
  70
    32
  0
VERTEX
  8
0
  5
7B28
 10
-136.491
 20
292.704
 30
-6.50014e-14
  70
    32
  0
VERTEX
  8
0
  5
7B29
 10
-136.491
 20
292.700
 30
-6.50003e-14
  70
    32
  0
VERTEX
  8
0
  5
7B2A
 10
-136.491
 20
292.695
 30
-6.49993e-14
  70
    32
  0
VERTEX
  8
0
  5
7B2B
 10
-136.491
 20
292.691
 30
-6.49982e-14
  70
    32
  0
VERTEX
  8
0
  5
7B2C
 10
-136.491
 20
292.687
 30
-6.49972e-14
  70
    32
  0
VERTEX
  8
0
  5
7B2D
 10
-136.491
 20
292.682
 30
-6.49961e-14
  70
    32
  0
VERTEX
  8
0
  5
7B2E
 10
-136.491
 20
292.678
 30
-6.49951e-14
  70
    32
  0
VERTEX
  8
0
  5
7B2F
 10
-136.491
 20
292.674
 30
-6.49940e-14
  70
    32
  0
VERTEX
  8
0
  5
7B30
 10
-136.491
 20
292.669
 30
-6.49929e-14
  70
    32
  0
VERTEX
  8
0
  5
7B31
 10
-136.492
 20
292.665
 30
-6.49919e-14
  70
    32
  0
VERTEX
  8
0
  5
7B32
 10
-136.492
 20
292.661
 30
-6.49908e-14
  70
    32
  0
VERTEX
  8
0
  5
7B33
 10
-136.492
 20
292.657
 30
-6.49896e-14
  70
    32
  0
VERTEX
  8
0
  5
7B34
 10
-136.492
 20
292.653
 30
-6.49885e-14
  70
    32
  0
VERTEX
  8
0
  5
7B35
 10
-136.492
 20
292.649
 30
-6.49874e-14
  70
    32
  0
VERTEX
  8
0
  5
7B36
 10
-136.492
 20
292.644
 30
-6.49862e-14
  70
    32
  0
VERTEX
  8
0
  5
7B37
 10
-136.492
 20
292.640
 30
-6.49850e-14
  70
    32
  0
VERTEX
  8
0
  5
7B38
 10
-136.492
 20
292.636
 30
-6.49838e-14
  70
    32
  0
VERTEX
  8
0
  5
7B39
 10
-136.492
 20
292.632
 30
-6.49826e-14
  70
    32
  0
VERTEX
  8
0
  5
7B3A
 10
-136.492
 20
292.628
 30
-6.49813e-14
  70
    32
  0
VERTEX
  8
0
  5
7B3B
 10
-136.492
 20
292.624
 30
-6.49801e-14
  70
    32
  0
VERTEX
  8
0
  5
7B3C
 10
-136.493
 20
292.620
 30
-6.49787e-14
  70
    32
  0
VERTEX
  8
0
  5
7B3D
 10
-136.493
 20
292.616
 30
-6.49774e-14
  70
    32
  0
VERTEX
  8
0
  5
7B3E
 10
-136.493
 20
292.612
 30
-6.49760e-14
  70
    32
  0
VERTEX
  8
0
  5
7B3F
 10
-136.493
 20
292.608
 30
-6.49746e-14
  70
    32
  0
VERTEX
  8
0
  5
7B40
 10
-136.493
 20
292.604
 30
-6.49732e-14
  70
    32
  0
VERTEX
  8
0
  5
7B41
 10
-136.493
 20
292.601
 30
-6.49717e-14
  70
    32
  0
VERTEX
  8
0
  5
7B42
 10
-136.493
 20
292.597
 30
-6.49702e-14
  70
    32
  0
VERTEX
  8
0
  5
7B43
 10
-136.493
 20
292.593
 30
-6.49686e-14
  70
    32
  0
VERTEX
  8
0
  5
7B44
 10
-136.493
 20
292.589
 30
-6.49670e-14
  70
    32
  0
VERTEX
  8
0
  5
7B45
 10
-136.493
 20
292.585
 30
-6.49654e-14
  70
    32
  0
VERTEX
  8
0
  5
7B46
 10
-136.493
 20
292.582
 30
-6.49637e-14
  70
    32
  0
VERTEX
  8
0
  5
7B47
 10
-136.493
 20
292.578
 30
-6.49620e-14
  70
    32
  0
VERTEX
  8
0
  5
7B48
 10
-136.494
 20
292.574
 30
-6.49602e-14
  70
    32
  0
VERTEX
  8
0
  5
7B49
 10
-136.494
 20
292.570
 30
-6.49584e-14
  70
    32
  0
VERTEX
  8
0
  5
7B4A
 10
-136.494
 20
292.567
 30
-6.49565e-14
  70
    32
  0
VERTEX
  8
0
  5
7B4B
 10
-136.494
 20
292.563
 30
-6.49546e-14
  70
    32
  0
VERTEX
  8
0
  5
7B4C
 10
-136.494
 20
292.559
 30
-6.49526e-14
  70
    32
  0
VERTEX
  8
0
  5
7B4D
 10
-136.494
 20
292.556
 30
-6.49505e-14
  70
    32
  0
VERTEX
  8
0
  5
7B4E
 10
-136.494
 20
292.552
 30
-6.49485e-14
  70
    32
  0
VERTEX
  8
0
  5
7B4F
 10
-136.494
 20
292.549
 30
-6.49464e-14
  70
    32
  0
VERTEX
  8
0
  5
7B50
 10
-136.494
 20
292.545
 30
-6.49445e-14
  70
    32
  0
VERTEX
  8
0
  5
7B51
 10
-136.494
 20
292.542
 30
-6.49426e-14
  70
    32
  0
VERTEX
  8
0
  5
7B52
 10
-136.494
 20
292.538
 30
-6.49407e-14
  70
    32
  0
VERTEX
  8
0
  5
7B53
 10
-136.494
 20
292.535
 30
-6.49389e-14
  70
    32
  0
VERTEX
  8
0
  5
7B54
 10
-136.495
 20
292.531
 30
-6.49372e-14
  70
    32
  0
VERTEX
  8
0
  5
7B55
 10
-136.495
 20
292.528
 30
-6.49355e-14
  70
    32
  0
VERTEX
  8
0
  5
7B56
 10
-136.495
 20
292.525
 30
-6.49339e-14
  70
    32
  0
VERTEX
  8
0
  5
7B57
 10
-136.495
 20
292.521
 30
-6.49323e-14
  70
    32
  0
VERTEX
  8
0
  5
7B58
 10
-136.495
 20
292.518
 30
-6.49308e-14
  70
    32
  0
VERTEX
  8
0
  5
7B59
 10
-136.495
 20
292.515
 30
-6.49293e-14
  70
    32
  0
VERTEX
  8
0
  5
7B5A
 10
-136.495
 20
292.512
 30
-6.49278e-14
  70
    32
  0
VERTEX
  8
0
  5
7B5B
 10
-136.495
 20
292.508
 30
-6.49264e-14
  70
    32
  0
VERTEX
  8
0
  5
7B5C
 10
-136.495
 20
292.505
 30
-6.49251e-14
  70
    32
  0
VERTEX
  8
0
  5
7B5D
 10
-136.495
 20
292.502
 30
-6.49238e-14
  70
    32
  0
VERTEX
  8
0
  5
7B5E
 10
-136.495
 20
292.499
 30
-6.49226e-14
  70
    32
  0
VERTEX
  8
0
  5
7B5F
 10
-136.495
 20
292.496
 30
-6.49214e-14
  70
    32
  0
VERTEX
  8
0
  5
7B60
 10
-136.495
 20
292.492
 30
-6.49202e-14
  70
    32
  0
VERTEX
  8
0
  5
7B61
 10
-136.495
 20
292.489
 30
-6.49191e-14
  70
    32
  0
VERTEX
  8
0
  5
7B62
 10
-136.496
 20
292.486
 30
-6.49180e-14
  70
    32
  0
VERTEX
  8
0
  5
7B63
 10
-136.496
 20
292.483
 30
-6.49170e-14
  70
    32
  0
VERTEX
  8
0
  5
7B64
 10
-136.496
 20
292.480
 30
-6.49160e-14
  70
    32
  0
VERTEX
  8
0
  5
7B65
 10
-136.496
 20
292.477
 30
-6.49150e-14
  70
    32
  0
VERTEX
  8
0
  5
7B66
 10
-136.496
 20
292.474
 30
-6.49141e-14
  70
    32
  0
VERTEX
  8
0
  5
7B67
 10
-136.496
 20
292.471
 30
-6.49132e-14
  70
    32
  0
VERTEX
  8
0
  5
7B68
 10
-136.496
 20
292.468
 30
-6.49124e-14
  70
    32
  0
VERTEX
  8
0
  5
7B69
 10
-136.496
 20
292.465
 30
-6.49116e-14
  70
    32
  0
VERTEX
  8
0
  5
7B6A
 10
-136.496
 20
292.463
 30
-6.49108e-14
  70
    32
  0
VERTEX
  8
0
  5
7B6B
 10
-136.496
 20
292.460
 30
-6.49101e-14
  70
    32
  0
VERTEX
  8
0
  5
7B6C
 10
-136.496
 20
292.457
 30
-6.49094e-14
  70
    32
  0
VERTEX
  8
0
  5
7B6D
 10
-136.496
 20
292.454
 30
-6.49087e-14
  70
    32
  0
VERTEX
  8
0
  5
7B6E
 10
-136.496
 20
292.451
 30
-6.49081e-14
  70
    32
  0
VERTEX
  8
0
  5
7B6F
 10
-136.496
 20
292.449
 30
-6.49075e-14
  70
    32
  0
VERTEX
  8
0
  5
7B70
 10
-136.496
 20
292.446
 30
-6.49069e-14
  70
    32
  0
VERTEX
  8
0
  5
7B71
 10
-136.497
 20
292.443
 30
-6.49063e-14
  70
    32
  0
VERTEX
  8
0
  5
7B72
 10
-136.497
 20
292.440
 30
-6.49058e-14
  70
    32
  0
VERTEX
  8
0
  5
7B73
 10
-136.497
 20
292.438
 30
-6.49054e-14
  70
    32
  0
VERTEX
  8
0
  5
7B74
 10
-136.497
 20
292.435
 30
-6.49049e-14
  70
    32
  0
VERTEX
  8
0
  5
7B75
 10
-136.497
 20
292.433
 30
-6.49045e-14
  70
    32
  0
VERTEX
  8
0
  5
7B76
 10
-136.497
 20
292.430
 30
-6.49041e-14
  70
    32
  0
VERTEX
  8
0
  5
7B77
 10
-136.497
 20
292.427
 30
-6.49037e-14
  70
    32
  0
VERTEX
  8
0
  5
7B78
 10
-136.497
 20
292.425
 30
-6.49033e-14
  70
    32
  0
VERTEX
  8
0
  5
7B79
 10
-136.497
 20
292.422
 30
-6.49030e-14
  70
    32
  0
VERTEX
  8
0
  5
7B7A
 10
-136.497
 20
292.420
 30
-6.49027e-14
  70
    32
  0
VERTEX
  8
0
  5
7B7B
 10
-136.497
 20
292.417
 30
-6.49024e-14
  70
    32
  0
VERTEX
  8
0
  5
7B7C
 10
-136.497
 20
292.415
 30
-6.49021e-14
  70
    32
  0
VERTEX
  8
0
  5
7B7D
 10
-136.497
 20
292.413
 30
-6.49019e-14
  70
    32
  0
VERTEX
  8
0
  5
7B7E
 10
-136.497
 20
292.410
 30
-6.49017e-14
  70
    32
  0
VERTEX
  8
0
  5
7B7F
 10
-136.497
 20
292.408
 30
-6.49015e-14
  70
    32
  0
VERTEX
  8
0
  5
7B80
 10
-136.497
 20
292.406
 30
-6.49013e-14
  70
    32
  0
VERTEX
  8
0
  5
7B81
 10
-136.498
 20
292.403
 30
-6.49011e-14
  70
    32
  0
VERTEX
  8
0
  5
7B82
 10
-136.498
 20
292.401
 30
-6.49009e-14
  70
    32
  0
VERTEX
  8
0
  5
7B83
 10
-136.498
 20
292.399
 30
-6.49008e-14
  70
    32
  0
VERTEX
  8
0
  5
7B84
 10
-136.498
 20
292.397
 30
-6.49007e-14
  70
    32
  0
VERTEX
  8
0
  5
7B85
 10
-136.498
 20
292.394
 30
-6.49006e-14
  70
    32
  0
VERTEX
  8
0
  5
7B86
 10
-136.498
 20
292.392
 30
-6.49005e-14
  70
    32
  0
VERTEX
  8
0
  5
7B87
 10
-136.498
 20
292.390
 30
-6.49004e-14
  70
    32
  0
VERTEX
  8
0
  5
7B88
 10
-136.498
 20
292.388
 30
-6.49003e-14
  70
    32
  0
VERTEX
  8
0
  5
7B89
 10
-136.498
 20
292.386
 30
-6.49002e-14
  70
    32
  0
VERTEX
  8
0
  5
7B8A
 10
-136.498
 20
292.384
 30
-6.49002e-14
  70
    32
  0
VERTEX
  8
0
  5
7B8B
 10
-136.498
 20
292.382
 30
-6.49001e-14
  70
    32
  0
VERTEX
  8
0
  5
7B8C
 10
-136.498
 20
292.380
 30
-6.49001e-14
  70
    32
  0
VERTEX
  8
0
  5
7B8D
 10
-136.498
 20
292.378
 30
-6.49001e-14
  70
    32
  0
VERTEX
  8
0
  5
7B8E
 10
-136.498
 20
292.376
 30
-6.49000e-14
  70
    32
  0
VERTEX
  8
0
  5
7B8F
 10
-136.498
 20
292.374
 30
-6.49000e-14
  70
    32
  0
VERTEX
  8
0
  5
7B90
 10
-136.498
 20
292.372
 30
-6.49000e-14
  70
    32
  0
VERTEX
  8
0
  5
7B91
 10
-136.498
 20
292.370
 30
-6.49000e-14
  70
    32
  0
VERTEX
  8
0
  5
7B92
 10
-136.498
 20
292.368
 30
-6.49000e-14
  70
    32
  0
VERTEX
  8
0
  5
7B93
 10
-136.498
 20
292.366
 30
-6.49000e-14
  70
    32
  0
VERTEX
  8
0
  5
7B94
 10
-136.498
 20
292.365
 30
-6.49000e-14
  70
    32
  0
VERTEX
  8
0
  5
7B95
 10
-136.498
 20
292.363
 30
-6.49000e-14
  70
    32
  0
VERTEX
  8
0
  5
7B96
 10
-136.499
 20
292.361
 30
-6.49000e-14
  70
    32
  0
VERTEX
  8
0
  5
7B97
 10
-136.499
 20
292.359
 30
-6.49000e-14
  70
    32
  0
VERTEX
  8
0
  5
7B98
 10
-136.499
 20
292.358
 30
-6.49000e-14
  70
    32
  0
VERTEX
  8
0
  5
7B99
 10
-136.499
 20
292.356
 30
-6.49000e-14
  70
    32
  0
VERTEX
  8
0
  5
7B9A
 10
-136.499
 20
292.354
 30
-6.49000e-14
  70
    32
  0
VERTEX
  8
0
  5
7B9B
 10
-136.499
 20
292.353
 30
-6.49000e-14
  70
    32
  0
VERTEX
  8
0
  5
7B9C
 10
-136.499
 20
292.351
 30
-6.49000e-14
  70
    32
  0
VERTEX
  8
0
  5
7B9D
 10
-136.499
 20
292.349
 30
-6.49000e-14
  70
    32
  0
VERTEX
  8
0
  5
7B9E
 10
-136.499
 20
292.348
 30
-6.49000e-14
  70
    32
  0
VERTEX
  8
0
  5
7B9F
 10
-136.499
 20
292.346
 30
-6.49000e-14
  70
    32
  0
VERTEX
  8
0
  5
7BA0
 10
-136.499
 20
292.345
 30
-6.49000e-14
  70
    32
  0
VERTEX
  8
0
  5
7BA1
 10
-136.499
 20
292.343
 30
-6.49000e-14
  70
    32
  0
VERTEX
  8
0
  5
7BA2
 10
-136.499
 20
292.342
 30
-6.49000e-14
  70
    32
  0
VERTEX
  8
0
  5
7BA3
 10
-136.499
 20
292.340
 30
-6.49000e-14
  70
    32
  0
VERTEX
  8
0
  5
7BA4
 10
-136.499
 20
292.339
 30
-6.49000e-14
  70
    32
  0
VERTEX
  8
0
  5
7BA5
 10
-136.499
 20
292.338
 30
-6.49000e-14
  70
    32
  0
VERTEX
  8
0
  5
7BA6
 10
-136.499
 20
292.336
 30
-6.49000e-14
  70
    32
  0
VERTEX
  8
0
  5
7BA7
 10
-136.499
 20
292.335
 30
-6.49000e-14
  70
    32
  0
VERTEX
  8
0
  5
7BA8
 10
-136.499
 20
292.334
 30
-6.49000e-14
  70
    32
  0
VERTEX
  8
0
  5
7BA9
 10
-136.499
 20
292.332
 30
-6.49000e-14
  70
    32
  0
VERTEX
  8
0
  5
7BAA
 10
-136.499
 20
292.331
 30
-6.49000e-14
  70
    32
  0
VERTEX
  8
0
  5
7BAB
 10
-136.499
 20
292.330
 30
-6.49000e-14
  70
    32
  0
VERTEX
  8
0
  5
7BAC
 10
-136.499
 20
292.329
 30
-6.49000e-14
  70
    32
  0
VERTEX
  8
0
  5
7BAD
 10
-136.499
 20
292.328
 30
-6.49000e-14
  70
    32
  0
VERTEX
  8
0
  5
7BAE
 10
-136.499
 20
292.326
 30
-6.49000e-14
  70
    32
  0
VERTEX
  8
0
  5
7BAF
 10
-136.499
 20
292.325
 30
-6.49000e-14
  70
    32
  0
VERTEX
  8
0
  5
7BB0
 10
-136.499
 20
292.324
 30
-6.49000e-14
  70
    32
  0
VERTEX
  8
0
  5
7BB1
 10
-136.499
 20
292.323
 30
-6.49000e-14
  70
    32
  0
VERTEX
  8
0
  5
7BB2
 10
-136.499
 20
292.322
 30
-6.49000e-14
  70
    32
  0
VERTEX
  8
0
  5
7BB3
 10
-136.499
 20
292.321
 30
-6.49000e-14
  70
    32
  0
VERTEX
  8
0
  5
7BB4
 10
-136.500
 20
292.320
 30
-6.49000e-14
  70
    32
  0
VERTEX
  8
0
  5
7BB5
 10
-136.500
 20
292.319
 30
-6.49000e-14
  70
    32
  0
VERTEX
  8
0
  5
7BB6
 10
-136.500
 20
292.318
 30
-6.49000e-14
  70
    32
  0
VERTEX
  8
0
  5
7BB7
 10
-136.500
 20
292.317
 30
-6.49000e-14
  70
    32
  0
VERTEX
  8
0
  5
7BB8
 10
-136.500
 20
292.316
 30
-6.49000e-14
  70
    32
  0
VERTEX
  8
0
  5
7BB9
 10
-136.500
 20
292.315
 30
-6.49000e-14
  70
    32
  0
VERTEX
  8
0
  5
7BBA
 10
-136.500
 20
292.315
 30
-6.49000e-14
  70
    32
  0
VERTEX
  8
0
  5
7BBB
 10
-136.500
 20
292.314
 30
-6.49000e-14
  70
    32
  0
VERTEX
  8
0
  5
7BBC
 10
-136.500
 20
292.313
 30
-6.49000e-14
  70
    32
  0
VERTEX
  8
0
  5
7BBD
 10
-136.500
 20
292.312
 30
-6.49000e-14
  70
    32
  0
VERTEX
  8
0
  5
7BBE
 10
-136.500
 20
292.311
 30
-6.49000e-14
  70
    32
  0
VERTEX
  8
0
  5
7BBF
 10
-136.500
 20
292.311
 30
-6.49000e-14
  70
    32
  0
VERTEX
  8
0
  5
7BC0
 10
-136.500
 20
292.310
 30
-6.49000e-14
  70
    32
  0
VERTEX
  8
0
  5
7BC1
 10
-136.500
 20
292.309
 30
-6.49000e-14
  70
    32
  0
VERTEX
  8
0
  5
7BC2
 10
-136.500
 20
292.309
 30
-6.49000e-14
  70
    32
  0
VERTEX
  8
0
  5
7BC3
 10
-136.500
 20
292.308
 30
-6.49000e-14
  70
    32
  0
VERTEX
  8
0
  5
7BC4
 10
-136.500
 20
292.307
 30
-6.49000e-14
  70
    32
  0
VERTEX
  8
0
  5
7BC5
 10
-136.500
 20
292.307
 30
-6.49000e-14
  70
    32
  0
VERTEX
  8
0
  5
7BC6
 10
-136.500
 20
292.306
 30
-6.49000e-14
  70
    32
  0
VERTEX
  8
0
  5
7BC7
 10
-136.500
 20
292.306
 30
-6.49000e-14
  70
    32
  0
VERTEX
  8
0
  5
7BC8
 10
-136.500
 20
292.305
 30
-6.49000e-14
  70
    32
  0
VERTEX
  8
0
  5
7BC9
 10
-136.500
 20
292.305
 30
-6.49000e-14
  70
    32
  0
VERTEX
  8
0
  5
7BCA
 10
-136.500
 20
292.304
 30
-6.49000e-14
  70
    32
  0
VERTEX
  8
0
  5
7BCB
 10
-136.500
 20
292.304
 30
-6.49000e-14
  70
    32
  0
VERTEX
  8
0
  5
7BCC
 10
-136.500
 20
292.303
 30
-6.49000e-14
  70
    32
  0
VERTEX
  8
0
  5
7BCD
 10
-136.500
 20
292.303
 30
-6.49000e-14
  70
    32
  0
VERTEX
  8
0
  5
7BCE
 10
-136.500
 20
292.303
 30
-6.49000e-14
  70
    32
  0
VERTEX
  8
0
  5
7BCF
 10
-136.500
 20
292.302
 30
-6.49000e-14
  70
    32
  0
VERTEX
  8
0
  5
7BD0
 10
-136.500
 20
292.302
 30
-6.49000e-14
  70
    32
  0
VERTEX
  8
0
  5
7BD1
 10
-136.500
 20
292.302
 30
-6.49000e-14
  70
    32
  0
VERTEX
  8
0
  5
7BD2
 10
-136.500
 20
292.301
 30
-6.49000e-14
  70
    32
  0
VERTEX
  8
0
  5
7BD3
 10
-136.500
 20
292.301
 30
-6.49000e-14
  70
    32
  0
VERTEX
  8
0
  5
7BD4
 10
-136.500
 20
292.301
 30
-6.49000e-14
  70
    32
  0
VERTEX
  8
0
  5
7BD5
 10
-136.500
 20
292.301
 30
-6.49000e-14
  70
    32
  0
VERTEX
  8
0
  5
7BD6
 10
-136.500
 20
292.301
 30
-6.49000e-14
  70
    32
  0
VERTEX
  8
0
  5
7BD7
 10
-136.500
 20
292.300
 30
-6.49000e-14
  70
    32
  0
VERTEX
  8
0
  5
7BD8
 10
-136.500
 20
292.300
 30
-6.49000e-14
  70
    32
  0
VERTEX
  8
0
  5
7BD9
 10
-136.500
 20
292.300
 30
-6.49000e-14
  70
    32
  0
VERTEX
  8
0
  5
7BDA
 10
-136.500
 20
292.300
 30
-6.49000e-14
  70
    32
  0
VERTEX
  8
0
  5
7BDB
 10
-136.500
 20
292.300
 30
-6.49000e-14
  70
    32
  0
VERTEX
  8
0
  5
7BDC
 10
-136.500
 20
292.300
 30
-6.49000e-14
  70
    32
  0
VERTEX
  8
0
  5
7BDD
 10
-136.500
 20
292.300
 30
-6.49000e-14
  70
    32
  0
SEQEND
  8
0
  5
7BDE
  0
POLYLINE
  8
0
  5
7BDF
  62
3
  66
     1
 10
0.000000
 20
0.000000
 30
0.000000
  70
     8
  0
VERTEX
  8
0
  5
7BE0
 10
-136.500
 20
299.000
 30
-6.64000e-14
  70
    32
  0
VERTEX
  8
0
  5
7BE1
 10
-136.500
 20
299.000
 30
-6.64000e-14
  70
    32
  0
VERTEX
  8
0
  5
7BE2
 10
-136.500
 20
299.000
 30
-6.64000e-14
  70
    32
  0
VERTEX
  8
0
  5
7BE3
 10
-136.500
 20
299.000
 30
-6.64000e-14
  70
    32
  0
VERTEX
  8
0
  5
7BE4
 10
-136.500
 20
299.000
 30
-6.64000e-14
  70
    32
  0
VERTEX
  8
0
  5
7BE5
 10
-136.500
 20
299.000
 30
-6.64000e-14
  70
    32
  0
VERTEX
  8
0
  5
7BE6
 10
-136.500
 20
299.000
 30
-6.64000e-14
  70
    32
  0
VERTEX
  8
0
  5
7BE7
 10
-136.500
 20
298.999
 30
-6.64000e-14
  70
    32
  0
VERTEX
  8
0
  5
7BE8
 10
-136.500
 20
298.999
 30
-6.64000e-14
  70
    32
  0
VERTEX
  8
0
  5
7BE9
 10
-136.500
 20
298.999
 30
-6.64000e-14
  70
    32
  0
VERTEX
  8
0
  5
7BEA
 10
-136.500
 20
298.999
 30
-6.64000e-14
  70
    32
  0
VERTEX
  8
0
  5
7BEB
 10
-136.500
 20
298.999
 30
-6.64000e-14
  70
    32
  0
VERTEX
  8
0
  5
7BEC
 10
-136.500
 20
298.998
 30
-6.64000e-14
  70
    32
  0
VERTEX
  8
0
  5
7BED
 10
-136.500
 20
298.998
 30
-6.64000e-14
  70
    32
  0
VERTEX
  8
0
  5
7BEE
 10
-136.500
 20
298.998
 30
-6.64000e-14
  70
    32
  0
VERTEX
  8
0
  5
7BEF
 10
-136.500
 20
298.997
 30
-6.64000e-14
  70
    32
  0
VERTEX
  8
0
  5
7BF0
 10
-136.500
 20
298.997
 30
-6.64000e-14
  70
    32
  0
VERTEX
  8
0
  5
7BF1
 10
-136.500
 20
298.997
 30
-6.64000e-14
  70
    32
  0
VERTEX
  8
0
  5
7BF2
 10
-136.500
 20
298.996
 30
-6.64000e-14
  70
    32
  0
VERTEX
  8
0
  5
7BF3
 10
-136.500
 20
298.996
 30
-6.64000e-14
  70
    32
  0
VERTEX
  8
0
  5
7BF4
 10
-136.500
 20
298.995
 30
-6.64000e-14
  70
    32
  0
VERTEX
  8
0
  5
7BF5
 10
-136.500
 20
298.995
 30
-6.64000e-14
  70
    32
  0
VERTEX
  8
0
  5
7BF6
 10
-136.500
 20
298.994
 30
-6.64000e-14
  70
    32
  0
VERTEX
  8
0
  5
7BF7
 10
-136.500
 20
298.994
 30
-6.64000e-14
  70
    32
  0
VERTEX
  8
0
  5
7BF8
 10
-136.500
 20
298.993
 30
-6.64000e-14
  70
    32
  0
VERTEX
  8
0
  5
7BF9
 10
-136.500
 20
298.993
 30
-6.64000e-14
  70
    32
  0
VERTEX
  8
0
  5
7BFA
 10
-136.500
 20
298.992
 30
-6.64000e-14
  70
    32
  0
VERTEX
  8
0
  5
7BFB
 10
-136.500
 20
298.991
 30
-6.64000e-14
  70
    32
  0
VERTEX
  8
0
  5
7BFC
 10
-136.500
 20
298.991
 30
-6.64000e-14
  70
    32
  0
VERTEX
  8
0
  5
7BFD
 10
-136.500
 20
298.990
 30
-6.64000e-14
  70
    32
  0
VERTEX
  8
0
  5
7BFE
 10
-136.500
 20
298.989
 30
-6.64000e-14
  70
    32
  0
VERTEX
  8
0
  5
7BFF
 10
-136.500
 20
298.989
 30
-6.64000e-14
  70
    32
  0
VERTEX
  8
0
  5
7C00
 10
-136.500
 20
298.988
 30
-6.64000e-14
  70
    32
  0
VERTEX
  8
0
  5
7C01
 10
-136.500
 20
298.987
 30
-6.64000e-14
  70
    32
  0
VERTEX
  8
0
  5
7C02
 10
-136.500
 20
298.986
 30
-6.64000e-14
  70
    32
  0
VERTEX
  8
0
  5
7C03
 10
-136.500
 20
298.985
 30
-6.64000e-14
  70
    32
  0
VERTEX
  8
0
  5
7C04
 10
-136.500
 20
298.985
 30
-6.64000e-14
  70
    32
  0
VERTEX
  8
0
  5
7C05
 10
-136.500
 20
298.984
 30
-6.64000e-14
  70
    32
  0
VERTEX
  8
0
  5
7C06
 10
-136.500
 20
298.983
 30
-6.64000e-14
  70
    32
  0
VERTEX
  8
0
  5
7C07
 10
-136.500
 20
298.982
 30
-6.64000e-14
  70
    32
  0
VERTEX
  8
0
  5
7C08
 10
-136.500
 20
298.981
 30
-6.64000e-14
  70
    32
  0
VERTEX
  8
0
  5
7C09
 10
-136.500
 20
298.980
 30
-6.64000e-14
  70
    32
  0
VERTEX
  8
0
  5
7C0A
 10
-136.499
 20
298.979
 30
-6.64000e-14
  70
    32
  0
VERTEX
  8
0
  5
7C0B
 10
-136.499
 20
298.978
 30
-6.64000e-14
  70
    32
  0
VERTEX
  8
0
  5
7C0C
 10
-136.499
 20
298.977
 30
-6.64000e-14
  70
    32
  0
VERTEX
  8
0
  5
7C0D
 10
-136.499
 20
298.976
 30
-6.64000e-14
  70
    32
  0
VERTEX
  8
0
  5
7C0E
 10
-136.499
 20
298.975
 30
-6.64000e-14
  70
    32
  0
VERTEX
  8
0
  5
7C0F
 10
-136.499
 20
298.974
 30
-6.64000e-14
  70
    32
  0
VERTEX
  8
0
  5
7C10
 10
-136.499
 20
298.972
 30
-6.64000e-14
  70
    32
  0
VERTEX
  8
0
  5
7C11
 10
-136.499
 20
298.971
 30
-6.64000e-14
  70
    32
  0
VERTEX
  8
0
  5
7C12
 10
-136.499
 20
298.970
 30
-6.64000e-14
  70
    32
  0
VERTEX
  8
0
  5
7C13
 10
-136.499
 20
298.969
 30
-6.64000e-14
  70
    32
  0
VERTEX
  8
0
  5
7C14
 10
-136.499
 20
298.968
 30
-6.64000e-14
  70
    32
  0
VERTEX
  8
0
  5
7C15
 10
-136.499
 20
298.966
 30
-6.64000e-14
  70
    32
  0
VERTEX
  8
0
  5
7C16
 10
-136.499
 20
298.965
 30
-6.64000e-14
  70
    32
  0
VERTEX
  8
0
  5
7C17
 10
-136.499
 20
298.964
 30
-6.64000e-14
  70
    32
  0
VERTEX
  8
0
  5
7C18
 10
-136.499
 20
298.962
 30
-6.64000e-14
  70
    32
  0
VERTEX
  8
0
  5
7C19
 10
-136.499
 20
298.961
 30
-6.64000e-14
  70
    32
  0
VERTEX
  8
0
  5
7C1A
 10
-136.499
 20
298.960
 30
-6.64000e-14
  70
    32
  0
VERTEX
  8
0
  5
7C1B
 10
-136.499
 20
298.958
 30
-6.64000e-14
  70
    32
  0
VERTEX
  8
0
  5
7C1C
 10
-136.499
 20
298.957
 30
-6.64000e-14
  70
    32
  0
VERTEX
  8
0
  5
7C1D
 10
-136.499
 20
298.955
 30
-6.64000e-14
  70
    32
  0
VERTEX
  8
0
  5
7C1E
 10
-136.499
 20
298.954
 30
-6.64000e-14
  70
    32
  0
VERTEX
  8
0
  5
7C1F
 10
-136.499
 20
298.952
 30
-6.64000e-14
  70
    32
  0
VERTEX
  8
0
  5
7C20
 10
-136.499
 20
298.951
 30
-6.64000e-14
  70
    32
  0
VERTEX
  8
0
  5
7C21
 10
-136.499
 20
298.949
 30
-6.64000e-14
  70
    32
  0
VERTEX
  8
0
  5
7C22
 10
-136.499
 20
298.947
 30
-6.64000e-14
  70
    32
  0
VERTEX
  8
0
  5
7C23
 10
-136.499
 20
298.946
 30
-6.64000e-14
  70
    32
  0
VERTEX
  8
0
  5
7C24
 10
-136.499
 20
298.944
 30
-6.64000e-14
  70
    32
  0
VERTEX
  8
0
  5
7C25
 10
-136.499
 20
298.942
 30
-6.64000e-14
  70
    32
  0
VERTEX
  8
0
  5
7C26
 10
-136.499
 20
298.941
 30
-6.64000e-14
  70
    32
  0
VERTEX
  8
0
  5
7C27
 10
-136.499
 20
298.939
 30
-6.64000e-14
  70
    32
  0
VERTEX
  8
0
  5
7C28
 10
-136.498
 20
298.937
 30
-6.64000e-14
  70
    32
  0
VERTEX
  8
0
  5
7C29
 10
-136.498
 20
298.935
 30
-6.64000e-14
  70
    32
  0
VERTEX
  8
0
  5
7C2A
 10
-136.498
 20
298.934
 30
-6.64000e-14
  70
    32
  0
VERTEX
  8
0
  5
7C2B
 10
-136.498
 20
298.932
 30
-6.64000e-14
  70
    32
  0
VERTEX
  8
0
  5
7C2C
 10
-136.498
 20
298.930
 30
-6.64000e-14
  70
    32
  0
VERTEX
  8
0
  5
7C2D
 10
-136.498
 20
298.928
 30
-6.64000e-14
  70
    32
  0
VERTEX
  8
0
  5
7C2E
 10
-136.498
 20
298.926
 30
-6.64000e-14
  70
    32
  0
VERTEX
  8
0
  5
7C2F
 10
-136.498
 20
298.924
 30
-6.64000e-14
  70
    32
  0
VERTEX
  8
0
  5
7C30
 10
-136.498
 20
298.922
 30
-6.63999e-14
  70
    32
  0
VERTEX
  8
0
  5
7C31
 10
-136.498
 20
298.920
 30
-6.63999e-14
  70
    32
  0
VERTEX
  8
0
  5
7C32
 10
-136.498
 20
298.918
 30
-6.63999e-14
  70
    32
  0
VERTEX
  8
0
  5
7C33
 10
-136.498
 20
298.916
 30
-6.63998e-14
  70
    32
  0
VERTEX
  8
0
  5
7C34
 10
-136.498
 20
298.914
 30
-6.63998e-14
  70
    32
  0
VERTEX
  8
0
  5
7C35
 10
-136.498
 20
298.912
 30
-6.63997e-14
  70
    32
  0
VERTEX
  8
0
  5
7C36
 10
-136.498
 20
298.910
 30
-6.63996e-14
  70
    32
  0
VERTEX
  8
0
  5
7C37
 10
-136.498
 20
298.908
 30
-6.63995e-14
  70
    32
  0
VERTEX
  8
0
  5
7C38
 10
-136.498
 20
298.906
 30
-6.63994e-14
  70
    32
  0
VERTEX
  8
0
  5
7C39
 10
-136.498
 20
298.903
 30
-6.63993e-14
  70
    32
  0
VERTEX
  8
0
  5
7C3A
 10
-136.498
 20
298.901
 30
-6.63992e-14
  70
    32
  0
VERTEX
  8
0
  5
7C3B
 10
-136.498
 20
298.899
 30
-6.63991e-14
  70
    32
  0
VERTEX
  8
0
  5
7C3C
 10
-136.498
 20
298.897
 30
-6.63989e-14
  70
    32
  0
VERTEX
  8
0
  5
7C3D
 10
-136.497
 20
298.894
 30
-6.63987e-14
  70
    32
  0
VERTEX
  8
0
  5
7C3E
 10
-136.497
 20
298.892
 30
-6.63985e-14
  70
    32
  0
VERTEX
  8
0
  5
7C3F
 10
-136.497
 20
298.890
 30
-6.63983e-14
  70
    32
  0
VERTEX
  8
0
  5
7C40
 10
-136.497
 20
298.887
 30
-6.63981e-14
  70
    32
  0
VERTEX
  8
0
  5
7C41
 10
-136.497
 20
298.885
 30
-6.63979e-14
  70
    32
  0
VERTEX
  8
0
  5
7C42
 10
-136.497
 20
298.883
 30
-6.63976e-14
  70
    32
  0
VERTEX
  8
0
  5
7C43
 10
-136.497
 20
298.880
 30
-6.63973e-14
  70
    32
  0
VERTEX
  8
0
  5
7C44
 10
-136.497
 20
298.878
 30
-6.63970e-14
  70
    32
  0
VERTEX
  8
0
  5
7C45
 10
-136.497
 20
298.875
 30
-6.63967e-14
  70
    32
  0
VERTEX
  8
0
  5
7C46
 10
-136.497
 20
298.873
 30
-6.63963e-14
  70
    32
  0
VERTEX
  8
0
  5
7C47
 10
-136.497
 20
298.870
 30
-6.63959e-14
  70
    32
  0
VERTEX
  8
0
  5
7C48
 10
-136.497
 20
298.867
 30
-6.63955e-14
  70
    32
  0
VERTEX
  8
0
  5
7C49
 10
-136.497
 20
298.865
 30
-6.63951e-14
  70
    32
  0
VERTEX
  8
0
  5
7C4A
 10
-136.497
 20
298.862
 30
-6.63946e-14
  70
    32
  0
VERTEX
  8
0
  5
7C4B
 10
-136.497
 20
298.860
 30
-6.63942e-14
  70
    32
  0
VERTEX
  8
0
  5
7C4C
 10
-136.497
 20
298.857
 30
-6.63937e-14
  70
    32
  0
VERTEX
  8
0
  5
7C4D
 10
-136.496
 20
298.854
 30
-6.63931e-14
  70
    32
  0
VERTEX
  8
0
  5
7C4E
 10
-136.496
 20
298.851
 30
-6.63925e-14
  70
    32
  0
VERTEX
  8
0
  5
7C4F
 10
-136.496
 20
298.849
 30
-6.63919e-14
  70
    32
  0
VERTEX
  8
0
  5
7C50
 10
-136.496
 20
298.846
 30
-6.63913e-14
  70
    32
  0
VERTEX
  8
0
  5
7C51
 10
-136.496
 20
298.843
 30
-6.63906e-14
  70
    32
  0
VERTEX
  8
0
  5
7C52
 10
-136.496
 20
298.840
 30
-6.63899e-14
  70
    32
  0
VERTEX
  8
0
  5
7C53
 10
-136.496
 20
298.837
 30
-6.63892e-14
  70
    32
  0
VERTEX
  8
0
  5
7C54
 10
-136.496
 20
298.835
 30
-6.63884e-14
  70
    32
  0
VERTEX
  8
0
  5
7C55
 10
-136.496
 20
298.832
 30
-6.63876e-14
  70
    32
  0
VERTEX
  8
0
  5
7C56
 10
-136.496
 20
298.829
 30
-6.63868e-14
  70
    32
  0
VERTEX
  8
0
  5
7C57
 10
-136.496
 20
298.826
 30
-6.63859e-14
  70
    32
  0
VERTEX
  8
0
  5
7C58
 10
-136.496
 20
298.823
 30
-6.63850e-14
  70
    32
  0
VERTEX
  8
0
  5
7C59
 10
-136.496
 20
298.820
 30
-6.63840e-14
  70
    32
  0
VERTEX
  8
0
  5
7C5A
 10
-136.496
 20
298.817
 30
-6.63830e-14
  70
    32
  0
VERTEX
  8
0
  5
7C5B
 10
-136.496
 20
298.814
 30
-6.63820e-14
  70
    32
  0
VERTEX
  8
0
  5
7C5C
 10
-136.495
 20
298.811
 30
-6.63809e-14
  70
    32
  0
VERTEX
  8
0
  5
7C5D
 10
-136.495
 20
298.808
 30
-6.63798e-14
  70
    32
  0
VERTEX
  8
0
  5
7C5E
 10
-136.495
 20
298.804
 30
-6.63786e-14
  70
    32
  0
VERTEX
  8
0
  5
7C5F
 10
-136.495
 20
298.801
 30
-6.63774e-14
  70
    32
  0
VERTEX
  8
0
  5
7C60
 10
-136.495
 20
298.798
 30
-6.63762e-14
  70
    32
  0
VERTEX
  8
0
  5
7C61
 10
-136.495
 20
298.795
 30
-6.63749e-14
  70
    32
  0
VERTEX
  8
0
  5
7C62
 10
-136.495
 20
298.792
 30
-6.63736e-14
  70
    32
  0
VERTEX
  8
0
  5
7C63
 10
-136.495
 20
298.788
 30
-6.63722e-14
  70
    32
  0
VERTEX
  8
0
  5
7C64
 10
-136.495
 20
298.785
 30
-6.63707e-14
  70
    32
  0
VERTEX
  8
0
  5
7C65
 10
-136.495
 20
298.782
 30
-6.63692e-14
  70
    32
  0
VERTEX
  8
0
  5
7C66
 10
-136.495
 20
298.779
 30
-6.63677e-14
  70
    32
  0
VERTEX
  8
0
  5
7C67
 10
-136.495
 20
298.775
 30
-6.63661e-14
  70
    32
  0
VERTEX
  8
0
  5
7C68
 10
-136.495
 20
298.772
 30
-6.63645e-14
  70
    32
  0
VERTEX
  8
0
  5
7C69
 10
-136.495
 20
298.769
 30
-6.63628e-14
  70
    32
  0
VERTEX
  8
0
  5
7C6A
 10
-136.494
 20
298.765
 30
-6.63611e-14
  70
    32
  0
VERTEX
  8
0
  5
7C6B
 10
-136.494
 20
298.762
 30
-6.63593e-14
  70
    32
  0
VERTEX
  8
0
  5
7C6C
 10
-136.494
 20
298.758
 30
-6.63574e-14
  70
    32
  0
VERTEX
  8
0
  5
7C6D
 10
-136.494
 20
298.755
 30
-6.63555e-14
  70
    32
  0
VERTEX
  8
0
  5
7C6E
 10
-136.494
 20
298.751
 30
-6.63536e-14
  70
    32
  0
VERTEX
  8
0
  5
7C6F
 10
-136.494
 20
298.748
 30
-6.63515e-14
  70
    32
  0
VERTEX
  8
0
  5
7C70
 10
-136.494
 20
298.744
 30
-6.63495e-14
  70
    32
  0
VERTEX
  8
0
  5
7C71
 10
-136.494
 20
298.741
 30
-6.63474e-14
  70
    32
  0
VERTEX
  8
0
  5
7C72
 10
-136.494
 20
298.737
 30
-6.63454e-14
  70
    32
  0
VERTEX
  8
0
  5
7C73
 10
-136.494
 20
298.733
 30
-6.63435e-14
  70
    32
  0
VERTEX
  8
0
  5
7C74
 10
-136.494
 20
298.730
 30
-6.63416e-14
  70
    32
  0
VERTEX
  8
0
  5
7C75
 10
-136.494
 20
298.726
 30
-6.63398e-14
  70
    32
  0
VERTEX
  8
0
  5
7C76
 10
-136.493
 20
298.722
 30
-6.63380e-14
  70
    32
  0
VERTEX
  8
0
  5
7C77
 10
-136.493
 20
298.718
 30
-6.63363e-14
  70
    32
  0
VERTEX
  8
0
  5
7C78
 10
-136.493
 20
298.715
 30
-6.63346e-14
  70
    32
  0
VERTEX
  8
0
  5
7C79
 10
-136.493
 20
298.711
 30
-6.63330e-14
  70
    32
  0
VERTEX
  8
0
  5
7C7A
 10
-136.493
 20
298.707
 30
-6.63314e-14
  70
    32
  0
VERTEX
  8
0
  5
7C7B
 10
-136.493
 20
298.703
 30
-6.63298e-14
  70
    32
  0
VERTEX
  8
0
  5
7C7C
 10
-136.493
 20
298.699
 30
-6.63283e-14
  70
    32
  0
VERTEX
  8
0
  5
7C7D
 10
-136.493
 20
298.696
 30
-6.63268e-14
  70
    32
  0
VERTEX
  8
0
  5
7C7E
 10
-136.493
 20
298.692
 30
-6.63254e-14
  70
    32
  0
VERTEX
  8
0
  5
7C7F
 10
-136.493
 20
298.688
 30
-6.63240e-14
  70
    32
  0
VERTEX
  8
0
  5
7C80
 10
-136.493
 20
298.684
 30
-6.63226e-14
  70
    32
  0
VERTEX
  8
0
  5
7C81
 10
-136.493
 20
298.680
 30
-6.63213e-14
  70
    32
  0
VERTEX
  8
0
  5
7C82
 10
-136.492
 20
298.676
 30
-6.63199e-14
  70
    32
  0
VERTEX
  8
0
  5
7C83
 10
-136.492
 20
298.672
 30
-6.63187e-14
  70
    32
  0
VERTEX
  8
0
  5
7C84
 10
-136.492
 20
298.668
 30
-6.63174e-14
  70
    32
  0
VERTEX
  8
0
  5
7C85
 10
-136.492
 20
298.664
 30
-6.63162e-14
  70
    32
  0
VERTEX
  8
0
  5
7C86
 10
-136.492
 20
298.660
 30
-6.63150e-14
  70
    32
  0
VERTEX
  8
0
  5
7C87
 10
-136.492
 20
298.656
 30
-6.63138e-14
  70
    32
  0
VERTEX
  8
0
  5
7C88
 10
-136.492
 20
298.651
 30
-6.63126e-14
  70
    32
  0
VERTEX
  8
0
  5
7C89
 10
-136.492
 20
298.647
 30
-6.63115e-14
  70
    32
  0
VERTEX
  8
0
  5
7C8A
 10
-136.492
 20
298.643
 30
-6.63104e-14
  70
    32
  0
VERTEX
  8
0
  5
7C8B
 10
-136.492
 20
298.639
 30
-6.63092e-14
  70
    32
  0
VERTEX
  8
0
  5
7C8C
 10
-136.492
 20
298.635
 30
-6.63081e-14
  70
    32
  0
VERTEX
  8
0
  5
7C8D
 10
-136.491
 20
298.631
 30
-6.63071e-14
  70
    32
  0
VERTEX
  8
0
  5
7C8E
 10
-136.491
 20
298.626
 30
-6.63060e-14
  70
    32
  0
VERTEX
  8
0
  5
7C8F
 10
-136.491
 20
298.622
 30
-6.63049e-14
  70
    32
  0
VERTEX
  8
0
  5
7C90
 10
-136.491
 20
298.618
 30
-6.63039e-14
  70
    32
  0
VERTEX
  8
0
  5
7C91
 10
-136.491
 20
298.613
 30
-6.63028e-14
  70
    32
  0
VERTEX
  8
0
  5
7C92
 10
-136.491
 20
298.609
 30
-6.63018e-14
  70
    32
  0
VERTEX
  8
0
  5
7C93
 10
-136.491
 20
298.605
 30
-6.63007e-14
  70
    32
  0
VERTEX
  8
0
  5
7C94
 10
-136.491
 20
298.600
 30
-6.62997e-14
  70
    32
  0
VERTEX
  8
0
  5
7C95
 10
-136.491
 20
298.596
 30
-6.62986e-14
  70
    32
  0
VERTEX
  8
0
  5
7C96
 10
-136.491
 20
298.591
 30
-6.62976e-14
  70
    32
  0
VERTEX
  8
0
  5
7C97
 10
-136.490
 20
298.587
 30
-6.62965e-14
  70
    32
  0
VERTEX
  8
0
  5
7C98
 10
-136.490
 20
298.582
 30
-6.62955e-14
  70
    32
  0
VERTEX
  8
0
  5
7C99
 10
-136.490
 20
298.578
 30
-6.62944e-14
  70
    32
  0
VERTEX
  8
0
  5
7C9A
 10
-136.490
 20
298.573
 30
-6.62933e-14
  70
    32
  0
VERTEX
  8
0
  5
7C9B
 10
-136.490
 20
298.569
 30
-6.62923e-14
  70
    32
  0
VERTEX
  8
0
  5
7C9C
 10
-136.490
 20
298.564
 30
-6.62912e-14
  70
    32
  0
VERTEX
  8
0
  5
7C9D
 10
-136.490
 20
298.560
 30
-6.62901e-14
  70
    32
  0
VERTEX
  8
0
  5
7C9E
 10
-136.490
 20
298.555
 30
-6.62889e-14
  70
    32
  0
VERTEX
  8
0
  5
7C9F
 10
-136.490
 20
298.550
 30
-6.62878e-14
  70
    32
  0
VERTEX
  8
0
  5
7CA0
 10
-136.490
 20
298.546
 30
-6.62866e-14
  70
    32
  0
VERTEX
  8
0
  5
7CA1
 10
-136.490
 20
298.541
 30
-6.62855e-14
  70
    32
  0
VERTEX
  8
0
  5
7CA2
 10
-136.489
 20
298.536
 30
-6.62843e-14
  70
    32
  0
VERTEX
  8
0
  5
7CA3
 10
-136.489
 20
298.532
 30
-6.62831e-14
  70
    32
  0
VERTEX
  8
0
  5
7CA4
 10
-136.489
 20
298.527
 30
-6.62818e-14
  70
    32
  0
VERTEX
  8
0
  5
7CA5
 10
-136.489
 20
298.522
 30
-6.62805e-14
  70
    32
  0
VERTEX
  8
0
  5
7CA6
 10
-136.489
 20
298.518
 30
-6.62792e-14
  70
    32
  0
VERTEX
  8
0
  5
7CA7
 10
-136.489
 20
298.513
 30
-6.62779e-14
  70
    32
  0
VERTEX
  8
0
  5
7CA8
 10
-136.489
 20
298.508
 30
-6.62765e-14
  70
    32
  0
VERTEX
  8
0
  5
7CA9
 10
-136.489
 20
298.503
 30
-6.62752e-14
  70
    32
  0
VERTEX
  8
0
  5
7CAA
 10
-136.489
 20
298.498
 30
-6.62737e-14
  70
    32
  0
VERTEX
  8
0
  5
7CAB
 10
-136.489
 20
298.493
 30
-6.62723e-14
  70
    32
  0
VERTEX
  8
0
  5
7CAC
 10
-136.488
 20
298.488
 30
-6.62708e-14
  70
    32
  0
VERTEX
  8
0
  5
7CAD
 10
-136.488
 20
298.484
 30
-6.62692e-14
  70
    32
  0
VERTEX
  8
0
  5
7CAE
 10
-136.488
 20
298.479
 30
-6.62676e-14
  70
    32
  0
VERTEX
  8
0
  5
7CAF
 10
-136.488
 20
298.474
 30
-6.62660e-14
  70
    32
  0
VERTEX
  8
0
  5
7CB0
 10
-136.488
 20
298.469
 30
-6.62643e-14
  70
    32
  0
VERTEX
  8
0
  5
7CB1
 10
-136.488
 20
298.464
 30
-6.62626e-14
  70
    32
  0
VERTEX
  8
0
  5
7CB2
 10
-136.488
 20
298.459
 30
-6.62609e-14
  70
    32
  0
VERTEX
  8
0
  5
7CB3
 10
-136.488
 20
298.454
 30
-6.62591e-14
  70
    32
  0
VERTEX
  8
0
  5
7CB4
 10
-136.488
 20
298.449
 30
-6.62572e-14
  70
    32
  0
VERTEX
  8
0
  5
7CB5
 10
-136.487
 20
298.443
 30
-6.62553e-14
  70
    32
  0
VERTEX
  8
0
  5
7CB6
 10
-136.487
 20
298.438
 30
-6.62533e-14
  70
    32
  0
VERTEX
  8
0
  5
7CB7
 10
-136.487
 20
298.433
 30
-6.62513e-14
  70
    32
  0
VERTEX
  8
0
  5
7CB8
 10
-136.487
 20
298.428
 30
-6.62492e-14
  70
    32
  0
VERTEX
  8
0
  5
7CB9
 10
-136.487
 20
298.423
 30
-6.62472e-14
  70
    32
  0
VERTEX
  8
0
  5
7CBA
 10
-136.487
 20
298.418
 30
-6.62452e-14
  70
    32
  0
VERTEX
  8
0
  5
7CBB
 10
-136.487
 20
298.413
 30
-6.62433e-14
  70
    32
  0
VERTEX
  8
0
  5
7CBC
 10
-136.487
 20
298.407
 30
-6.62414e-14
  70
    32
  0
VERTEX
  8
0
  5
7CBD
 10
-136.487
 20
298.402
 30
-6.62396e-14
  70
    32
  0
VERTEX
  8
0
  5
7CBE
 10
-136.487
 20
298.397
 30
-6.62378e-14
  70
    32
  0
VERTEX
  8
0
  5
7CBF
 10
-136.486
 20
298.392
 30
-6.62361e-14
  70
    32
  0
VERTEX
  8
0
  5
7CC0
 10
-136.486
 20
298.386
 30
-6.62344e-14
  70
    32
  0
VERTEX
  8
0
  5
7CC1
 10
-136.486
 20
298.381
 30
-6.62328e-14
  70
    32
  0
VERTEX
  8
0
  5
7CC2
 10
-136.486
 20
298.376
 30
-6.62312e-14
  70
    32
  0
VERTEX
  8
0
  5
7CC3
 10
-136.486
 20
298.370
 30
-6.62296e-14
  70
    32
  0
VERTEX
  8
0
  5
7CC4
 10
-136.486
 20
298.365
 30
-6.62281e-14
  70
    32
  0
VERTEX
  8
0
  5
7CC5
 10
-136.486
 20
298.360
 30
-6.62266e-14
  70
    32
  0
VERTEX
  8
0
  5
7CC6
 10
-136.486
 20
298.354
 30
-6.62252e-14
  70
    32
  0
VERTEX
  8
0
  5
7CC7
 10
-136.486
 20
298.349
 30
-6.62238e-14
  70
    32
  0
VERTEX
  8
0
  5
7CC8
 10
-136.485
 20
298.344
 30
-6.62224e-14
  70
    32
  0
VERTEX
  8
0
  5
7CC9
 10
-136.485
 20
298.338
 30
-6.62211e-14
  70
    32
  0
VERTEX
  8
0
  5
7CCA
 10
-136.485
 20
298.333
 30
-6.62198e-14
  70
    32
  0
VERTEX
  8
0
  5
7CCB
 10
-136.485
 20
298.327
 30
-6.62185e-14
  70
    32
  0
VERTEX
  8
0
  5
7CCC
 10
-136.485
 20
298.322
 30
-6.62173e-14
  70
    32
  0
VERTEX
  8
0
  5
7CCD
 10
-136.485
 20
298.316
 30
-6.62160e-14
  70
    32
  0
VERTEX
  8
0
  5
7CCE
 10
-136.485
 20
298.311
 30
-6.62148e-14
  70
    32
  0
VERTEX
  8
0
  5
7CCF
 10
-136.485
 20
298.305
 30
-6.62136e-14
  70
    32
  0
VERTEX
  8
0
  5
7CD0
 10
-136.485
 20
298.300
 30
-6.62125e-14
  70
    32
  0
VERTEX
  8
0
  5
7CD1
 10
-136.484
 20
298.294
 30
-6.62113e-14
  70
    32
  0
VERTEX
  8
0
  5
7CD2
 10
-136.484
 20
298.288
 30
-6.62102e-14
  70
    32
  0
VERTEX
  8
0
  5
7CD3
 10
-136.484
 20
298.283
 30
-6.62091e-14
  70
    32
  0
VERTEX
  8
0
  5
7CD4
 10
-136.484
 20
298.277
 30
-6.62080e-14
  70
    32
  0
VERTEX
  8
0
  5
7CD5
 10
-136.484
 20
298.271
 30
-6.62069e-14
  70
    32
  0
VERTEX
  8
0
  5
7CD6
 10
-136.484
 20
298.266
 30
-6.62059e-14
  70
    32
  0
VERTEX
  8
0
  5
7CD7
 10
-136.484
 20
298.260
 30
-6.62048e-14
  70
    32
  0
VERTEX
  8
0
  5
7CD8
 10
-136.484
 20
298.254
 30
-6.62037e-14
  70
    32
  0
VERTEX
  8
0
  5
7CD9
 10
-136.484
 20
298.249
 30
-6.62027e-14
  70
    32
  0
VERTEX
  8
0
  5
7CDA
 10
-136.484
 20
298.243
 30
-6.62016e-14
  70
    32
  0
VERTEX
  8
0
  5
7CDB
 10
-136.483
 20
298.237
 30
-6.62006e-14
  70
    32
  0
VERTEX
  8
0
  5
7CDC
 10
-136.483
 20
298.232
 30
-6.61995e-14
  70
    32
  0
VERTEX
  8
0
  5
7CDD
 10
-136.483
 20
298.226
 30
-6.61985e-14
  70
    32
  0
VERTEX
  8
0
  5
7CDE
 10
-136.483
 20
298.220
 30
-6.61975e-14
  70
    32
  0
VERTEX
  8
0
  5
7CDF
 10
-136.483
 20
298.214
 30
-6.61964e-14
  70
    32
  0
VERTEX
  8
0
  5
7CE0
 10
-136.483
 20
298.208
 30
-6.61953e-14
  70
    32
  0
VERTEX
  8
0
  5
7CE1
 10
-136.483
 20
298.203
 30
-6.61943e-14
  70
    32
  0
VERTEX
  8
0
  5
7CE2
 10
-136.483
 20
298.197
 30
-6.61932e-14
  70
    32
  0
VERTEX
  8
0
  5
7CE3
 10
-136.483
 20
298.191
 30
-6.61921e-14
  70
    32
  0
VERTEX
  8
0
  5
7CE4
 10
-136.482
 20
298.185
 30
-6.61910e-14
  70
    32
  0
VERTEX
  8
0
  5
7CE5
 10
-136.482
 20
298.179
 30
-6.61899e-14
  70
    32
  0
VERTEX
  8
0
  5
7CE6
 10
-136.482
 20
298.173
 30
-6.61888e-14
  70
    32
  0
VERTEX
  8
0
  5
7CE7
 10
-136.482
 20
298.167
 30
-6.61877e-14
  70
    32
  0
VERTEX
  8
0
  5
7CE8
 10
-136.482
 20
298.161
 30
-6.61865e-14
  70
    32
  0
VERTEX
  8
0
  5
7CE9
 10
-136.482
 20
298.156
 30
-6.61853e-14
  70
    32
  0
VERTEX
  8
0
  5
7CEA
 10
-136.482
 20
298.150
 30
-6.61841e-14
  70
    32
  0
VERTEX
  8
0
  5
7CEB
 10
-136.482
 20
298.144
 30
-6.61829e-14
  70
    32
  0
VERTEX
  8
0
  5
7CEC
 10
-136.482
 20
298.138
 30
-6.61817e-14
  70
    32
  0
VERTEX
  8
0
  5
7CED
 10
-136.481
 20
298.132
 30
-6.61804e-14
  70
    32
  0
VERTEX
  8
0
  5
7CEE
 10
-136.481
 20
298.126
 30
-6.61791e-14
  70
    32
  0
VERTEX
  8
0
  5
7CEF
 10
-136.481
 20
298.120
 30
-6.61777e-14
  70
    32
  0
VERTEX
  8
0
  5
7CF0
 10
-136.481
 20
298.114
 30
-6.61764e-14
  70
    32
  0
VERTEX
  8
0
  5
7CF1
 10
-136.481
 20
298.108
 30
-6.61750e-14
  70
    32
  0
VERTEX
  8
0
  5
7CF2
 10
-136.481
 20
298.102
 30
-6.61735e-14
  70
    32
  0
VERTEX
  8
0
  5
7CF3
 10
-136.481
 20
298.096
 30
-6.61721e-14
  70
    32
  0
VERTEX
  8
0
  5
7CF4
 10
-136.481
 20
298.089
 30
-6.61706e-14
  70
    32
  0
VERTEX
  8
0
  5
7CF5
 10
-136.481
 20
298.083
 30
-6.61690e-14
  70
    32
  0
VERTEX
  8
0
  5
7CF6
 10
-136.480
 20
298.077
 30
-6.61674e-14
  70
    32
  0
VERTEX
  8
0
  5
7CF7
 10
-136.480
 20
298.071
 30
-6.61658e-14
  70
    32
  0
VERTEX
  8
0
  5
7CF8
 10
-136.480
 20
298.065
 30
-6.61641e-14
  70
    32
  0
VERTEX
  8
0
  5
7CF9
 10
-136.480
 20
298.059
 30
-6.61624e-14
  70
    32
  0
VERTEX
  8
0
  5
7CFA
 10
-136.480
 20
298.053
 30
-6.61606e-14
  70
    32
  0
VERTEX
  8
0
  5
7CFB
 10
-136.480
 20
298.047
 30
-6.61588e-14
  70
    32
  0
VERTEX
  8
0
  5
7CFC
 10
-136.480
 20
298.040
 30
-6.61570e-14
  70
    32
  0
VERTEX
  8
0
  5
7CFD
 10
-136.480
 20
298.034
 30
-6.61550e-14
  70
    32
  0
VERTEX
  8
0
  5
7CFE
 10
-136.480
 20
298.028
 30
-6.61531e-14
  70
    32
  0
VERTEX
  8
0
  5
7CFF
 10
-136.479
 20
298.022
 30
-6.61510e-14
  70
    32
  0
VERTEX
  8
0
  5
7D00
 10
-136.479
 20
298.016
 30
-6.61490e-14
  70
    32
  0
VERTEX
  8
0
  5
7D01
 10
-136.479
 20
298.009
 30
-6.61469e-14
  70
    32
  0
VERTEX
  8
0
  5
7D02
 10
-136.479
 20
298.003
 30
-6.61450e-14
  70
    32
  0
VERTEX
  8
0
  5
7D03
 10
-136.479
 20
297.997
 30
-6.61430e-14
  70
    32
  0
VERTEX
  8
0
  5
7D04
 10
-136.479
 20
297.991
 30
-6.61412e-14
  70
    32
  0
VERTEX
  8
0
  5
7D05
 10
-136.479
 20
297.984
 30
-6.61394e-14
  70
    32
  0
VERTEX
  8
0
  5
7D06
 10
-136.479
 20
297.978
 30
-6.61376e-14
  70
    32
  0
VERTEX
  8
0
  5
7D07
 10
-136.479
 20
297.972
 30
-6.61359e-14
  70
    32
  0
VERTEX
  8
0
  5
7D08
 10
-136.479
 20
297.965
 30
-6.61342e-14
  70
    32
  0
VERTEX
  8
0
  5
7D09
 10
-136.478
 20
297.959
 30
-6.61326e-14
  70
    32
  0
VERTEX
  8
0
  5
7D0A
 10
-136.478
 20
297.952
 30
-6.61310e-14
  70
    32
  0
VERTEX
  8
0
  5
7D0B
 10
-136.478
 20
297.946
 30
-6.61294e-14
  70
    32
  0
VERTEX
  8
0
  5
7D0C
 10
-136.478
 20
297.939
 30
-6.61279e-14
  70
    32
  0
VERTEX
  8
0
  5
7D0D
 10
-136.478
 20
297.933
 30
-6.61265e-14
  70
    32
  0
VERTEX
  8
0
  5
7D0E
 10
-136.478
 20
297.926
 30
-6.61250e-14
  70
    32
  0
VERTEX
  8
0
  5
7D0F
 10
-136.478
 20
297.920
 30
-6.61236e-14
  70
    32
  0
VERTEX
  8
0
  5
7D10
 10
-136.478
 20
297.913
 30
-6.61223e-14
  70
    32
  0
VERTEX
  8
0
  5
7D11
 10
-136.478
 20
297.907
 30
-6.61209e-14
  70
    32
  0
VERTEX
  8
0
  5
7D12
 10
-136.477
 20
297.900
 30
-6.61196e-14
  70
    32
  0
VERTEX
  8
0
  5
7D13
 10
-136.477
 20
297.894
 30
-6.61183e-14
  70
    32
  0
VERTEX
  8
0
  5
7D14
 10
-136.477
 20
297.887
 30
-6.61171e-14
  70
    32
  0
VERTEX
  8
0
  5
7D15
 10
-136.477
 20
297.880
 30
-6.61159e-14
  70
    32
  0
VERTEX
  8
0
  5
7D16
 10
-136.477
 20
297.874
 30
-6.61147e-14
  70
    32
  0
VERTEX
  8
0
  5
7D17
 10
-136.477
 20
297.867
 30
-6.61135e-14
  70
    32
  0
VERTEX
  8
0
  5
7D18
 10
-136.477
 20
297.860
 30
-6.61123e-14
  70
    32
  0
VERTEX
  8
0
  5
7D19
 10
-136.477
 20
297.853
 30
-6.61112e-14
  70
    32
  0
VERTEX
  8
0
  5
7D1A
 10
-136.477
 20
297.847
 30
-6.61101e-14
  70
    32
  0
VERTEX
  8
0
  5
7D1B
 10
-136.476
 20
297.840
 30
-6.61090e-14
  70
    32
  0
VERTEX
  8
0
  5
7D1C
 10
-136.476
 20
297.833
 30
-6.61079e-14
  70
    32
  0
VERTEX
  8
0
  5
7D1D
 10
-136.476
 20
297.826
 30
-6.61068e-14
  70
    32
  0
VERTEX
  8
0
  5
7D1E
 10
-136.476
 20
297.819
 30
-6.61057e-14
  70
    32
  0
VERTEX
  8
0
  5
7D1F
 10
-136.476
 20
297.813
 30
-6.61047e-14
  70
    32
  0
VERTEX
  8
0
  5
7D20
 10
-136.476
 20
297.806
 30
-6.61036e-14
  70
    32
  0
VERTEX
  8
0
  5
7D21
 10
-136.476
 20
297.799
 30
-6.61025e-14
  70
    32
  0
VERTEX
  8
0
  5
7D22
 10
-136.476
 20
297.792
 30
-6.61015e-14
  70
    32
  0
VERTEX
  8
0
  5
7D23
 10
-136.476
 20
297.785
 30
-6.61005e-14
  70
    32
  0
VERTEX
  8
0
  5
7D24
 10
-136.475
 20
297.778
 30
-6.60994e-14
  70
    32
  0
VERTEX
  8
0
  5
7D25
 10
-136.475
 20
297.771
 30
-6.60984e-14
  70
    32
  0
VERTEX
  8
0
  5
7D26
 10
-136.475
 20
297.764
 30
-6.60973e-14
  70
    32
  0
VERTEX
  8
0
  5
7D27
 10
-136.475
 20
297.757
 30
-6.60963e-14
  70
    32
  0
VERTEX
  8
0
  5
7D28
 10
-136.475
 20
297.750
 30
-6.60952e-14
  70
    32
  0
VERTEX
  8
0
  5
7D29
 10
-136.475
 20
297.743
 30
-6.60941e-14
  70
    32
  0
VERTEX
  8
0
  5
7D2A
 10
-136.475
 20
297.736
 30
-6.60931e-14
  70
    32
  0
VERTEX
  8
0
  5
7D2B
 10
-136.475
 20
297.729
 30
-6.60920e-14
  70
    32
  0
VERTEX
  8
0
  5
7D2C
 10
-136.475
 20
297.721
 30
-6.60909e-14
  70
    32
  0
VERTEX
  8
0
  5
7D2D
 10
-136.474
 20
297.714
 30
-6.60898e-14
  70
    32
  0
VERTEX
  8
0
  5
7D2E
 10
-136.474
 20
297.707
 30
-6.60887e-14
  70
    32
  0
VERTEX
  8
0
  5
7D2F
 10
-136.474
 20
297.700
 30
-6.60875e-14
  70
    32
  0
VERTEX
  8
0
  5
7D30
 10
-136.474
 20
297.693
 30
-6.60864e-14
  70
    32
  0
VERTEX
  8
0
  5
7D31
 10
-136.474
 20
297.686
 30
-6.60852e-14
  70
    32
  0
VERTEX
  8
0
  5
7D32
 10
-136.474
 20
297.678
 30
-6.60840e-14
  70
    32
  0
VERTEX
  8
0
  5
7D33
 10
-136.474
 20
297.671
 30
-6.60827e-14
  70
    32
  0
VERTEX
  8
0
  5
7D34
 10
-136.474
 20
297.664
 30
-6.60815e-14
  70
    32
  0
VERTEX
  8
0
  5
7D35
 10
-136.474
 20
297.656
 30
-6.60802e-14
  70
    32
  0
VERTEX
  8
0
  5
7D36
 10
-136.474
 20
297.649
 30
-6.60789e-14
  70
    32
  0
VERTEX
  8
0
  5
7D37
 10
-136.473
 20
297.642
 30
-6.60776e-14
  70
    32
  0
VERTEX
  8
0
  5
7D38
 10
-136.473
 20
297.634
 30
-6.60762e-14
  70
    32
  0
VERTEX
  8
0
  5
7D39
 10
-136.473
 20
297.627
 30
-6.60748e-14
  70
    32
  0
VERTEX
  8
0
  5
7D3A
 10
-136.473
 20
297.620
 30
-6.60734e-14
  70
    32
  0
VERTEX
  8
0
  5
7D3B
 10
-136.473
 20
297.612
 30
-6.60719e-14
  70
    32
  0
VERTEX
  8
0
  5
7D3C
 10
-136.473
 20
297.605
 30
-6.60704e-14
  70
    32
  0
VERTEX
  8
0
  5
7D3D
 10
-136.473
 20
297.597
 30
-6.60688e-14
  70
    32
  0
VERTEX
  8
0
  5
7D3E
 10
-136.473
 20
297.590
 30
-6.60672e-14
  70
    32
  0
VERTEX
  8
0
  5
7D3F
 10
-136.473
 20
297.582
 30
-6.60656e-14
  70
    32
  0
VERTEX
  8
0
  5
7D40
 10
-136.472
 20
297.575
 30
-6.60639e-14
  70
    32
  0
VERTEX
  8
0
  5
7D41
 10
-136.472
 20
297.567
 30
-6.60622e-14
  70
    32
  0
VERTEX
  8
0
  5
7D42
 10
-136.472
 20
297.560
 30
-6.60604e-14
  70
    32
  0
VERTEX
  8
0
  5
7D43
 10
-136.472
 20
297.552
 30
-6.60586e-14
  70
    32
  0
VERTEX
  8
0
  5
7D44
 10
-136.472
 20
297.545
 30
-6.60567e-14
  70
    32
  0
VERTEX
  8
0
  5
7D45
 10
-136.472
 20
297.537
 30
-6.60548e-14
  70
    32
  0
VERTEX
  8
0
  5
7D46
 10
-136.472
 20
297.530
 30
-6.60528e-14
  70
    32
  0
VERTEX
  8
0
  5
7D47
 10
-136.472
 20
297.522
 30
-6.60508e-14
  70
    32
  0
VERTEX
  8
0
  5
7D48
 10
-136.472
 20
297.514
 30
-6.60487e-14
  70
    32
  0
VERTEX
  8
0
  5
7D49
 10
-136.472
 20
297.507
 30
-6.60467e-14
  70
    32
  0
VERTEX
  8
0
  5
7D4A
 10
-136.471
 20
297.499
 30
-6.60447e-14
  70
    32
  0
VERTEX
  8
0
  5
7D4B
 10
-136.471
 20
297.491
 30
-6.60428e-14
  70
    32
  0
VERTEX
  8
0
  5
7D4C
 10
-136.471
 20
297.484
 30
-6.60409e-14
  70
    32
  0
VERTEX
  8
0
  5
7D4D
 10
-136.471
 20
297.476
 30
-6.60391e-14
  70
    32
  0
VERTEX
  8
0
  5
7D4E
 10
-136.471
 20
297.468
 30
-6.60374e-14
  70
    32
  0
VERTEX
  8
0
  5
7D4F
 10
-136.471
 20
297.460
 30
-6.60357e-14
  70
    32
  0
VERTEX
  8
0
  5
7D50
 10
-136.471
 20
297.453
 30
-6.60340e-14
  70
    32
  0
VERTEX
  8
0
  5
7D51
 10
-136.471
 20
297.445
 30
-6.60324e-14
  70
    32
  0
VERTEX
  8
0
  5
7D52
 10
-136.471
 20
297.437
 30
-6.60308e-14
  70
    32
  0
VERTEX
  8
0
  5
7D53
 10
-136.470
 20
297.429
 30
-6.60292e-14
  70
    32
  0
VERTEX
  8
0
  5
7D54
 10
-136.470
 20
297.421
 30
-6.60277e-14
  70
    32
  0
VERTEX
  8
0
  5
7D55
 10
-136.470
 20
297.414
 30
-6.60263e-14
  70
    32
  0
VERTEX
  8
0
  5
7D56
 10
-136.470
 20
297.406
 30
-6.60248e-14
  70
    32
  0
VERTEX
  8
0
  5
7D57
 10
-136.470
 20
297.398
 30
-6.60235e-14
  70
    32
  0
VERTEX
  8
0
  5
7D58
 10
-136.470
 20
297.390
 30
-6.60221e-14
  70
    32
  0
VERTEX
  8
0
  5
7D59
 10
-136.470
 20
297.382
 30
-6.60208e-14
  70
    32
  0
VERTEX
  8
0
  5
7D5A
 10
-136.470
 20
297.374
 30
-6.60195e-14
  70
    32
  0
VERTEX
  8
0
  5
7D5B
 10
-136.470
 20
297.366
 30
-6.60182e-14
  70
    32
  0
VERTEX
  8
0
  5
7D5C
 10
-136.470
 20
297.358
 30
-6.60169e-14
  70
    32
  0
VERTEX
  8
0
  5
7D5D
 10
-136.469
 20
297.350
 30
-6.60157e-14
  70
    32
  0
VERTEX
  8
0
  5
7D5E
 10
-136.469
 20
297.342
 30
-6.60145e-14
  70
    32
  0
VERTEX
  8
0
  5
7D5F
 10
-136.469
 20
297.334
 30
-6.60134e-14
  70
    32
  0
VERTEX
  8
0
  5
7D60
 10
-136.469
 20
297.326
 30
-6.60122e-14
  70
    32
  0
VERTEX
  8
0
  5
7D61
 10
-136.469
 20
297.318
 30
-6.60111e-14
  70
    32
  0
VERTEX
  8
0
  5
7D62
 10
-136.469
 20
297.310
 30
-6.60099e-14
  70
    32
  0
VERTEX
  8
0
  5
7D63
 10
-136.469
 20
297.302
 30
-6.60088e-14
  70
    32
  0
VERTEX
  8
0
  5
7D64
 10
-136.469
 20
297.294
 30
-6.60077e-14
  70
    32
  0
VERTEX
  8
0
  5
7D65
 10
-136.469
 20
297.286
 30
-6.60067e-14
  70
    32
  0
VERTEX
  8
0
  5
7D66
 10
-136.469
 20
297.278
 30
-6.60056e-14
  70
    32
  0
VERTEX
  8
0
  5
7D67
 10
-136.468
 20
297.270
 30
-6.60045e-14
  70
    32
  0
VERTEX
  8
0
  5
7D68
 10
-136.468
 20
297.261
 30
-6.60035e-14
  70
    32
  0
VERTEX
  8
0
  5
7D69
 10
-136.468
 20
297.253
 30
-6.60024e-14
  70
    32
  0
VERTEX
  8
0
  5
7D6A
 10
-136.468
 20
297.245
 30
-6.60014e-14
  70
    32
  0
VERTEX
  8
0
  5
7D6B
 10
-136.468
 20
297.237
 30
-6.60003e-14
  70
    32
  0
VERTEX
  8
0
  5
7D6C
 10
-136.468
 20
297.229
 30
-6.59993e-14
  70
    32
  0
VERTEX
  8
0
  5
7D6D
 10
-136.468
 20
297.221
 30
-6.59982e-14
  70
    32
  0
VERTEX
  8
0
  5
7D6E
 10
-136.468
 20
297.212
 30
-6.59972e-14
  70
    32
  0
VERTEX
  8
0
  5
7D6F
 10
-136.468
 20
297.204
 30
-6.59961e-14
  70
    32
  0
VERTEX
  8
0
  5
7D70
 10
-136.468
 20
297.196
 30
-6.59951e-14
  70
    32
  0
VERTEX
  8
0
  5
7D71
 10
-136.468
 20
297.188
 30
-6.59940e-14
  70
    32
  0
VERTEX
  8
0
  5
7D72
 10
-136.467
 20
297.179
 30
-6.59929e-14
  70
    32
  0
VERTEX
  8
0
  5
7D73
 10
-136.467
 20
297.171
 30
-6.59919e-14
  70
    32
  0
VERTEX
  8
0
  5
7D74
 10
-136.467
 20
297.163
 30
-6.59908e-14
  70
    32
  0
VERTEX
  8
0
  5
7D75
 10
-136.467
 20
297.154
 30
-6.59896e-14
  70
    32
  0
VERTEX
  8
0
  5
7D76
 10
-136.467
 20
297.146
 30
-6.59885e-14
  70
    32
  0
VERTEX
  8
0
  5
7D77
 10
-136.467
 20
297.138
 30
-6.59874e-14
  70
    32
  0
VERTEX
  8
0
  5
7D78
 10
-136.467
 20
297.129
 30
-6.59862e-14
  70
    32
  0
VERTEX
  8
0
  5
7D79
 10
-136.467
 20
297.121
 30
-6.59850e-14
  70
    32
  0
VERTEX
  8
0
  5
7D7A
 10
-136.467
 20
297.113
 30
-6.59838e-14
  70
    32
  0
VERTEX
  8
0
  5
7D7B
 10
-136.467
 20
297.104
 30
-6.59826e-14
  70
    32
  0
VERTEX
  8
0
  5
7D7C
 10
-136.467
 20
297.096
 30
-6.59813e-14
  70
    32
  0
VERTEX
  8
0
  5
7D7D
 10
-136.466
 20
297.087
 30
-6.59801e-14
  70
    32
  0
VERTEX
  8
0
  5
7D7E
 10
-136.466
 20
297.079
 30
-6.59787e-14
  70
    32
  0
VERTEX
  8
0
  5
7D7F
 10
-136.466
 20
297.071
 30
-6.59774e-14
  70
    32
  0
VERTEX
  8
0
  5
7D80
 10
-136.466
 20
297.062
 30
-6.59760e-14
  70
    32
  0
VERTEX
  8
0
  5
7D81
 10
-136.466
 20
297.054
 30
-6.59746e-14
  70
    32
  0
VERTEX
  8
0
  5
7D82
 10
-136.466
 20
297.045
 30
-6.59732e-14
  70
    32
  0
VERTEX
  8
0
  5
7D83
 10
-136.466
 20
297.037
 30
-6.59717e-14
  70
    32
  0
VERTEX
  8
0
  5
7D84
 10
-136.466
 20
297.028
 30
-6.59702e-14
  70
    32
  0
VERTEX
  8
0
  5
7D85
 10
-136.466
 20
297.020
 30
-6.59686e-14
  70
    32
  0
VERTEX
  8
0
  5
7D86
 10
-136.466
 20
297.011
 30
-6.59670e-14
  70
    32
  0
VERTEX
  8
0
  5
7D87
 10
-136.466
 20
297.003
 30
-6.59654e-14
  70
    32
  0
VERTEX
  8
0
  5
7D88
 10
-136.466
 20
296.994
 30
-6.59637e-14
  70
    32
  0
VERTEX
  8
0
  5
7D89
 10
-136.465
 20
296.986
 30
-6.59620e-14
  70
    32
  0
VERTEX
  8
0
  5
7D8A
 10
-136.465
 20
296.977
 30
-6.59602e-14
  70
    32
  0
VERTEX
  8
0
  5
7D8B
 10
-136.465
 20
296.969
 30
-6.59584e-14
  70
    32
  0
VERTEX
  8
0
  5
7D8C
 10
-136.465
 20
296.960
 30
-6.59565e-14
  70
    32
  0
VERTEX
  8
0
  5
7D8D
 10
-136.465
 20
296.951
 30
-6.59546e-14
  70
    32
  0
VERTEX
  8
0
  5
7D8E
 10
-136.465
 20
296.943
 30
-6.59526e-14
  70
    32
  0
VERTEX
  8
0
  5
7D8F
 10
-136.465
 20
296.934
 30
-6.59505e-14
  70
    32
  0
VERTEX
  8
0
  5
7D90
 10
-136.465
 20
296.926
 30
-6.59484e-14
  70
    32
  0
VERTEX
  8
0
  5
7D91
 10
-136.465
 20
296.917
 30
-6.59463e-14
  70
    32
  0
VERTEX
  8
0
  5
7D92
 10
-136.465
 20
296.908
 30
-6.59440e-14
  70
    32
  0
VERTEX
  8
0
  5
7D93
 10
-136.465
 20
296.900
 30
-6.59418e-14
  70
    32
  0
VERTEX
  8
0
  5
7D94
 10
-136.465
 20
296.891
 30
-6.59395e-14
  70
    32
  0
VERTEX
  8
0
  5
7D95
 10
-136.464
 20
296.882
 30
-6.59371e-14
  70
    32
  0
VERTEX
  8
0
  5
7D96
 10
-136.464
 20
296.874
 30
-6.59347e-14
  70
    32
  0
VERTEX
  8
0
  5
7D97
 10
-136.464
 20
296.865
 30
-6.59322e-14
  70
    32
  0
VERTEX
  8
0
  5
7D98
 10
-136.464
 20
296.856
 30
-6.59297e-14
  70
    32
  0
VERTEX
  8
0
  5
7D99
 10
-136.464
 20
296.848
 30
-6.59271e-14
  70
    32
  0
VERTEX
  8
0
  5
7D9A
 10
-136.464
 20
296.839
 30
-6.59245e-14
  70
    32
  0
VERTEX
  8
0
  5
7D9B
 10
-136.464
 20
296.830
 30
-6.59219e-14
  70
    32
  0
VERTEX
  8
0
  5
7D9C
 10
-136.464
 20
296.821
 30
-6.59192e-14
  70
    32
  0
VERTEX
  8
0
  5
7D9D
 10
-136.464
 20
296.813
 30
-6.59165e-14
  70
    32
  0
VERTEX
  8
0
  5
7D9E
 10
-136.464
 20
296.804
 30
-6.59138e-14
  70
    32
  0
VERTEX
  8
0
  5
7D9F
 10
-136.464
 20
296.795
 30
-6.59110e-14
  70
    32
  0
VERTEX
  8
0
  5
7DA0
 10
-136.464
 20
296.786
 30
-6.59082e-14
  70
    32
  0
VERTEX
  8
0
  5
7DA1
 10
-136.464
 20
296.778
 30
-6.59053e-14
  70
    32
  0
VERTEX
  8
0
  5
7DA2
 10
-136.463
 20
296.769
 30
-6.59024e-14
  70
    32
  0
VERTEX
  8
0
  5
7DA3
 10
-136.463
 20
296.760
 30
-6.58995e-14
  70
    32
  0
VERTEX
  8
0
  5
7DA4
 10
-136.463
 20
296.751
 30
-6.58966e-14
  70
    32
  0
VERTEX
  8
0
  5
7DA5
 10
-136.463
 20
296.742
 30
-6.58936e-14
  70
    32
  0
VERTEX
  8
0
  5
7DA6
 10
-136.463
 20
296.734
 30
-6.58907e-14
  70
    32
  0
VERTEX
  8
0
  5
7DA7
 10
-136.463
 20
296.725
 30
-6.58877e-14
  70
    32
  0
VERTEX
  8
0
  5
7DA8
 10
-136.463
 20
296.716
 30
-6.58846e-14
  70
    32
  0
VERTEX
  8
0
  5
7DA9
 10
-136.463
 20
296.707
 30
-6.58816e-14
  70
    32
  0
VERTEX
  8
0
  5
7DAA
 10
-136.463
 20
296.698
 30
-6.58786e-14
  70
    32
  0
VERTEX
  8
0
  5
7DAB
 10
-136.463
 20
296.690
 30
-6.58755e-14
  70
    32
  0
VERTEX
  8
0
  5
7DAC
 10
-136.463
 20
296.681
 30
-6.58724e-14
  70
    32
  0
VERTEX
  8
0
  5
7DAD
 10
-136.463
 20
296.672
 30
-6.58693e-14
  70
    32
  0
VERTEX
  8
0
  5
7DAE
 10
-136.463
 20
296.663
 30
-6.58662e-14
  70
    32
  0
VERTEX
  8
0
  5
7DAF
 10
-136.463
 20
296.654
 30
-6.58631e-14
  70
    32
  0
VERTEX
  8
0
  5
7DB0
 10
-136.463
 20
296.645
 30
-6.58600e-14
  70
    32
  0
VERTEX
  8
0
  5
7DB1
 10
-136.462
 20
296.636
 30
-6.58568e-14
  70
    32
  0
VERTEX
  8
0
  5
7DB2
 10
-136.462
 20
296.627
 30
-6.58537e-14
  70
    32
  0
VERTEX
  8
0
  5
7DB3
 10
-136.462
 20
296.619
 30
-6.58506e-14
  70
    32
  0
VERTEX
  8
0
  5
7DB4
 10
-136.462
 20
296.610
 30
-6.58475e-14
  70
    32
  0
VERTEX
  8
0
  5
7DB5
 10
-136.462
 20
296.601
 30
-6.58443e-14
  70
    32
  0
VERTEX
  8
0
  5
7DB6
 10
-136.462
 20
296.592
 30
-6.58412e-14
  70
    32
  0
VERTEX
  8
0
  5
7DB7
 10
-136.462
 20
296.583
 30
-6.58381e-14
  70
    32
  0
VERTEX
  8
0
  5
7DB8
 10
-136.462
 20
296.574
 30
-6.58350e-14
  70
    32
  0
VERTEX
  8
0
  5
7DB9
 10
-136.462
 20
296.565
 30
-6.58319e-14
  70
    32
  0
VERTEX
  8
0
  5
7DBA
 10
-136.462
 20
296.556
 30
-6.58288e-14
  70
    32
  0
VERTEX
  8
0
  5
7DBB
 10
-136.462
 20
296.547
 30
-6.58257e-14
  70
    32
  0
VERTEX
  8
0
  5
7DBC
 10
-136.462
 20
296.538
 30
-6.58226e-14
  70
    32
  0
VERTEX
  8
0
  5
7DBD
 10
-136.462
 20
296.529
 30
-6.58195e-14
  70
    32
  0
VERTEX
  8
0
  5
7DBE
 10
-136.462
 20
296.520
 30
-6.58165e-14
  70
    32
  0
VERTEX
  8
0
  5
7DBF
 10
-136.462
 20
296.511
 30
-6.58135e-14
  70
    32
  0
VERTEX
  8
0
  5
7DC0
 10
-136.462
 20
296.502
 30
-6.58105e-14
  70
    32
  0
VERTEX
  8
0
  5
7DC1
 10
-136.461
 20
296.493
 30
-6.58075e-14
  70
    32
  0
VERTEX
  8
0
  5
7DC2
 10
-136.461
 20
296.484
 30
-6.58045e-14
  70
    32
  0
VERTEX
  8
0
  5
7DC3
 10
-136.461
 20
296.475
 30
-6.58016e-14
  70
    32
  0
VERTEX
  8
0
  5
7DC4
 10
-136.461
 20
296.466
 30
-6.57986e-14
  70
    32
  0
VERTEX
  8
0
  5
7DC5
 10
-136.461
 20
296.457
 30
-6.57958e-14
  70
    32
  0
VERTEX
  8
0
  5
7DC6
 10
-136.461
 20
296.448
 30
-6.57929e-14
  70
    32
  0
VERTEX
  8
0
  5
7DC7
 10
-136.461
 20
296.440
 30
-6.57901e-14
  70
    32
  0
VERTEX
  8
0
  5
7DC8
 10
-136.461
 20
296.431
 30
-6.57873e-14
  70
    32
  0
VERTEX
  8
0
  5
7DC9
 10
-136.461
 20
296.422
 30
-6.57845e-14
  70
    32
  0
VERTEX
  8
0
  5
7DCA
 10
-136.461
 20
296.413
 30
-6.57818e-14
  70
    32
  0
VERTEX
  8
0
  5
7DCB
 10
-136.461
 20
296.404
 30
-6.57791e-14
  70
    32
  0
VERTEX
  8
0
  5
7DCC
 10
-136.461
 20
296.395
 30
-6.57764e-14
  70
    32
  0
VERTEX
  8
0
  5
7DCD
 10
-136.461
 20
296.386
 30
-6.57738e-14
  70
    32
  0
VERTEX
  8
0
  5
7DCE
 10
-136.461
 20
296.376
 30
-6.57713e-14
  70
    32
  0
VERTEX
  8
0
  5
7DCF
 10
-136.461
 20
296.367
 30
-6.57687e-14
  70
    32
  0
VERTEX
  8
0
  5
7DD0
 10
-136.461
 20
296.358
 30
-6.57662e-14
  70
    32
  0
VERTEX
  8
0
  5
7DD1
 10
-136.461
 20
296.349
 30
-6.57638e-14
  70
    32
  0
VERTEX
  8
0
  5
7DD2
 10
-136.461
 20
296.340
 30
-6.57614e-14
  70
    32
  0
VERTEX
  8
0
  5
7DD3
 10
-136.461
 20
296.331
 30
-6.57591e-14
  70
    32
  0
VERTEX
  8
0
  5
7DD4
 10
-136.461
 20
296.322
 30
-6.57568e-14
  70
    32
  0
VERTEX
  8
0
  5
7DD5
 10
-136.460
 20
296.313
 30
-6.57546e-14
  70
    32
  0
VERTEX
  8
0
  5
7DD6
 10
-136.460
 20
296.304
 30
-6.57524e-14
  70
    32
  0
VERTEX
  8
0
  5
7DD7
 10
-136.460
 20
296.295
 30
-6.57503e-14
  70
    32
  0
VERTEX
  8
0
  5
7DD8
 10
-136.460
 20
296.286
 30
-6.57482e-14
  70
    32
  0
VERTEX
  8
0
  5
7DD9
 10
-136.460
 20
296.277
 30
-6.57462e-14
  70
    32
  0
VERTEX
  8
0
  5
7DDA
 10
-136.460
 20
296.268
 30
-6.57442e-14
  70
    32
  0
VERTEX
  8
0
  5
7DDB
 10
-136.460
 20
296.259
 30
-6.57423e-14
  70
    32
  0
VERTEX
  8
0
  5
7DDC
 10
-136.460
 20
296.250
 30
-6.57405e-14
  70
    32
  0
VERTEX
  8
0
  5
7DDD
 10
-136.460
 20
296.241
 30
-6.57387e-14
  70
    32
  0
VERTEX
  8
0
  5
7DDE
 10
-136.460
 20
296.232
 30
-6.57369e-14
  70
    32
  0
VERTEX
  8
0
  5
7DDF
 10
-136.460
 20
296.223
 30
-6.57352e-14
  70
    32
  0
VERTEX
  8
0
  5
7DE0
 10
-136.460
 20
296.214
 30
-6.57335e-14
  70
    32
  0
VERTEX
  8
0
  5
7DE1
 10
-136.460
 20
296.205
 30
-6.57318e-14
  70
    32
  0
VERTEX
  8
0
  5
7DE2
 10
-136.460
 20
296.196
 30
-6.57302e-14
  70
    32
  0
VERTEX
  8
0
  5
7DE3
 10
-136.460
 20
296.187
 30
-6.57286e-14
  70
    32
  0
VERTEX
  8
0
  5
7DE4
 10
-136.460
 20
296.178
 30
-6.57271e-14
  70
    32
  0
VERTEX
  8
0
  5
7DE5
 10
-136.460
 20
296.169
 30
-6.57256e-14
  70
    32
  0
VERTEX
  8
0
  5
7DE6
 10
-136.460
 20
296.160
 30
-6.57241e-14
  70
    32
  0
VERTEX
  8
0
  5
7DE7
 10
-136.460
 20
296.151
 30
-6.57226e-14
  70
    32
  0
VERTEX
  8
0
  5
7DE8
 10
-136.460
 20
296.142
 30
-6.57211e-14
  70
    32
  0
VERTEX
  8
0
  5
7DE9
 10
-136.460
 20
296.133
 30
-6.57197e-14
  70
    32
  0
VERTEX
  8
0
  5
7DEA
 10
-136.460
 20
296.124
 30
-6.57182e-14
  70
    32
  0
VERTEX
  8
0
  5
7DEB
 10
-136.460
 20
296.115
 30
-6.57168e-14
  70
    32
  0
VERTEX
  8
0
  5
7DEC
 10
-136.460
 20
296.106
 30
-6.57154e-14
  70
    32
  0
VERTEX
  8
0
  5
7DED
 10
-136.460
 20
296.097
 30
-6.57140e-14
  70
    32
  0
VERTEX
  8
0
  5
7DEE
 10
-136.460
 20
296.088
 30
-6.57126e-14
  70
    32
  0
VERTEX
  8
0
  5
7DEF
 10
-136.460
 20
296.079
 30
-6.57112e-14
  70
    32
  0
VERTEX
  8
0
  5
7DF0
 10
-136.460
 20
296.069
 30
-6.57098e-14
  70
    32
  0
VERTEX
  8
0
  5
7DF1
 10
-136.460
 20
296.060
 30
-6.57084e-14
  70
    32
  0
VERTEX
  8
0
  5
7DF2
 10
-136.459
 20
296.051
 30
-6.57070e-14
  70
    32
  0
VERTEX
  8
0
  5
7DF3
 10
-136.459
 20
296.042
 30
-6.57056e-14
  70
    32
  0
VERTEX
  8
0
  5
7DF4
 10
-136.459
 20
296.033
 30
-6.57042e-14
  70
    32
  0
VERTEX
  8
0
  5
7DF5
 10
-136.459
 20
296.024
 30
-6.57028e-14
  70
    32
  0
VERTEX
  8
0
  5
7DF6
 10
-136.459
 20
296.015
 30
-6.57014e-14
  70
    32
  0
VERTEX
  8
0
  5
7DF7
 10
-136.459
 20
296.006
 30
-6.56999e-14
  70
    32
  0
VERTEX
  8
0
  5
7DF8
 10
-136.459
 20
295.997
 30
-6.56984e-14
  70
    32
  0
VERTEX
  8
0
  5
7DF9
 10
-136.459
 20
295.988
 30
-6.56969e-14
  70
    32
  0
VERTEX
  8
0
  5
7DFA
 10
-136.459
 20
295.979
 30
-6.56954e-14
  70
    32
  0
VERTEX
  8
0
  5
7DFB
 10
-136.459
 20
295.970
 30
-6.56938e-14
  70
    32
  0
VERTEX
  8
0
  5
7DFC
 10
-136.459
 20
295.961
 30
-6.56923e-14
  70
    32
  0
VERTEX
  8
0
  5
7DFD
 10
-136.459
 20
295.952
 30
-6.56907e-14
  70
    32
  0
VERTEX
  8
0
  5
7DFE
 10
-136.459
 20
295.943
 30
-6.56890e-14
  70
    32
  0
VERTEX
  8
0
  5
7DFF
 10
-136.459
 20
295.934
 30
-6.56873e-14
  70
    32
  0
VERTEX
  8
0
  5
7E00
 10
-136.459
 20
295.925
 30
-6.56856e-14
  70
    32
  0
VERTEX
  8
0
  5
7E01
 10
-136.459
 20
295.917
 30
-6.56839e-14
  70
    32
  0
VERTEX
  8
0
  5
7E02
 10
-136.459
 20
295.908
 30
-6.56821e-14
  70
    32
  0
VERTEX
  8
0
  5
7E03
 10
-136.459
 20
295.899
 30
-6.56802e-14
  70
    32
  0
VERTEX
  8
0
  5
7E04
 10
-136.459
 20
295.890
 30
-6.56783e-14
  70
    32
  0
VERTEX
  8
0
  5
7E05
 10
-136.459
 20
295.881
 30
-6.56764e-14
  70
    32
  0
VERTEX
  8
0
  5
7E06
 10
-136.459
 20
295.872
 30
-6.56744e-14
  70
    32
  0
VERTEX
  8
0
  5
7E07
 10
-136.459
 20
295.863
 30
-6.56723e-14
  70
    32
  0
VERTEX
  8
0
  5
7E08
 10
-136.459
 20
295.854
 30
-6.56702e-14
  70
    32
  0
VERTEX
  8
0
  5
7E09
 10
-136.459
 20
295.845
 30
-6.56680e-14
  70
    32
  0
VERTEX
  8
0
  5
7E0A
 10
-136.459
 20
295.836
 30
-6.56658e-14
  70
    32
  0
VERTEX
  8
0
  5
7E0B
 10
-136.459
 20
295.827
 30
-6.56635e-14
  70
    32
  0
VERTEX
  8
0
  5
7E0C
 10
-136.459
 20
295.818
 30
-6.56611e-14
  70
    32
  0
VERTEX
  8
0
  5
7E0D
 10
-136.459
 20
295.809
 30
-6.56587e-14
  70
    32
  0
VERTEX
  8
0
  5
7E0E
 10
-136.459
 20
295.800
 30
-6.56562e-14
  70
    32
  0
VERTEX
  8
0
  5
7E0F
 10
-136.459
 20
295.791
 30
-6.56536e-14
  70
    32
  0
VERTEX
  8
0
  5
7E10
 10
-136.459
 20
295.783
 30
-6.56509e-14
  70
    32
  0
VERTEX
  8
0
  5
7E11
 10
-136.459
 20
295.774
 30
-6.56482e-14
  70
    32
  0
VERTEX
  8
0
  5
7E12
 10
-136.459
 20
295.765
 30
-6.56453e-14
  70
    32
  0
VERTEX
  8
0
  5
7E13
 10
-136.459
 20
295.756
 30
-6.56424e-14
  70
    32
  0
VERTEX
  8
0
  5
7E14
 10
-136.459
 20
295.747
 30
-6.56394e-14
  70
    32
  0
VERTEX
  8
0
  5
7E15
 10
-136.459
 20
295.738
 30
-6.56363e-14
  70
    32
  0
VERTEX
  8
0
  5
7E16
 10
-136.459
 20
295.729
 30
-6.56332e-14
  70
    32
  0
VERTEX
  8
0
  5
7E17
 10
-136.459
 20
295.720
 30
-6.56299e-14
  70
    32
  0
VERTEX
  8
0
  5
7E18
 10
-136.459
 20
295.712
 30
-6.56265e-14
  70
    32
  0
VERTEX
  8
0
  5
7E19
 10
-136.459
 20
295.703
 30
-6.56230e-14
  70
    32
  0
VERTEX
  8
0
  5
7E1A
 10
-136.459
 20
295.694
 30
-6.56195e-14
  70
    32
  0
VERTEX
  8
0
  5
7E1B
 10
-136.459
 20
295.685
 30
-6.56158e-14
  70
    32
  0
VERTEX
  8
0
  5
7E1C
 10
-136.459
 20
295.676
 30
-6.56120e-14
  70
    32
  0
VERTEX
  8
0
  5
7E1D
 10
-136.459
 20
295.668
 30
-6.56081e-14
  70
    32
  0
VERTEX
  8
0
  5
7E1E
 10
-136.459
 20
295.659
 30
-6.56041e-14
  70
    32
  0
VERTEX
  8
0
  5
7E1F
 10
-136.459
 20
295.650
 30
-6.56000e-14
  70
    32
  0
SEQEND
  8
0
  5
7E20
  0
LINE
  5
78E9
  8
0
  6
CONTINUOUS
 62
     3
 10
136.5000000000011937
 20
308.0000000000003979
 30
-0.0000000000000684
 11
136.5000000000011937
 21
232.0010806653936868
 31
-0.0000000000000515
210
0.0
220
1.0
230
-0.0000000000000002
  0
LINE
  5
78EA
  8
0
  6
CONTINUOUS
 62
     3
 10
136.5000000000011937
 20
216.59278228978539
 30
-0.0000000000000481
 11
136.5000000000011937
 21
140.0000000000003979
 31
-0.0000000000000311
210
0.0
220
1.0
230
-0.0000000000000002
  0
LINE
  5
78EB
  8
0
  6
CONTINUOUS
 62
     3
 10
-136.5000000000013074
 20
308.0000000000003979
 30
-0.0000000000000684
 11
-136.5000000000013074
 21
299.0000000000003979
 31
-0.0000000000000664
210
0.0
220
1.0
230
-0.0000000000000002
  0
LINE
  5
78EC
  8
0
  6
CONTINUOUS
 62
     3
 10
-136.5000000000013074
 20
292.3000000000002956
 30
-0.0000000000000649
 11
-136.5000000000013074
 21
232.0010806653936868
 31
-0.0000000000000515
210
0.0
220
1.0
230
-0.0000000000000002
  0
LINE
  5
78ED
  8
0
  6
CONTINUOUS
 62
     3
 10
-136.5000000000013074
 20
216.59278228978539
 30
-0.0000000000000481
 11
-136.5000000000013074
 21
140.0000000000003979
 31
-0.0000000000000311
210
0.0
220
1.0
230
-0.0000000000000002
  0
LINE
  5
78EE
  8
0
  6
CONTINUOUS
 62
     3
 10
-137.3071991238153089
 20
216.59278228978539
 30
-0.0000000000000481
 11
137.3071991238151952
 21
216.59278228978539
 31
-0.0000000000000481
210
0.0
220
1.0
230
-0.0000000000000002
  0
LINE
  5
78EF
  8
0
  6
CONTINUOUS
 62
     3
 10
-200.0000000000011084
 20
232.0010806653936868
 30
-0.0000000000000515
 11
200.0000000000009095
 21
232.0010806653936868
 31
-0.0000000000000515
210
0.0
220
1.0
230
-0.0000000000000002
  0
LINE
  5
78F0
  8
0
  6
CONTINUOUS
 62
     3
 10
-200.0000000000011084
 20
230.0010806653936868
 30
-0.0000000000000511
 11
200.0000000000009095
 21
230.0010806653936868
 31
-0.0000000000000511
210
0.0
220
1.0
230
-0.0000000000000002
  0
LINE
  5
78F1
  8
0
  6
CONTINUOUS
 62
     3
 10
200.0000000000009948
 20
232.0010806653936868
 30
-0.0000000000000515
 11
200.0000000000009948
 21
230.0010806653936868
 31
-0.0000000000000511
210
0.0
220
1.0
230
-0.0000000000000002
  0
LINE
  5
78F2
  8
0
  6
CONTINUOUS
 62
     3
 10
-200.0000000000011084
 20
232.0010806653936868
 30
-0.0000000000000515
 11
-200.0000000000011084
 21
230.0010806653936868
 31
-0.0000000000000511
210
0.0
220
1.0
230
-0.0000000000000002
  0
LINE
  5
78F3
  8
0
  6
CONTINUOUS
 62
     3
 10
-137.3071991238153942
 20
216.59278228978539
 30
-0.0000000000000481
 11
-183.5291969828602134
 21
230.0010806653936015
 31
-0.0000000000000511
210
0.0
220
1.0
230
-0.0000000000000002
  0
LINE
  5
78F4
  8
0
  6
CONTINUOUS
 62
     3
 10
137.3071991238153089
 20
216.59278228978539
 30
-0.0000000000000481
 11
183.5291969828600998
 21
230.0010806653936015
 31
-0.0000000000000511
210
0.0
220
1.0
230
-0.0000000000000002
  0
LINE
  5
78F5
  8
0
  6
CONTINUOUS
 62
     3
 10
-136.5000000000007958
 20
308.0000000000003979
 30
-0.0000000000000684
 11
136.5000000000007105
 21
308.0000000000003979
 31
-0.0000000000000684
210
0.0
220
1.0
230
-0.0000000000000002
  0
LINE
  5
78F6
  8
0
  6
CONTINUOUS
 62
     3
 10
-136.5000000000007958
 20
312.0000000000003979
 30
-0.0000000000000693
 11
136.5000000000007105
 21
312.0000000000003979
 31
-0.0000000000000693
210
0.0
220
1.0
230
-0.0000000000000002
  0
LINE
  5
78F7
  8
0
  6
CONTINUOUS
 62
     3
 10
136.5000000000007105
 20
312.0000000000003979
 30
-0.0000000000000693
 11
136.5000000000007105
 21
308.0000000000003979
 31
-0.0000000000000684
210
0.0
220
1.0
230
-0.0000000000000002
  0
LINE
  5
78F8
  8
0
  6
CONTINUOUS
 62
     3
 10
-136.5000000000007958
 20
312.0000000000003979
 30
-0.0000000000000693
 11
-136.5000000000007958
 21
308.0000000000003979
 31
-0.0000000000000684
210
0.0
220
1.0
230
-0.0000000000000002
  0
LINE
  5
78F9
  8
0
  6
CONTINUOUS
 62
     3
 10
-136.9791316720796033
 20
290.8571067811868147
 30
-0.0000000000000646
 11
-136.9791316720796033
 21
300.4428932188142198
 31
-0.0000000000000667
210
0.0
220
1.0
230
-0.0000000000000002
  0
LINE
  5
78FA
  8
0
  6
CONTINUOUS
 62
     3
 10
-138.9791316720796033
 20
293.1500000000004889
 30
-0.0000000000000651
 11
-138.9791316720796033
 21
298.1500000000004889
 31
-0.0000000000000662
210
0.0
220
1.0
230
-0.0000000000000002
  0
LINE
  5
78FB
  8
0
  6
CONTINUOUS
 62
     3
 10
-137.9791316720796033
 20
290.8571067811868147
 30
-0.0000000000000646
 11
-137.9791316720796033
 21
300.4428932188142198
 31
-0.0000000000000667
210
0.0
220
1.0
230
-0.0000000000000002
  0
ARC
  5
78FC
  8
0
  6
CONTINUOUS
 62
     3
 10
137.4791316720794896
 20
290.8571067811868147
 30
0.0
 40
0.5
210
0.0
220
-0.0000000000000002
230
-1.0
 50
180.0
 51
0.0
  0
ARC
  5
78FD
  8
0
  6
CONTINUOUS
 62
     3
 10
137.4791316720794896
 20
300.4428932188142198
 30
0.0
 40
0.5
210
0.0
220
-0.0000000000000002
230
-1.0
 50
0.0
 51
180.0
  0
LINE
  5
78FE
  8
0
  6
CONTINUOUS
 62
     3
 10
-138.4791316720794896
 20
298.6500000000004889
 30
-0.0000000000000663
 11
-137.9791316720796033
 21
298.6500000000004889
 31
-0.0000000000000663
210
0.0
220
1.0
230
-0.0000000000000002
  0
LINE
  5
78FF
  8
0
  6
CONTINUOUS
 62
     3
 10
-138.4791316720794896
 20
292.6500000000004889
 30
-0.000000000000065
 11
-137.9791316720796033
 21
292.6500000000004889
 31
-0.000000000000065
210
0.0
220
1.0
230
-0.0000000000000002
  0
ARC
  5
7900
  8
0
  6
CONTINUOUS
 62
     3
 10
138.4791316720794043
 20
293.1500000000006025
 30
0.0
 40
0.5000000000001137
210
0.0
220
-0.0000000000000002
230
-1.0
 50
270.0
 51
359.999999999970612
  0
ARC
  5
7901
  8
0
  6
CONTINUOUS
 62
     3
 10
138.4791316720794043
 20
298.1500000000003752
 30
0.0
 40
0.5000000000001421
210
0.0
220
-0.0000000000000002
230
-1.0
 50
0.0000000000130276
 51
89.9999999999837144
  0
LINE
  5
7902
  8
0
  6
CONTINUOUS
 62
     3
 10
-136.9791316720796033
 20
298.6500000000004889
 30
-0.0000000000000663
 11
-136.4918587315754053
 21
298.6500000000004889
 31
-0.0000000000000663
210
0.0
220
1.0
230
-0.0000000000000002
  0
LINE
  5
7903
  8
0
  6
CONTINUOUS
 62
     3
 10
-136.9791316720796033
 20
292.6500000000004889
 30
-0.000000000000065
 11
-136.4918587315754053
 21
292.6500000000004889
 31
-0.000000000000065
210
0.0
220
1.0
230
-0.0000000000000002
  0
LINE
  5
7904
  8
0
  6
VERDECKT2
 62
     1
 10
-105.7361487402755955
 20
0.2527516539680619
 30
-0.0000000000000001
 11
105.736148740275695
 21
0.2527516539680619
 31
-0.0000000000000001
210
0.0
220
1.0
230
-0.0000000000000002
  0
LINE
  5
7905
  8
0
  6
VERDECKT2
 62
     1
 10
-114.9188577160247036
 20
1058.5224538535260308
 30
-0.000000000000235
 11
114.9188577160246041
 21
1058.5224538535260308
 31
-0.000000000000235
210
0.0
220
1.0
230
-0.0000000000000002
  0
LINE
  5
7906
  8
0
  6
VERDECKT2
 62
     1
 10
105.736148740275695
 20
0.2527516539681017
 30
-0.0000000000000001
 11
108.6251133647416935
 21
0.0
 31
0.0
210
0.0
220
1.0
230
-0.0000000000000002
  0
LINE
  5
7907
  8
0
  6
VERDECKT2
 62
     1
 10
-105.736148740275695
 20
0.2527516539681017
 30
-0.0000000000000001
 11
-108.6251133647416935
 21
0.0
 31
0.0
210
0.0
220
1.0
230
-0.0000000000000002
  0
LINE
  5
7908
  8
0
  6
VERDECKT2
 62
     1
 10
-105.736148740275695
 20
0.2527516539680637
 30
-0.0000000000000001
 11
-106.6000000000000938
 21
10.1266167344286906
 31
-0.0000000000000022
210
0.0
220
1.0
230
-0.0000000000000002
  0
LINE
  5
7909
  8
0
  6
VERDECKT2
 62
     1
 10
105.736148740275695
 20
0.2527516539680637
 30
-0.0000000000000001
 11
106.6000000000000938
 21
10.1266167344286906
 31
-0.0000000000000022
210
0.0
220
1.0
230
-0.0000000000000002
  0
LINE
  5
790A
  8
0
  6
VERDECKT2
 62
     1
 10
109.5000000000000995
 20
312.0000000000003979
 30
-0.0000000000000693
 11
109.5000000000000995
 21
140.0000000000003126
 31
-0.0000000000000311
210
0.0
220
1.0
230
-0.0000000000000002
  0
LINE
  5
790B
  8
0
  6
VERDECKT2
 62
     1
 10
-109.5000000000000995
 20
312.0000000000003979
 30
-0.0000000000000693
 11
-109.5000000000000995
 21
140.0000000000003126
 31
-0.0000000000000311
210
0.0
220
1.0
230
-0.0000000000000002
  0
LINE
  5
790C
  8
0
  6
VERDECKT2
 62
     1
 10
106.6000000000000938
 20
931.6998551221628304
 30
-0.0000000000002069
 11
106.6000000000000938
 21
10.1266167344286906
 31
-0.0000000000000022
210
0.0
220
1.0
230
-0.0000000000000002
  0
LINE
  5
790D
  8
0
  6
VERDECKT2
 62
     1
 10
-106.6000000000000938
 20
931.6998551221628304
 30
-0.0000000000002069
 11
-106.6000000000000938
 21
10.1266167344286906
 31
-0.0000000000000022
210
0.0
220
1.0
230
-0.0000000000000002
  0
ARC
  5
790E
  8
0
  6
VERDECKT2
 62
     1
 10
80.4999999999971863
 20
1038.1425070056050117
 30
0.0
 40
40.0000000000030909
210
0.0
220
-0.0000000000000002
230
-1.0
 50
0.0000000000013104
 51
30.6304422515275903
  0
ARC
  5
790F
  8
0
  6
VERDECKT2
 62
     1
 10
-80.4999999999966747
 20
1038.1425070056050117
 30
0.0
 40
40.0000000000034817
210
0.0
220
-0.0000000000000002
230
-1.0
 50
149.3695577484724026
 51
179.9999999999984084
  0
LINE
  5
7910
  8
0
  6
VERDECKT2
 62
     1
 10
-114.9188577160247036
 20
1058.5224538535260308
 30
-0.000000000000235
 11
-117.4142249004364942
 21
1060.0
 31
-0.0000000000002354
210
0.0
220
1.0
230
-0.0000000000000002
  0
LINE
  5
7911
  8
0
  6
VERDECKT2
 62
     1
 10
114.9188577160246041
 20
1058.5224538535260308
 30
-0.000000000000235
 11
117.4142249004363947
 21
1060.0
 31
-0.0000000000002354
210
0.0
220
1.0
230
-0.0000000000000002
  0
ARC
  5
7912
  8
0
  6
VERDECKT2
 62
     1
 10
119.4999999999994031
 20
931.6998551221632852
 30
0.0
 40
12.8999999999991193
210
0.0
220
-0.0000000000000002
230
-1.0
 50
145.613106973118704
 51
180.0000000000030127
  0
ARC
  5
7913
  8
0
  6
VERDECKT2
 62
     1
 10
-119.4999999999994031
 20
931.6998551221632852
 30
0.0
 40
12.8999999999992507
210
0.0
220
-0.0000000000000002
230
-1.0
 50
359.9999999999968736
 51
34.3868930268809265
  0
ARC
  5
7914
  8
0
  6
VERDECKT2
 62
     1
 10
94.0000000000007958
 20
949.1515026088615059
 30
0.0
 40
17.9999999999993499
210
0.0
220
-0.0000000000000002
230
-1.0
 50
325.613106973114327
 51
0.0000000000010941
  0
ARC
  5
7915
  8
0
  6
VERDECKT2
 62
     1
 10
-94.0000000000006679
 20
949.1515026088615059
 30
0.0
 40
17.9999999999993392
210
0.0
220
-0.0000000000000002
230
-1.0
 50
179.9999999999988916
 51
214.3868930268855877
  0
LINE
  5
7916
  8
0
  6
VERDECKT2
 62
     1
 10
112.0
 20
974.8244460927453474
 30
-0.0000000000002165
 11
112.0
 21
949.151502608861847
 31
-0.0000000000002108
210
0.0
220
1.0
230
-0.0000000000000002
  0
LINE
  5
7917
  8
0
  6
VERDECKT2
 62
     1
 10
-112.0000000000000995
 20
974.8244460927453474
 30
-0.0000000000002165
 11
-112.0000000000000995
 21
949.151502608861847
 31
-0.0000000000002108
210
0.0
220
1.0
230
-0.0000000000000002
  0
ARC
  5
7918
  8
0
  6
VERDECKT2
 62
     1
 10
132.9000000000023931
 20
974.8244460927443242
 30
0.0
 40
20.9000000000022297
210
0.0
220
-0.0000000000000002
230
-1.0
 50
149.3645523418543064
 51
179.9999999999971863
  0
ARC
  5
7919
  8
0
  6
VERDECKT2
 62
     1
 10
-132.9000000000033026
 20
974.8244460927438695
 30
0.0
 40
20.90000000000326
210
0.0
220
-0.0000000000000002
230
-1.0
 50
0.0000000000037403
 51
30.6354476581451607
  0
ARC
  5
791A
  8
0
  6
VERDECKT2
 62
     1
 10
80.5000000000007248
 20
1005.8574929943939651
 30
0.0
 40
39.9999999999994174
210
0.0
220
-0.0000000000000002
230
-1.0
 50
329.3645523418538232
 51
0.0000000000001654
  0
ARC
  5
791B
  8
0
  6
VERDECKT2
 62
     1
 10
-80.5000000000006253
 20
1005.8574929943939651
 30
0.0
 40
39.9999999999994102
210
0.0
220
-0.0000000000000002
230
-1.0
 50
179.999999999999801
 51
210.6354476581462052
  0
LINE
  5
791C
  8
0
  6
VERDECKT2
 62
     1
 10
120.5000000000000995
 20
1038.1425070056059212
 30
-0.0000000000002305
 11
120.5000000000000995
 21
1005.8574929943949883
 31
-0.0000000000002233
210
0.0
220
1.0
230
-0.0000000000000002
  0
LINE
  5
791D
  8
0
  6
VERDECKT2
 62
     1
 10
-120.500000000000199
 20
1038.1425070056059212
 30
-0.0000000000002305
 11
-120.500000000000199
 21
1005.8574929943949883
 31
-0.0000000000002233
210
0.0
220
1.0
230
-0.0000000000000002
  0
POLYLINE
  8
0
  5
7E21
  62
1
  66
     1
 10
0.000000
 20
0.000000
 30
0.000000
  70
     8
  0
VERTEX
  8
0
  5
7E22
 10
-132.458
 20
295.650
 30
-6.56000e-14
  70
    32
  0
VERTEX
  8
0
  5
7E23
 10
-132.458
 20
295.659
 30
-6.56041e-14
  70
    32
  0
VERTEX
  8
0
  5
7E24
 10
-132.458
 20
295.668
 30
-6.56081e-14
  70
    32
  0
VERTEX
  8
0
  5
7E25
 10
-132.458
 20
295.676
 30
-6.56120e-14
  70
    32
  0
VERTEX
  8
0
  5
7E26
 10
-132.458
 20
295.685
 30
-6.56158e-14
  70
    32
  0
VERTEX
  8
0
  5
7E27
 10
-132.458
 20
295.694
 30
-6.56195e-14
  70
    32
  0
VERTEX
  8
0
  5
7E28
 10
-132.458
 20
295.703
 30
-6.56230e-14
  70
    32
  0
VERTEX
  8
0
  5
7E29
 10
-132.458
 20
295.712
 30
-6.56265e-14
  70
    32
  0
VERTEX
  8
0
  5
7E2A
 10
-132.458
 20
295.720
 30
-6.56299e-14
  70
    32
  0
VERTEX
  8
0
  5
7E2B
 10
-132.458
 20
295.729
 30
-6.56332e-14
  70
    32
  0
VERTEX
  8
0
  5
7E2C
 10
-132.458
 20
295.738
 30
-6.56363e-14
  70
    32
  0
VERTEX
  8
0
  5
7E2D
 10
-132.458
 20
295.747
 30
-6.56394e-14
  70
    32
  0
VERTEX
  8
0
  5
7E2E
 10
-132.458
 20
295.756
 30
-6.56424e-14
  70
    32
  0
VERTEX
  8
0
  5
7E2F
 10
-132.458
 20
295.765
 30
-6.56453e-14
  70
    32
  0
VERTEX
  8
0
  5
7E30
 10
-132.458
 20
295.774
 30
-6.56482e-14
  70
    32
  0
VERTEX
  8
0
  5
7E31
 10
-132.458
 20
295.783
 30
-6.56509e-14
  70
    32
  0
VERTEX
  8
0
  5
7E32
 10
-132.458
 20
295.791
 30
-6.56536e-14
  70
    32
  0
VERTEX
  8
0
  5
7E33
 10
-132.458
 20
295.800
 30
-6.56562e-14
  70
    32
  0
VERTEX
  8
0
  5
7E34
 10
-132.458
 20
295.809
 30
-6.56587e-14
  70
    32
  0
VERTEX
  8
0
  5
7E35
 10
-132.458
 20
295.818
 30
-6.56611e-14
  70
    32
  0
VERTEX
  8
0
  5
7E36
 10
-132.458
 20
295.827
 30
-6.56635e-14
  70
    32
  0
VERTEX
  8
0
  5
7E37
 10
-132.458
 20
295.836
 30
-6.56658e-14
  70
    32
  0
VERTEX
  8
0
  5
7E38
 10
-132.458
 20
295.845
 30
-6.56680e-14
  70
    32
  0
VERTEX
  8
0
  5
7E39
 10
-132.458
 20
295.854
 30
-6.56702e-14
  70
    32
  0
VERTEX
  8
0
  5
7E3A
 10
-132.458
 20
295.863
 30
-6.56723e-14
  70
    32
  0
VERTEX
  8
0
  5
7E3B
 10
-132.458
 20
295.872
 30
-6.56744e-14
  70
    32
  0
VERTEX
  8
0
  5
7E3C
 10
-132.458
 20
295.881
 30
-6.56764e-14
  70
    32
  0
VERTEX
  8
0
  5
7E3D
 10
-132.458
 20
295.890
 30
-6.56783e-14
  70
    32
  0
VERTEX
  8
0
  5
7E3E
 10
-132.458
 20
295.899
 30
-6.56802e-14
  70
    32
  0
VERTEX
  8
0
  5
7E3F
 10
-132.458
 20
295.908
 30
-6.56821e-14
  70
    32
  0
VERTEX
  8
0
  5
7E40
 10
-132.458
 20
295.917
 30
-6.56839e-14
  70
    32
  0
VERTEX
  8
0
  5
7E41
 10
-132.458
 20
295.925
 30
-6.56856e-14
  70
    32
  0
VERTEX
  8
0
  5
7E42
 10
-132.458
 20
295.934
 30
-6.56873e-14
  70
    32
  0
VERTEX
  8
0
  5
7E43
 10
-132.458
 20
295.943
 30
-6.56890e-14
  70
    32
  0
VERTEX
  8
0
  5
7E44
 10
-132.458
 20
295.952
 30
-6.56907e-14
  70
    32
  0
VERTEX
  8
0
  5
7E45
 10
-132.458
 20
295.961
 30
-6.56923e-14
  70
    32
  0
VERTEX
  8
0
  5
7E46
 10
-132.458
 20
295.970
 30
-6.56938e-14
  70
    32
  0
VERTEX
  8
0
  5
7E47
 10
-132.458
 20
295.979
 30
-6.56954e-14
  70
    32
  0
VERTEX
  8
0
  5
7E48
 10
-132.458
 20
295.988
 30
-6.56969e-14
  70
    32
  0
VERTEX
  8
0
  5
7E49
 10
-132.458
 20
295.997
 30
-6.56984e-14
  70
    32
  0
VERTEX
  8
0
  5
7E4A
 10
-132.458
 20
296.006
 30
-6.56999e-14
  70
    32
  0
VERTEX
  8
0
  5
7E4B
 10
-132.458
 20
296.015
 30
-6.57014e-14
  70
    32
  0
VERTEX
  8
0
  5
7E4C
 10
-132.458
 20
296.024
 30
-6.57028e-14
  70
    32
  0
VERTEX
  8
0
  5
7E4D
 10
-132.458
 20
296.033
 30
-6.57042e-14
  70
    32
  0
VERTEX
  8
0
  5
7E4E
 10
-132.458
 20
296.042
 30
-6.57056e-14
  70
    32
  0
VERTEX
  8
0
  5
7E4F
 10
-132.458
 20
296.051
 30
-6.57070e-14
  70
    32
  0
VERTEX
  8
0
  5
7E50
 10
-132.458
 20
296.060
 30
-6.57084e-14
  70
    32
  0
VERTEX
  8
0
  5
7E51
 10
-132.458
 20
296.069
 30
-6.57098e-14
  70
    32
  0
VERTEX
  8
0
  5
7E52
 10
-132.458
 20
296.079
 30
-6.57112e-14
  70
    32
  0
VERTEX
  8
0
  5
7E53
 10
-132.458
 20
296.088
 30
-6.57126e-14
  70
    32
  0
VERTEX
  8
0
  5
7E54
 10
-132.458
 20
296.097
 30
-6.57140e-14
  70
    32
  0
VERTEX
  8
0
  5
7E55
 10
-132.458
 20
296.106
 30
-6.57154e-14
  70
    32
  0
VERTEX
  8
0
  5
7E56
 10
-132.458
 20
296.115
 30
-6.57168e-14
  70
    32
  0
VERTEX
  8
0
  5
7E57
 10
-132.458
 20
296.124
 30
-6.57182e-14
  70
    32
  0
VERTEX
  8
0
  5
7E58
 10
-132.459
 20
296.133
 30
-6.57197e-14
  70
    32
  0
VERTEX
  8
0
  5
7E59
 10
-132.459
 20
296.142
 30
-6.57211e-14
  70
    32
  0
VERTEX
  8
0
  5
7E5A
 10
-132.459
 20
296.151
 30
-6.57226e-14
  70
    32
  0
VERTEX
  8
0
  5
7E5B
 10
-132.459
 20
296.160
 30
-6.57241e-14
  70
    32
  0
VERTEX
  8
0
  5
7E5C
 10
-132.459
 20
296.169
 30
-6.57256e-14
  70
    32
  0
VERTEX
  8
0
  5
7E5D
 10
-132.459
 20
296.178
 30
-6.57271e-14
  70
    32
  0
VERTEX
  8
0
  5
7E5E
 10
-132.459
 20
296.187
 30
-6.57286e-14
  70
    32
  0
VERTEX
  8
0
  5
7E5F
 10
-132.459
 20
296.196
 30
-6.57302e-14
  70
    32
  0
VERTEX
  8
0
  5
7E60
 10
-132.459
 20
296.205
 30
-6.57318e-14
  70
    32
  0
VERTEX
  8
0
  5
7E61
 10
-132.459
 20
296.214
 30
-6.57335e-14
  70
    32
  0
VERTEX
  8
0
  5
7E62
 10
-132.459
 20
296.223
 30
-6.57352e-14
  70
    32
  0
VERTEX
  8
0
  5
7E63
 10
-132.459
 20
296.232
 30
-6.57369e-14
  70
    32
  0
VERTEX
  8
0
  5
7E64
 10
-132.459
 20
296.241
 30
-6.57387e-14
  70
    32
  0
VERTEX
  8
0
  5
7E65
 10
-132.459
 20
296.250
 30
-6.57405e-14
  70
    32
  0
VERTEX
  8
0
  5
7E66
 10
-132.459
 20
296.259
 30
-6.57423e-14
  70
    32
  0
VERTEX
  8
0
  5
7E67
 10
-132.459
 20
296.268
 30
-6.57442e-14
  70
    32
  0
VERTEX
  8
0
  5
7E68
 10
-132.459
 20
296.277
 30
-6.57462e-14
  70
    32
  0
VERTEX
  8
0
  5
7E69
 10
-132.459
 20
296.286
 30
-6.57482e-14
  70
    32
  0
VERTEX
  8
0
  5
7E6A
 10
-132.459
 20
296.295
 30
-6.57503e-14
  70
    32
  0
VERTEX
  8
0
  5
7E6B
 10
-132.459
 20
296.304
 30
-6.57524e-14
  70
    32
  0
VERTEX
  8
0
  5
7E6C
 10
-132.459
 20
296.313
 30
-6.57546e-14
  70
    32
  0
VERTEX
  8
0
  5
7E6D
 10
-132.459
 20
296.322
 30
-6.57568e-14
  70
    32
  0
VERTEX
  8
0
  5
7E6E
 10
-132.459
 20
296.331
 30
-6.57591e-14
  70
    32
  0
VERTEX
  8
0
  5
7E6F
 10
-132.459
 20
296.340
 30
-6.57614e-14
  70
    32
  0
VERTEX
  8
0
  5
7E70
 10
-132.459
 20
296.349
 30
-6.57638e-14
  70
    32
  0
VERTEX
  8
0
  5
7E71
 10
-132.460
 20
296.358
 30
-6.57662e-14
  70
    32
  0
VERTEX
  8
0
  5
7E72
 10
-132.460
 20
296.367
 30
-6.57687e-14
  70
    32
  0
VERTEX
  8
0
  5
7E73
 10
-132.460
 20
296.376
 30
-6.57713e-14
  70
    32
  0
VERTEX
  8
0
  5
7E74
 10
-132.460
 20
296.386
 30
-6.57738e-14
  70
    32
  0
VERTEX
  8
0
  5
7E75
 10
-132.460
 20
296.395
 30
-6.57764e-14
  70
    32
  0
VERTEX
  8
0
  5
7E76
 10
-132.460
 20
296.404
 30
-6.57791e-14
  70
    32
  0
VERTEX
  8
0
  5
7E77
 10
-132.460
 20
296.413
 30
-6.57818e-14
  70
    32
  0
VERTEX
  8
0
  5
7E78
 10
-132.460
 20
296.422
 30
-6.57845e-14
  70
    32
  0
VERTEX
  8
0
  5
7E79
 10
-132.460
 20
296.431
 30
-6.57873e-14
  70
    32
  0
VERTEX
  8
0
  5
7E7A
 10
-132.460
 20
296.440
 30
-6.57901e-14
  70
    32
  0
VERTEX
  8
0
  5
7E7B
 10
-132.460
 20
296.449
 30
-6.57929e-14
  70
    32
  0
VERTEX
  8
0
  5
7E7C
 10
-132.460
 20
296.457
 30
-6.57958e-14
  70
    32
  0
VERTEX
  8
0
  5
7E7D
 10
-132.460
 20
296.466
 30
-6.57986e-14
  70
    32
  0
VERTEX
  8
0
  5
7E7E
 10
-132.460
 20
296.475
 30
-6.58016e-14
  70
    32
  0
VERTEX
  8
0
  5
7E7F
 10
-132.460
 20
296.484
 30
-6.58045e-14
  70
    32
  0
VERTEX
  8
0
  5
7E80
 10
-132.460
 20
296.493
 30
-6.58075e-14
  70
    32
  0
VERTEX
  8
0
  5
7E81
 10
-132.460
 20
296.502
 30
-6.58105e-14
  70
    32
  0
VERTEX
  8
0
  5
7E82
 10
-132.460
 20
296.511
 30
-6.58135e-14
  70
    32
  0
VERTEX
  8
0
  5
7E83
 10
-132.461
 20
296.520
 30
-6.58165e-14
  70
    32
  0
VERTEX
  8
0
  5
7E84
 10
-132.461
 20
296.529
 30
-6.58195e-14
  70
    32
  0
VERTEX
  8
0
  5
7E85
 10
-132.461
 20
296.538
 30
-6.58226e-14
  70
    32
  0
VERTEX
  8
0
  5
7E86
 10
-132.461
 20
296.547
 30
-6.58257e-14
  70
    32
  0
VERTEX
  8
0
  5
7E87
 10
-132.461
 20
296.556
 30
-6.58288e-14
  70
    32
  0
VERTEX
  8
0
  5
7E88
 10
-132.461
 20
296.565
 30
-6.58319e-14
  70
    32
  0
VERTEX
  8
0
  5
7E89
 10
-132.461
 20
296.574
 30
-6.58350e-14
  70
    32
  0
VERTEX
  8
0
  5
7E8A
 10
-132.461
 20
296.583
 30
-6.58381e-14
  70
    32
  0
VERTEX
  8
0
  5
7E8B
 10
-132.461
 20
296.592
 30
-6.58412e-14
  70
    32
  0
VERTEX
  8
0
  5
7E8C
 10
-132.461
 20
296.601
 30
-6.58443e-14
  70
    32
  0
VERTEX
  8
0
  5
7E8D
 10
-132.461
 20
296.610
 30
-6.58475e-14
  70
    32
  0
VERTEX
  8
0
  5
7E8E
 10
-132.461
 20
296.619
 30
-6.58506e-14
  70
    32
  0
VERTEX
  8
0
  5
7E8F
 10
-132.461
 20
296.627
 30
-6.58537e-14
  70
    32
  0
VERTEX
  8
0
  5
7E90
 10
-132.461
 20
296.636
 30
-6.58568e-14
  70
    32
  0
VERTEX
  8
0
  5
7E91
 10
-132.461
 20
296.645
 30
-6.58600e-14
  70
    32
  0
VERTEX
  8
0
  5
7E92
 10
-132.461
 20
296.654
 30
-6.58631e-14
  70
    32
  0
VERTEX
  8
0
  5
7E93
 10
-132.462
 20
296.663
 30
-6.58662e-14
  70
    32
  0
VERTEX
  8
0
  5
7E94
 10
-132.462
 20
296.672
 30
-6.58693e-14
  70
    32
  0
VERTEX
  8
0
  5
7E95
 10
-132.462
 20
296.681
 30
-6.58724e-14
  70
    32
  0
VERTEX
  8
0
  5
7E96
 10
-132.462
 20
296.690
 30
-6.58755e-14
  70
    32
  0
VERTEX
  8
0
  5
7E97
 10
-132.462
 20
296.698
 30
-6.58786e-14
  70
    32
  0
VERTEX
  8
0
  5
7E98
 10
-132.462
 20
296.707
 30
-6.58816e-14
  70
    32
  0
VERTEX
  8
0
  5
7E99
 10
-132.462
 20
296.716
 30
-6.58846e-14
  70
    32
  0
VERTEX
  8
0
  5
7E9A
 10
-132.462
 20
296.725
 30
-6.58877e-14
  70
    32
  0
VERTEX
  8
0
  5
7E9B
 10
-132.462
 20
296.734
 30
-6.58907e-14
  70
    32
  0
VERTEX
  8
0
  5
7E9C
 10
-132.462
 20
296.742
 30
-6.58936e-14
  70
    32
  0
VERTEX
  8
0
  5
7E9D
 10
-132.462
 20
296.751
 30
-6.58966e-14
  70
    32
  0
VERTEX
  8
0
  5
7E9E
 10
-132.462
 20
296.760
 30
-6.58995e-14
  70
    32
  0
VERTEX
  8
0
  5
7E9F
 10
-132.462
 20
296.769
 30
-6.59024e-14
  70
    32
  0
VERTEX
  8
0
  5
7EA0
 10
-132.462
 20
296.778
 30
-6.59053e-14
  70
    32
  0
VERTEX
  8
0
  5
7EA1
 10
-132.463
 20
296.786
 30
-6.59082e-14
  70
    32
  0
VERTEX
  8
0
  5
7EA2
 10
-132.463
 20
296.795
 30
-6.59110e-14
  70
    32
  0
VERTEX
  8
0
  5
7EA3
 10
-132.463
 20
296.804
 30
-6.59138e-14
  70
    32
  0
VERTEX
  8
0
  5
7EA4
 10
-132.463
 20
296.813
 30
-6.59165e-14
  70
    32
  0
VERTEX
  8
0
  5
7EA5
 10
-132.463
 20
296.821
 30
-6.59192e-14
  70
    32
  0
VERTEX
  8
0
  5
7EA6
 10
-132.463
 20
296.830
 30
-6.59219e-14
  70
    32
  0
VERTEX
  8
0
  5
7EA7
 10
-132.463
 20
296.839
 30
-6.59245e-14
  70
    32
  0
VERTEX
  8
0
  5
7EA8
 10
-132.463
 20
296.848
 30
-6.59271e-14
  70
    32
  0
VERTEX
  8
0
  5
7EA9
 10
-132.463
 20
296.856
 30
-6.59297e-14
  70
    32
  0
VERTEX
  8
0
  5
7EAA
 10
-132.463
 20
296.865
 30
-6.59322e-14
  70
    32
  0
VERTEX
  8
0
  5
7EAB
 10
-132.463
 20
296.874
 30
-6.59347e-14
  70
    32
  0
VERTEX
  8
0
  5
7EAC
 10
-132.463
 20
296.882
 30
-6.59371e-14
  70
    32
  0
VERTEX
  8
0
  5
7EAD
 10
-132.463
 20
296.891
 30
-6.59395e-14
  70
    32
  0
VERTEX
  8
0
  5
7EAE
 10
-132.464
 20
296.900
 30
-6.59418e-14
  70
    32
  0
VERTEX
  8
0
  5
7EAF
 10
-132.464
 20
296.908
 30
-6.59440e-14
  70
    32
  0
VERTEX
  8
0
  5
7EB0
 10
-132.464
 20
296.917
 30
-6.59463e-14
  70
    32
  0
VERTEX
  8
0
  5
7EB1
 10
-132.464
 20
296.926
 30
-6.59484e-14
  70
    32
  0
VERTEX
  8
0
  5
7EB2
 10
-132.464
 20
296.934
 30
-6.59505e-14
  70
    32
  0
VERTEX
  8
0
  5
7EB3
 10
-132.464
 20
296.943
 30
-6.59526e-14
  70
    32
  0
VERTEX
  8
0
  5
7EB4
 10
-132.464
 20
296.951
 30
-6.59546e-14
  70
    32
  0
VERTEX
  8
0
  5
7EB5
 10
-132.464
 20
296.960
 30
-6.59565e-14
  70
    32
  0
VERTEX
  8
0
  5
7EB6
 10
-132.464
 20
296.969
 30
-6.59584e-14
  70
    32
  0
VERTEX
  8
0
  5
7EB7
 10
-132.464
 20
296.977
 30
-6.59602e-14
  70
    32
  0
VERTEX
  8
0
  5
7EB8
 10
-132.464
 20
296.986
 30
-6.59620e-14
  70
    32
  0
VERTEX
  8
0
  5
7EB9
 10
-132.464
 20
296.994
 30
-6.59637e-14
  70
    32
  0
VERTEX
  8
0
  5
7EBA
 10
-132.465
 20
297.003
 30
-6.59654e-14
  70
    32
  0
VERTEX
  8
0
  5
7EBB
 10
-132.465
 20
297.011
 30
-6.59670e-14
  70
    32
  0
VERTEX
  8
0
  5
7EBC
 10
-132.465
 20
297.020
 30
-6.59686e-14
  70
    32
  0
VERTEX
  8
0
  5
7EBD
 10
-132.465
 20
297.028
 30
-6.59702e-14
  70
    32
  0
VERTEX
  8
0
  5
7EBE
 10
-132.465
 20
297.037
 30
-6.59717e-14
  70
    32
  0
VERTEX
  8
0
  5
7EBF
 10
-132.465
 20
297.045
 30
-6.59732e-14
  70
    32
  0
VERTEX
  8
0
  5
7EC0
 10
-132.465
 20
297.054
 30
-6.59746e-14
  70
    32
  0
VERTEX
  8
0
  5
7EC1
 10
-132.465
 20
297.062
 30
-6.59760e-14
  70
    32
  0
VERTEX
  8
0
  5
7EC2
 10
-132.465
 20
297.071
 30
-6.59774e-14
  70
    32
  0
VERTEX
  8
0
  5
7EC3
 10
-132.465
 20
297.079
 30
-6.59787e-14
  70
    32
  0
VERTEX
  8
0
  5
7EC4
 10
-132.465
 20
297.087
 30
-6.59801e-14
  70
    32
  0
VERTEX
  8
0
  5
7EC5
 10
-132.466
 20
297.096
 30
-6.59813e-14
  70
    32
  0
VERTEX
  8
0
  5
7EC6
 10
-132.466
 20
297.104
 30
-6.59826e-14
  70
    32
  0
VERTEX
  8
0
  5
7EC7
 10
-132.466
 20
297.113
 30
-6.59838e-14
  70
    32
  0
VERTEX
  8
0
  5
7EC8
 10
-132.466
 20
297.121
 30
-6.59850e-14
  70
    32
  0
VERTEX
  8
0
  5
7EC9
 10
-132.466
 20
297.129
 30
-6.59862e-14
  70
    32
  0
VERTEX
  8
0
  5
7ECA
 10
-132.466
 20
297.138
 30
-6.59874e-14
  70
    32
  0
VERTEX
  8
0
  5
7ECB
 10
-132.466
 20
297.146
 30
-6.59885e-14
  70
    32
  0
VERTEX
  8
0
  5
7ECC
 10
-132.466
 20
297.154
 30
-6.59896e-14
  70
    32
  0
VERTEX
  8
0
  5
7ECD
 10
-132.466
 20
297.163
 30
-6.59908e-14
  70
    32
  0
VERTEX
  8
0
  5
7ECE
 10
-132.466
 20
297.171
 30
-6.59919e-14
  70
    32
  0
VERTEX
  8
0
  5
7ECF
 10
-132.466
 20
297.179
 30
-6.59929e-14
  70
    32
  0
VERTEX
  8
0
  5
7ED0
 10
-132.467
 20
297.188
 30
-6.59940e-14
  70
    32
  0
VERTEX
  8
0
  5
7ED1
 10
-132.467
 20
297.196
 30
-6.59951e-14
  70
    32
  0
VERTEX
  8
0
  5
7ED2
 10
-132.467
 20
297.204
 30
-6.59961e-14
  70
    32
  0
VERTEX
  8
0
  5
7ED3
 10
-132.467
 20
297.212
 30
-6.59972e-14
  70
    32
  0
VERTEX
  8
0
  5
7ED4
 10
-132.467
 20
297.221
 30
-6.59982e-14
  70
    32
  0
VERTEX
  8
0
  5
7ED5
 10
-132.467
 20
297.229
 30
-6.59993e-14
  70
    32
  0
VERTEX
  8
0
  5
7ED6
 10
-132.467
 20
297.237
 30
-6.60003e-14
  70
    32
  0
VERTEX
  8
0
  5
7ED7
 10
-132.467
 20
297.245
 30
-6.60014e-14
  70
    32
  0
VERTEX
  8
0
  5
7ED8
 10
-132.467
 20
297.253
 30
-6.60024e-14
  70
    32
  0
VERTEX
  8
0
  5
7ED9
 10
-132.467
 20
297.261
 30
-6.60035e-14
  70
    32
  0
VERTEX
  8
0
  5
7EDA
 10
-132.468
 20
297.270
 30
-6.60045e-14
  70
    32
  0
VERTEX
  8
0
  5
7EDB
 10
-132.468
 20
297.278
 30
-6.60056e-14
  70
    32
  0
VERTEX
  8
0
  5
7EDC
 10
-132.468
 20
297.286
 30
-6.60067e-14
  70
    32
  0
VERTEX
  8
0
  5
7EDD
 10
-132.468
 20
297.294
 30
-6.60077e-14
  70
    32
  0
VERTEX
  8
0
  5
7EDE
 10
-132.468
 20
297.302
 30
-6.60088e-14
  70
    32
  0
VERTEX
  8
0
  5
7EDF
 10
-132.468
 20
297.310
 30
-6.60099e-14
  70
    32
  0
VERTEX
  8
0
  5
7EE0
 10
-132.468
 20
297.318
 30
-6.60111e-14
  70
    32
  0
VERTEX
  8
0
  5
7EE1
 10
-132.468
 20
297.326
 30
-6.60122e-14
  70
    32
  0
VERTEX
  8
0
  5
7EE2
 10
-132.468
 20
297.334
 30
-6.60134e-14
  70
    32
  0
VERTEX
  8
0
  5
7EE3
 10
-132.468
 20
297.342
 30
-6.60145e-14
  70
    32
  0
VERTEX
  8
0
  5
7EE4
 10
-132.469
 20
297.350
 30
-6.60157e-14
  70
    32
  0
VERTEX
  8
0
  5
7EE5
 10
-132.469
 20
297.358
 30
-6.60169e-14
  70
    32
  0
VERTEX
  8
0
  5
7EE6
 10
-132.469
 20
297.366
 30
-6.60182e-14
  70
    32
  0
VERTEX
  8
0
  5
7EE7
 10
-132.469
 20
297.374
 30
-6.60195e-14
  70
    32
  0
VERTEX
  8
0
  5
7EE8
 10
-132.469
 20
297.382
 30
-6.60208e-14
  70
    32
  0
VERTEX
  8
0
  5
7EE9
 10
-132.469
 20
297.390
 30
-6.60221e-14
  70
    32
  0
VERTEX
  8
0
  5
7EEA
 10
-132.469
 20
297.398
 30
-6.60235e-14
  70
    32
  0
VERTEX
  8
0
  5
7EEB
 10
-132.469
 20
297.406
 30
-6.60248e-14
  70
    32
  0
VERTEX
  8
0
  5
7EEC
 10
-132.469
 20
297.414
 30
-6.60263e-14
  70
    32
  0
VERTEX
  8
0
  5
7EED
 10
-132.469
 20
297.421
 30
-6.60277e-14
  70
    32
  0
VERTEX
  8
0
  5
7EEE
 10
-132.470
 20
297.429
 30
-6.60292e-14
  70
    32
  0
VERTEX
  8
0
  5
7EEF
 10
-132.470
 20
297.437
 30
-6.60308e-14
  70
    32
  0
VERTEX
  8
0
  5
7EF0
 10
-132.470
 20
297.445
 30
-6.60324e-14
  70
    32
  0
VERTEX
  8
0
  5
7EF1
 10
-132.470
 20
297.453
 30
-6.60340e-14
  70
    32
  0
VERTEX
  8
0
  5
7EF2
 10
-132.470
 20
297.460
 30
-6.60357e-14
  70
    32
  0
VERTEX
  8
0
  5
7EF3
 10
-132.470
 20
297.468
 30
-6.60374e-14
  70
    32
  0
VERTEX
  8
0
  5
7EF4
 10
-132.470
 20
297.476
 30
-6.60391e-14
  70
    32
  0
VERTEX
  8
0
  5
7EF5
 10
-132.470
 20
297.484
 30
-6.60409e-14
  70
    32
  0
VERTEX
  8
0
  5
7EF6
 10
-132.470
 20
297.491
 30
-6.60428e-14
  70
    32
  0
VERTEX
  8
0
  5
7EF7
 10
-132.471
 20
297.499
 30
-6.60447e-14
  70
    32
  0
VERTEX
  8
0
  5
7EF8
 10
-132.471
 20
297.507
 30
-6.60467e-14
  70
    32
  0
VERTEX
  8
0
  5
7EF9
 10
-132.471
 20
297.514
 30
-6.60487e-14
  70
    32
  0
VERTEX
  8
0
  5
7EFA
 10
-132.471
 20
297.522
 30
-6.60508e-14
  70
    32
  0
VERTEX
  8
0
  5
7EFB
 10
-132.471
 20
297.530
 30
-6.60528e-14
  70
    32
  0
VERTEX
  8
0
  5
7EFC
 10
-132.471
 20
297.537
 30
-6.60548e-14
  70
    32
  0
VERTEX
  8
0
  5
7EFD
 10
-132.471
 20
297.545
 30
-6.60567e-14
  70
    32
  0
VERTEX
  8
0
  5
7EFE
 10
-132.471
 20
297.552
 30
-6.60586e-14
  70
    32
  0
VERTEX
  8
0
  5
7EFF
 10
-132.471
 20
297.560
 30
-6.60604e-14
  70
    32
  0
VERTEX
  8
0
  5
7F00
 10
-132.472
 20
297.567
 30
-6.60622e-14
  70
    32
  0
VERTEX
  8
0
  5
7F01
 10
-132.472
 20
297.575
 30
-6.60639e-14
  70
    32
  0
VERTEX
  8
0
  5
7F02
 10
-132.472
 20
297.582
 30
-6.60656e-14
  70
    32
  0
VERTEX
  8
0
  5
7F03
 10
-132.472
 20
297.590
 30
-6.60672e-14
  70
    32
  0
VERTEX
  8
0
  5
7F04
 10
-132.472
 20
297.597
 30
-6.60688e-14
  70
    32
  0
VERTEX
  8
0
  5
7F05
 10
-132.472
 20
297.605
 30
-6.60704e-14
  70
    32
  0
VERTEX
  8
0
  5
7F06
 10
-132.472
 20
297.612
 30
-6.60719e-14
  70
    32
  0
VERTEX
  8
0
  5
7F07
 10
-132.472
 20
297.620
 30
-6.60734e-14
  70
    32
  0
VERTEX
  8
0
  5
7F08
 10
-132.472
 20
297.627
 30
-6.60748e-14
  70
    32
  0
VERTEX
  8
0
  5
7F09
 10
-132.473
 20
297.634
 30
-6.60762e-14
  70
    32
  0
VERTEX
  8
0
  5
7F0A
 10
-132.473
 20
297.642
 30
-6.60776e-14
  70
    32
  0
VERTEX
  8
0
  5
7F0B
 10
-132.473
 20
297.649
 30
-6.60789e-14
  70
    32
  0
VERTEX
  8
0
  5
7F0C
 10
-132.473
 20
297.656
 30
-6.60802e-14
  70
    32
  0
VERTEX
  8
0
  5
7F0D
 10
-132.473
 20
297.664
 30
-6.60815e-14
  70
    32
  0
VERTEX
  8
0
  5
7F0E
 10
-132.473
 20
297.671
 30
-6.60827e-14
  70
    32
  0
VERTEX
  8
0
  5
7F0F
 10
-132.473
 20
297.678
 30
-6.60840e-14
  70
    32
  0
VERTEX
  8
0
  5
7F10
 10
-132.473
 20
297.686
 30
-6.60852e-14
  70
    32
  0
VERTEX
  8
0
  5
7F11
 10
-132.473
 20
297.693
 30
-6.60864e-14
  70
    32
  0
VERTEX
  8
0
  5
7F12
 10
-132.474
 20
297.700
 30
-6.60875e-14
  70
    32
  0
VERTEX
  8
0
  5
7F13
 10
-132.474
 20
297.707
 30
-6.60887e-14
  70
    32
  0
VERTEX
  8
0
  5
7F14
 10
-132.474
 20
297.714
 30
-6.60898e-14
  70
    32
  0
VERTEX
  8
0
  5
7F15
 10
-132.474
 20
297.721
 30
-6.60909e-14
  70
    32
  0
VERTEX
  8
0
  5
7F16
 10
-132.474
 20
297.729
 30
-6.60920e-14
  70
    32
  0
VERTEX
  8
0
  5
7F17
 10
-132.474
 20
297.736
 30
-6.60931e-14
  70
    32
  0
VERTEX
  8
0
  5
7F18
 10
-132.474
 20
297.743
 30
-6.60941e-14
  70
    32
  0
VERTEX
  8
0
  5
7F19
 10
-132.474
 20
297.750
 30
-6.60952e-14
  70
    32
  0
VERTEX
  8
0
  5
7F1A
 10
-132.474
 20
297.757
 30
-6.60963e-14
  70
    32
  0
VERTEX
  8
0
  5
7F1B
 10
-132.475
 20
297.764
 30
-6.60973e-14
  70
    32
  0
VERTEX
  8
0
  5
7F1C
 10
-132.475
 20
297.771
 30
-6.60984e-14
  70
    32
  0
VERTEX
  8
0
  5
7F1D
 10
-132.475
 20
297.778
 30
-6.60994e-14
  70
    32
  0
VERTEX
  8
0
  5
7F1E
 10
-132.475
 20
297.785
 30
-6.61005e-14
  70
    32
  0
VERTEX
  8
0
  5
7F1F
 10
-132.475
 20
297.792
 30
-6.61015e-14
  70
    32
  0
VERTEX
  8
0
  5
7F20
 10
-132.475
 20
297.799
 30
-6.61025e-14
  70
    32
  0
VERTEX
  8
0
  5
7F21
 10
-132.475
 20
297.806
 30
-6.61036e-14
  70
    32
  0
VERTEX
  8
0
  5
7F22
 10
-132.475
 20
297.813
 30
-6.61047e-14
  70
    32
  0
VERTEX
  8
0
  5
7F23
 10
-132.475
 20
297.819
 30
-6.61057e-14
  70
    32
  0
VERTEX
  8
0
  5
7F24
 10
-132.476
 20
297.826
 30
-6.61068e-14
  70
    32
  0
VERTEX
  8
0
  5
7F25
 10
-132.476
 20
297.833
 30
-6.61079e-14
  70
    32
  0
VERTEX
  8
0
  5
7F26
 10
-132.476
 20
297.840
 30
-6.61090e-14
  70
    32
  0
VERTEX
  8
0
  5
7F27
 10
-132.476
 20
297.847
 30
-6.61101e-14
  70
    32
  0
VERTEX
  8
0
  5
7F28
 10
-132.476
 20
297.853
 30
-6.61112e-14
  70
    32
  0
VERTEX
  8
0
  5
7F29
 10
-132.476
 20
297.860
 30
-6.61123e-14
  70
    32
  0
VERTEX
  8
0
  5
7F2A
 10
-132.476
 20
297.867
 30
-6.61135e-14
  70
    32
  0
VERTEX
  8
0
  5
7F2B
 10
-132.476
 20
297.874
 30
-6.61147e-14
  70
    32
  0
VERTEX
  8
0
  5
7F2C
 10
-132.476
 20
297.880
 30
-6.61159e-14
  70
    32
  0
VERTEX
  8
0
  5
7F2D
 10
-132.477
 20
297.887
 30
-6.61171e-14
  70
    32
  0
VERTEX
  8
0
  5
7F2E
 10
-132.477
 20
297.894
 30
-6.61183e-14
  70
    32
  0
VERTEX
  8
0
  5
7F2F
 10
-132.477
 20
297.900
 30
-6.61196e-14
  70
    32
  0
VERTEX
  8
0
  5
7F30
 10
-132.477
 20
297.907
 30
-6.61209e-14
  70
    32
  0
VERTEX
  8
0
  5
7F31
 10
-132.477
 20
297.913
 30
-6.61223e-14
  70
    32
  0
VERTEX
  8
0
  5
7F32
 10
-132.477
 20
297.920
 30
-6.61236e-14
  70
    32
  0
VERTEX
  8
0
  5
7F33
 10
-132.477
 20
297.926
 30
-6.61250e-14
  70
    32
  0
VERTEX
  8
0
  5
7F34
 10
-132.477
 20
297.933
 30
-6.61265e-14
  70
    32
  0
VERTEX
  8
0
  5
7F35
 10
-132.477
 20
297.939
 30
-6.61279e-14
  70
    32
  0
VERTEX
  8
0
  5
7F36
 10
-132.478
 20
297.946
 30
-6.61294e-14
  70
    32
  0
VERTEX
  8
0
  5
7F37
 10
-132.478
 20
297.952
 30
-6.61310e-14
  70
    32
  0
VERTEX
  8
0
  5
7F38
 10
-132.478
 20
297.959
 30
-6.61326e-14
  70
    32
  0
VERTEX
  8
0
  5
7F39
 10
-132.478
 20
297.965
 30
-6.61342e-14
  70
    32
  0
VERTEX
  8
0
  5
7F3A
 10
-132.478
 20
297.972
 30
-6.61359e-14
  70
    32
  0
VERTEX
  8
0
  5
7F3B
 10
-132.478
 20
297.978
 30
-6.61376e-14
  70
    32
  0
VERTEX
  8
0
  5
7F3C
 10
-132.478
 20
297.984
 30
-6.61394e-14
  70
    32
  0
VERTEX
  8
0
  5
7F3D
 10
-132.478
 20
297.991
 30
-6.61412e-14
  70
    32
  0
VERTEX
  8
0
  5
7F3E
 10
-132.478
 20
297.997
 30
-6.61430e-14
  70
    32
  0
VERTEX
  8
0
  5
7F3F
 10
-132.479
 20
298.003
 30
-6.61450e-14
  70
    32
  0
VERTEX
  8
0
  5
7F40
 10
-132.479
 20
298.009
 30
-6.61469e-14
  70
    32
  0
VERTEX
  8
0
  5
7F41
 10
-132.479
 20
298.016
 30
-6.61490e-14
  70
    32
  0
VERTEX
  8
0
  5
7F42
 10
-132.479
 20
298.022
 30
-6.61510e-14
  70
    32
  0
VERTEX
  8
0
  5
7F43
 10
-132.479
 20
298.028
 30
-6.61531e-14
  70
    32
  0
VERTEX
  8
0
  5
7F44
 10
-132.479
 20
298.034
 30
-6.61550e-14
  70
    32
  0
VERTEX
  8
0
  5
7F45
 10
-132.479
 20
298.040
 30
-6.61570e-14
  70
    32
  0
VERTEX
  8
0
  5
7F46
 10
-132.479
 20
298.047
 30
-6.61588e-14
  70
    32
  0
VERTEX
  8
0
  5
7F47
 10
-132.479
 20
298.053
 30
-6.61606e-14
  70
    32
  0
VERTEX
  8
0
  5
7F48
 10
-132.480
 20
298.059
 30
-6.61624e-14
  70
    32
  0
VERTEX
  8
0
  5
7F49
 10
-132.480
 20
298.065
 30
-6.61641e-14
  70
    32
  0
VERTEX
  8
0
  5
7F4A
 10
-132.480
 20
298.071
 30
-6.61658e-14
  70
    32
  0
VERTEX
  8
0
  5
7F4B
 10
-132.480
 20
298.077
 30
-6.61674e-14
  70
    32
  0
VERTEX
  8
0
  5
7F4C
 10
-132.480
 20
298.083
 30
-6.61690e-14
  70
    32
  0
VERTEX
  8
0
  5
7F4D
 10
-132.480
 20
298.089
 30
-6.61706e-14
  70
    32
  0
VERTEX
  8
0
  5
7F4E
 10
-132.480
 20
298.096
 30
-6.61721e-14
  70
    32
  0
VERTEX
  8
0
  5
7F4F
 10
-132.480
 20
298.102
 30
-6.61735e-14
  70
    32
  0
VERTEX
  8
0
  5
7F50
 10
-132.480
 20
298.108
 30
-6.61750e-14
  70
    32
  0
VERTEX
  8
0
  5
7F51
 10
-132.481
 20
298.114
 30
-6.61764e-14
  70
    32
  0
VERTEX
  8
0
  5
7F52
 10
-132.481
 20
298.120
 30
-6.61777e-14
  70
    32
  0
VERTEX
  8
0
  5
7F53
 10
-132.481
 20
298.126
 30
-6.61791e-14
  70
    32
  0
VERTEX
  8
0
  5
7F54
 10
-132.481
 20
298.132
 30
-6.61804e-14
  70
    32
  0
VERTEX
  8
0
  5
7F55
 10
-132.481
 20
298.138
 30
-6.61817e-14
  70
    32
  0
VERTEX
  8
0
  5
7F56
 10
-132.481
 20
298.144
 30
-6.61829e-14
  70
    32
  0
VERTEX
  8
0
  5
7F57
 10
-132.481
 20
298.150
 30
-6.61841e-14
  70
    32
  0
VERTEX
  8
0
  5
7F58
 10
-132.481
 20
298.156
 30
-6.61853e-14
  70
    32
  0
VERTEX
  8
0
  5
7F59
 10
-132.481
 20
298.161
 30
-6.61865e-14
  70
    32
  0
VERTEX
  8
0
  5
7F5A
 10
-132.482
 20
298.167
 30
-6.61877e-14
  70
    32
  0
VERTEX
  8
0
  5
7F5B
 10
-132.482
 20
298.173
 30
-6.61888e-14
  70
    32
  0
VERTEX
  8
0
  5
7F5C
 10
-132.482
 20
298.179
 30
-6.61899e-14
  70
    32
  0
VERTEX
  8
0
  5
7F5D
 10
-132.482
 20
298.185
 30
-6.61910e-14
  70
    32
  0
VERTEX
  8
0
  5
7F5E
 10
-132.482
 20
298.191
 30
-6.61921e-14
  70
    32
  0
VERTEX
  8
0
  5
7F5F
 10
-132.482
 20
298.197
 30
-6.61932e-14
  70
    32
  0
VERTEX
  8
0
  5
7F60
 10
-132.482
 20
298.203
 30
-6.61943e-14
  70
    32
  0
VERTEX
  8
0
  5
7F61
 10
-132.482
 20
298.208
 30
-6.61953e-14
  70
    32
  0
VERTEX
  8
0
  5
7F62
 10
-132.482
 20
298.214
 30
-6.61964e-14
  70
    32
  0
VERTEX
  8
0
  5
7F63
 10
-132.483
 20
298.220
 30
-6.61975e-14
  70
    32
  0
VERTEX
  8
0
  5
7F64
 10
-132.483
 20
298.226
 30
-6.61985e-14
  70
    32
  0
VERTEX
  8
0
  5
7F65
 10
-132.483
 20
298.232
 30
-6.61995e-14
  70
    32
  0
VERTEX
  8
0
  5
7F66
 10
-132.483
 20
298.237
 30
-6.62006e-14
  70
    32
  0
VERTEX
  8
0
  5
7F67
 10
-132.483
 20
298.243
 30
-6.62016e-14
  70
    32
  0
VERTEX
  8
0
  5
7F68
 10
-132.483
 20
298.249
 30
-6.62027e-14
  70
    32
  0
VERTEX
  8
0
  5
7F69
 10
-132.483
 20
298.254
 30
-6.62037e-14
  70
    32
  0
VERTEX
  8
0
  5
7F6A
 10
-132.483
 20
298.260
 30
-6.62048e-14
  70
    32
  0
VERTEX
  8
0
  5
7F6B
 10
-132.483
 20
298.266
 30
-6.62059e-14
  70
    32
  0
VERTEX
  8
0
  5
7F6C
 10
-132.484
 20
298.271
 30
-6.62069e-14
  70
    32
  0
VERTEX
  8
0
  5
7F6D
 10
-132.484
 20
298.277
 30
-6.62080e-14
  70
    32
  0
VERTEX
  8
0
  5
7F6E
 10
-132.484
 20
298.283
 30
-6.62091e-14
  70
    32
  0
VERTEX
  8
0
  5
7F6F
 10
-132.484
 20
298.288
 30
-6.62102e-14
  70
    32
  0
VERTEX
  8
0
  5
7F70
 10
-132.484
 20
298.294
 30
-6.62113e-14
  70
    32
  0
VERTEX
  8
0
  5
7F71
 10
-132.484
 20
298.300
 30
-6.62125e-14
  70
    32
  0
VERTEX
  8
0
  5
7F72
 10
-132.484
 20
298.305
 30
-6.62136e-14
  70
    32
  0
VERTEX
  8
0
  5
7F73
 10
-132.484
 20
298.311
 30
-6.62148e-14
  70
    32
  0
VERTEX
  8
0
  5
7F74
 10
-132.484
 20
298.316
 30
-6.62160e-14
  70
    32
  0
VERTEX
  8
0
  5
7F75
 10
-132.485
 20
298.322
 30
-6.62173e-14
  70
    32
  0
VERTEX
  8
0
  5
7F76
 10
-132.485
 20
298.327
 30
-6.62185e-14
  70
    32
  0
VERTEX
  8
0
  5
7F77
 10
-132.485
 20
298.333
 30
-6.62198e-14
  70
    32
  0
VERTEX
  8
0
  5
7F78
 10
-132.485
 20
298.338
 30
-6.62211e-14
  70
    32
  0
VERTEX
  8
0
  5
7F79
 10
-132.485
 20
298.344
 30
-6.62224e-14
  70
    32
  0
VERTEX
  8
0
  5
7F7A
 10
-132.485
 20
298.349
 30
-6.62238e-14
  70
    32
  0
VERTEX
  8
0
  5
7F7B
 10
-132.485
 20
298.354
 30
-6.62252e-14
  70
    32
  0
VERTEX
  8
0
  5
7F7C
 10
-132.485
 20
298.360
 30
-6.62266e-14
  70
    32
  0
VERTEX
  8
0
  5
7F7D
 10
-132.485
 20
298.365
 30
-6.62281e-14
  70
    32
  0
VERTEX
  8
0
  5
7F7E
 10
-132.486
 20
298.370
 30
-6.62296e-14
  70
    32
  0
VERTEX
  8
0
  5
7F7F
 10
-132.486
 20
298.376
 30
-6.62312e-14
  70
    32
  0
VERTEX
  8
0
  5
7F80
 10
-132.486
 20
298.381
 30
-6.62328e-14
  70
    32
  0
VERTEX
  8
0
  5
7F81
 10
-132.486
 20
298.386
 30
-6.62344e-14
  70
    32
  0
VERTEX
  8
0
  5
7F82
 10
-132.486
 20
298.392
 30
-6.62361e-14
  70
    32
  0
VERTEX
  8
0
  5
7F83
 10
-132.486
 20
298.397
 30
-6.62378e-14
  70
    32
  0
VERTEX
  8
0
  5
7F84
 10
-132.486
 20
298.402
 30
-6.62396e-14
  70
    32
  0
VERTEX
  8
0
  5
7F85
 10
-132.486
 20
298.407
 30
-6.62414e-14
  70
    32
  0
VERTEX
  8
0
  5
7F86
 10
-132.486
 20
298.413
 30
-6.62433e-14
  70
    32
  0
VERTEX
  8
0
  5
7F87
 10
-132.487
 20
298.418
 30
-6.62452e-14
  70
    32
  0
VERTEX
  8
0
  5
7F88
 10
-132.487
 20
298.423
 30
-6.62472e-14
  70
    32
  0
VERTEX
  8
0
  5
7F89
 10
-132.487
 20
298.428
 30
-6.62492e-14
  70
    32
  0
VERTEX
  8
0
  5
7F8A
 10
-132.487
 20
298.433
 30
-6.62513e-14
  70
    32
  0
VERTEX
  8
0
  5
7F8B
 10
-132.487
 20
298.438
 30
-6.62533e-14
  70
    32
  0
VERTEX
  8
0
  5
7F8C
 10
-132.487
 20
298.443
 30
-6.62553e-14
  70
    32
  0
VERTEX
  8
0
  5
7F8D
 10
-132.487
 20
298.449
 30
-6.62572e-14
  70
    32
  0
VERTEX
  8
0
  5
7F8E
 10
-132.487
 20
298.454
 30
-6.62591e-14
  70
    32
  0
VERTEX
  8
0
  5
7F8F
 10
-132.487
 20
298.459
 30
-6.62609e-14
  70
    32
  0
VERTEX
  8
0
  5
7F90
 10
-132.488
 20
298.464
 30
-6.62626e-14
  70
    32
  0
VERTEX
  8
0
  5
7F91
 10
-132.488
 20
298.469
 30
-6.62643e-14
  70
    32
  0
VERTEX
  8
0
  5
7F92
 10
-132.488
 20
298.474
 30
-6.62660e-14
  70
    32
  0
VERTEX
  8
0
  5
7F93
 10
-132.488
 20
298.479
 30
-6.62676e-14
  70
    32
  0
VERTEX
  8
0
  5
7F94
 10
-132.488
 20
298.484
 30
-6.62692e-14
  70
    32
  0
VERTEX
  8
0
  5
7F95
 10
-132.488
 20
298.488
 30
-6.62708e-14
  70
    32
  0
VERTEX
  8
0
  5
7F96
 10
-132.488
 20
298.493
 30
-6.62723e-14
  70
    32
  0
VERTEX
  8
0
  5
7F97
 10
-132.488
 20
298.498
 30
-6.62737e-14
  70
    32
  0
VERTEX
  8
0
  5
7F98
 10
-132.488
 20
298.503
 30
-6.62752e-14
  70
    32
  0
VERTEX
  8
0
  5
7F99
 10
-132.488
 20
298.508
 30
-6.62765e-14
  70
    32
  0
VERTEX
  8
0
  5
7F9A
 10
-132.489
 20
298.513
 30
-6.62779e-14
  70
    32
  0
VERTEX
  8
0
  5
7F9B
 10
-132.489
 20
298.518
 30
-6.62792e-14
  70
    32
  0
VERTEX
  8
0
  5
7F9C
 10
-132.489
 20
298.522
 30
-6.62805e-14
  70
    32
  0
VERTEX
  8
0
  5
7F9D
 10
-132.489
 20
298.527
 30
-6.62818e-14
  70
    32
  0
VERTEX
  8
0
  5
7F9E
 10
-132.489
 20
298.532
 30
-6.62831e-14
  70
    32
  0
VERTEX
  8
0
  5
7F9F
 10
-132.489
 20
298.536
 30
-6.62843e-14
  70
    32
  0
VERTEX
  8
0
  5
7FA0
 10
-132.489
 20
298.541
 30
-6.62855e-14
  70
    32
  0
VERTEX
  8
0
  5
7FA1
 10
-132.489
 20
298.546
 30
-6.62866e-14
  70
    32
  0
VERTEX
  8
0
  5
7FA2
 10
-132.489
 20
298.550
 30
-6.62878e-14
  70
    32
  0
VERTEX
  8
0
  5
7FA3
 10
-132.489
 20
298.555
 30
-6.62889e-14
  70
    32
  0
VERTEX
  8
0
  5
7FA4
 10
-132.490
 20
298.560
 30
-6.62901e-14
  70
    32
  0
VERTEX
  8
0
  5
7FA5
 10
-132.490
 20
298.564
 30
-6.62912e-14
  70
    32
  0
VERTEX
  8
0
  5
7FA6
 10
-132.490
 20
298.569
 30
-6.62923e-14
  70
    32
  0
VERTEX
  8
0
  5
7FA7
 10
-132.490
 20
298.573
 30
-6.62933e-14
  70
    32
  0
VERTEX
  8
0
  5
7FA8
 10
-132.490
 20
298.578
 30
-6.62944e-14
  70
    32
  0
VERTEX
  8
0
  5
7FA9
 10
-132.490
 20
298.582
 30
-6.62955e-14
  70
    32
  0
VERTEX
  8
0
  5
7FAA
 10
-132.490
 20
298.587
 30
-6.62965e-14
  70
    32
  0
VERTEX
  8
0
  5
7FAB
 10
-132.490
 20
298.591
 30
-6.62976e-14
  70
    32
  0
VERTEX
  8
0
  5
7FAC
 10
-132.490
 20
298.596
 30
-6.62986e-14
  70
    32
  0
VERTEX
  8
0
  5
7FAD
 10
-132.490
 20
298.600
 30
-6.62997e-14
  70
    32
  0
VERTEX
  8
0
  5
7FAE
 10
-132.491
 20
298.605
 30
-6.63007e-14
  70
    32
  0
VERTEX
  8
0
  5
7FAF
 10
-132.491
 20
298.609
 30
-6.63018e-14
  70
    32
  0
VERTEX
  8
0
  5
7FB0
 10
-132.491
 20
298.613
 30
-6.63028e-14
  70
    32
  0
VERTEX
  8
0
  5
7FB1
 10
-132.491
 20
298.618
 30
-6.63039e-14
  70
    32
  0
VERTEX
  8
0
  5
7FB2
 10
-132.491
 20
298.622
 30
-6.63049e-14
  70
    32
  0
VERTEX
  8
0
  5
7FB3
 10
-132.491
 20
298.626
 30
-6.63060e-14
  70
    32
  0
VERTEX
  8
0
  5
7FB4
 10
-132.491
 20
298.631
 30
-6.63071e-14
  70
    32
  0
VERTEX
  8
0
  5
7FB5
 10
-132.491
 20
298.635
 30
-6.63081e-14
  70
    32
  0
VERTEX
  8
0
  5
7FB6
 10
-132.491
 20
298.639
 30
-6.63092e-14
  70
    32
  0
VERTEX
  8
0
  5
7FB7
 10
-132.491
 20
298.643
 30
-6.63104e-14
  70
    32
  0
VERTEX
  8
0
  5
7FB8
 10
-132.492
 20
298.647
 30
-6.63115e-14
  70
    32
  0
VERTEX
  8
0
  5
7FB9
 10
-132.492
 20
298.651
 30
-6.63126e-14
  70
    32
  0
VERTEX
  8
0
  5
7FBA
 10
-132.492
 20
298.656
 30
-6.63138e-14
  70
    32
  0
VERTEX
  8
0
  5
7FBB
 10
-132.492
 20
298.660
 30
-6.63150e-14
  70
    32
  0
VERTEX
  8
0
  5
7FBC
 10
-132.492
 20
298.664
 30
-6.63162e-14
  70
    32
  0
VERTEX
  8
0
  5
7FBD
 10
-132.492
 20
298.668
 30
-6.63174e-14
  70
    32
  0
VERTEX
  8
0
  5
7FBE
 10
-132.492
 20
298.672
 30
-6.63187e-14
  70
    32
  0
VERTEX
  8
0
  5
7FBF
 10
-132.492
 20
298.676
 30
-6.63199e-14
  70
    32
  0
VERTEX
  8
0
  5
7FC0
 10
-132.492
 20
298.680
 30
-6.63213e-14
  70
    32
  0
VERTEX
  8
0
  5
7FC1
 10
-132.492
 20
298.684
 30
-6.63226e-14
  70
    32
  0
VERTEX
  8
0
  5
7FC2
 10
-132.492
 20
298.688
 30
-6.63240e-14
  70
    32
  0
VERTEX
  8
0
  5
7FC3
 10
-132.493
 20
298.692
 30
-6.63254e-14
  70
    32
  0
VERTEX
  8
0
  5
7FC4
 10
-132.493
 20
298.696
 30
-6.63268e-14
  70
    32
  0
VERTEX
  8
0
  5
7FC5
 10
-132.493
 20
298.699
 30
-6.63283e-14
  70
    32
  0
VERTEX
  8
0
  5
7FC6
 10
-132.493
 20
298.703
 30
-6.63298e-14
  70
    32
  0
VERTEX
  8
0
  5
7FC7
 10
-132.493
 20
298.707
 30
-6.63314e-14
  70
    32
  0
VERTEX
  8
0
  5
7FC8
 10
-132.493
 20
298.711
 30
-6.63330e-14
  70
    32
  0
VERTEX
  8
0
  5
7FC9
 10
-132.493
 20
298.715
 30
-6.63346e-14
  70
    32
  0
VERTEX
  8
0
  5
7FCA
 10
-132.493
 20
298.718
 30
-6.63363e-14
  70
    32
  0
VERTEX
  8
0
  5
7FCB
 10
-132.493
 20
298.722
 30
-6.63380e-14
  70
    32
  0
VERTEX
  8
0
  5
7FCC
 10
-132.493
 20
298.726
 30
-6.63398e-14
  70
    32
  0
VERTEX
  8
0
  5
7FCD
 10
-132.493
 20
298.730
 30
-6.63416e-14
  70
    32
  0
VERTEX
  8
0
  5
7FCE
 10
-132.494
 20
298.733
 30
-6.63435e-14
  70
    32
  0
VERTEX
  8
0
  5
7FCF
 10
-132.494
 20
298.737
 30
-6.63454e-14
  70
    32
  0
VERTEX
  8
0
  5
7FD0
 10
-132.494
 20
298.741
 30
-6.63474e-14
  70
    32
  0
VERTEX
  8
0
  5
7FD1
 10
-132.494
 20
298.744
 30
-6.63495e-14
  70
    32
  0
VERTEX
  8
0
  5
7FD2
 10
-132.494
 20
298.748
 30
-6.63515e-14
  70
    32
  0
VERTEX
  8
0
  5
7FD3
 10
-132.494
 20
298.751
 30
-6.63536e-14
  70
    32
  0
VERTEX
  8
0
  5
7FD4
 10
-132.494
 20
298.755
 30
-6.63555e-14
  70
    32
  0
VERTEX
  8
0
  5
7FD5
 10
-132.494
 20
298.758
 30
-6.63574e-14
  70
    32
  0
VERTEX
  8
0
  5
7FD6
 10
-132.494
 20
298.762
 30
-6.63593e-14
  70
    32
  0
VERTEX
  8
0
  5
7FD7
 10
-132.494
 20
298.765
 30
-6.63611e-14
  70
    32
  0
VERTEX
  8
0
  5
7FD8
 10
-132.494
 20
298.769
 30
-6.63628e-14
  70
    32
  0
VERTEX
  8
0
  5
7FD9
 10
-132.494
 20
298.772
 30
-6.63645e-14
  70
    32
  0
VERTEX
  8
0
  5
7FDA
 10
-132.495
 20
298.775
 30
-6.63661e-14
  70
    32
  0
VERTEX
  8
0
  5
7FDB
 10
-132.495
 20
298.779
 30
-6.63677e-14
  70
    32
  0
VERTEX
  8
0
  5
7FDC
 10
-132.495
 20
298.782
 30
-6.63692e-14
  70
    32
  0
VERTEX
  8
0
  5
7FDD
 10
-132.495
 20
298.785
 30
-6.63707e-14
  70
    32
  0
VERTEX
  8
0
  5
7FDE
 10
-132.495
 20
298.788
 30
-6.63722e-14
  70
    32
  0
VERTEX
  8
0
  5
7FDF
 10
-132.495
 20
298.792
 30
-6.63736e-14
  70
    32
  0
VERTEX
  8
0
  5
7FE0
 10
-132.495
 20
298.795
 30
-6.63749e-14
  70
    32
  0
VERTEX
  8
0
  5
7FE1
 10
-132.495
 20
298.798
 30
-6.63762e-14
  70
    32
  0
VERTEX
  8
0
  5
7FE2
 10
-132.495
 20
298.801
 30
-6.63774e-14
  70
    32
  0
VERTEX
  8
0
  5
7FE3
 10
-132.495
 20
298.804
 30
-6.63786e-14
  70
    32
  0
VERTEX
  8
0
  5
7FE4
 10
-132.495
 20
298.808
 30
-6.63798e-14
  70
    32
  0
VERTEX
  8
0
  5
7FE5
 10
-132.495
 20
298.811
 30
-6.63809e-14
  70
    32
  0
VERTEX
  8
0
  5
7FE6
 10
-132.495
 20
298.814
 30
-6.63820e-14
  70
    32
  0
VERTEX
  8
0
  5
7FE7
 10
-132.495
 20
298.817
 30
-6.63830e-14
  70
    32
  0
VERTEX
  8
0
  5
7FE8
 10
-132.496
 20
298.820
 30
-6.63840e-14
  70
    32
  0
VERTEX
  8
0
  5
7FE9
 10
-132.496
 20
298.823
 30
-6.63850e-14
  70
    32
  0
VERTEX
  8
0
  5
7FEA
 10
-132.496
 20
298.826
 30
-6.63859e-14
  70
    32
  0
VERTEX
  8
0
  5
7FEB
 10
-132.496
 20
298.829
 30
-6.63868e-14
  70
    32
  0
VERTEX
  8
0
  5
7FEC
 10
-132.496
 20
298.832
 30
-6.63876e-14
  70
    32
  0
VERTEX
  8
0
  5
7FED
 10
-132.496
 20
298.835
 30
-6.63884e-14
  70
    32
  0
VERTEX
  8
0
  5
7FEE
 10
-132.496
 20
298.837
 30
-6.63892e-14
  70
    32
  0
VERTEX
  8
0
  5
7FEF
 10
-132.496
 20
298.840
 30
-6.63899e-14
  70
    32
  0
VERTEX
  8
0
  5
7FF0
 10
-132.496
 20
298.843
 30
-6.63906e-14
  70
    32
  0
VERTEX
  8
0
  5
7FF1
 10
-132.496
 20
298.846
 30
-6.63913e-14
  70
    32
  0
VERTEX
  8
0
  5
7FF2
 10
-132.496
 20
298.849
 30
-6.63919e-14
  70
    32
  0
VERTEX
  8
0
  5
7FF3
 10
-132.496
 20
298.851
 30
-6.63925e-14
  70
    32
  0
VERTEX
  8
0
  5
7FF4
 10
-132.496
 20
298.854
 30
-6.63931e-14
  70
    32
  0
VERTEX
  8
0
  5
7FF5
 10
-132.496
 20
298.857
 30
-6.63937e-14
  70
    32
  0
VERTEX
  8
0
  5
7FF6
 10
-132.497
 20
298.860
 30
-6.63942e-14
  70
    32
  0
VERTEX
  8
0
  5
7FF7
 10
-132.497
 20
298.862
 30
-6.63946e-14
  70
    32
  0
VERTEX
  8
0
  5
7FF8
 10
-132.497
 20
298.865
 30
-6.63951e-14
  70
    32
  0
VERTEX
  8
0
  5
7FF9
 10
-132.497
 20
298.867
 30
-6.63955e-14
  70
    32
  0
VERTEX
  8
0
  5
7FFA
 10
-132.497
 20
298.870
 30
-6.63959e-14
  70
    32
  0
VERTEX
  8
0
  5
7FFB
 10
-132.497
 20
298.873
 30
-6.63963e-14
  70
    32
  0
VERTEX
  8
0
  5
7FFC
 10
-132.497
 20
298.875
 30
-6.63967e-14
  70
    32
  0
VERTEX
  8
0
  5
7FFD
 10
-132.497
 20
298.878
 30
-6.63970e-14
  70
    32
  0
VERTEX
  8
0
  5
7FFE
 10
-132.497
 20
298.880
 30
-6.63973e-14
  70
    32
  0
VERTEX
  8
0
  5
7FFF
 10
-132.497
 20
298.883
 30
-6.63976e-14
  70
    32
  0
VERTEX
  8
0
  5
8000
 10
-132.497
 20
298.885
 30
-6.63979e-14
  70
    32
  0
VERTEX
  8
0
  5
8001
 10
-132.497
 20
298.887
 30
-6.63981e-14
  70
    32
  0
VERTEX
  8
0
  5
8002
 10
-132.497
 20
298.890
 30
-6.63983e-14
  70
    32
  0
VERTEX
  8
0
  5
8003
 10
-132.497
 20
298.892
 30
-6.63985e-14
  70
    32
  0
VERTEX
  8
0
  5
8004
 10
-132.497
 20
298.894
 30
-6.63987e-14
  70
    32
  0
VERTEX
  8
0
  5
8005
 10
-132.497
 20
298.897
 30
-6.63989e-14
  70
    32
  0
VERTEX
  8
0
  5
8006
 10
-132.497
 20
298.899
 30
-6.63991e-14
  70
    32
  0
VERTEX
  8
0
  5
8007
 10
-132.498
 20
298.901
 30
-6.63992e-14
  70
    32
  0
VERTEX
  8
0
  5
8008
 10
-132.498
 20
298.903
 30
-6.63993e-14
  70
    32
  0
VERTEX
  8
0
  5
8009
 10
-132.498
 20
298.906
 30
-6.63994e-14
  70
    32
  0
VERTEX
  8
0
  5
800A
 10
-132.498
 20
298.908
 30
-6.63995e-14
  70
    32
  0
VERTEX
  8
0
  5
800B
 10
-132.498
 20
298.910
 30
-6.63996e-14
  70
    32
  0
VERTEX
  8
0
  5
800C
 10
-132.498
 20
298.912
 30
-6.63997e-14
  70
    32
  0
VERTEX
  8
0
  5
800D
 10
-132.498
 20
298.914
 30
-6.63998e-14
  70
    32
  0
VERTEX
  8
0
  5
800E
 10
-132.498
 20
298.916
 30
-6.63998e-14
  70
    32
  0
VERTEX
  8
0
  5
800F
 10
-132.498
 20
298.918
 30
-6.63999e-14
  70
    32
  0
VERTEX
  8
0
  5
8010
 10
-132.498
 20
298.920
 30
-6.63999e-14
  70
    32
  0
VERTEX
  8
0
  5
8011
 10
-132.498
 20
298.922
 30
-6.63999e-14
  70
    32
  0
VERTEX
  8
0
  5
8012
 10
-132.498
 20
298.924
 30
-6.64000e-14
  70
    32
  0
VERTEX
  8
0
  5
8013
 10
-132.498
 20
298.926
 30
-6.64000e-14
  70
    32
  0
VERTEX
  8
0
  5
8014
 10
-132.498
 20
298.928
 30
-6.64000e-14
  70
    32
  0
VERTEX
  8
0
  5
8015
 10
-132.498
 20
298.930
 30
-6.64000e-14
  70
    32
  0
VERTEX
  8
0
  5
8016
 10
-132.498
 20
298.932
 30
-6.64000e-14
  70
    32
  0
VERTEX
  8
0
  5
8017
 10
-132.498
 20
298.934
 30
-6.64000e-14
  70
    32
  0
VERTEX
  8
0
  5
8018
 10
-132.498
 20
298.935
 30
-6.64000e-14
  70
    32
  0
VERTEX
  8
0
  5
8019
 10
-132.498
 20
298.937
 30
-6.64000e-14
  70
    32
  0
VERTEX
  8
0
  5
801A
 10
-132.498
 20
298.939
 30
-6.64000e-14
  70
    32
  0
VERTEX
  8
0
  5
801B
 10
-132.499
 20
298.941
 30
-6.64000e-14
  70
    32
  0
VERTEX
  8
0
  5
801C
 10
-132.499
 20
298.942
 30
-6.64000e-14
  70
    32
  0
VERTEX
  8
0
  5
801D
 10
-132.499
 20
298.944
 30
-6.64000e-14
  70
    32
  0
VERTEX
  8
0
  5
801E
 10
-132.499
 20
298.946
 30
-6.64000e-14
  70
    32
  0
VERTEX
  8
0
  5
801F
 10
-132.499
 20
298.947
 30
-6.64000e-14
  70
    32
  0
VERTEX
  8
0
  5
8020
 10
-132.499
 20
298.949
 30
-6.64000e-14
  70
    32
  0
VERTEX
  8
0
  5
8021
 10
-132.499
 20
298.951
 30
-6.64000e-14
  70
    32
  0
VERTEX
  8
0
  5
8022
 10
-132.499
 20
298.952
 30
-6.64000e-14
  70
    32
  0
VERTEX
  8
0
  5
8023
 10
-132.499
 20
298.954
 30
-6.64000e-14
  70
    32
  0
VERTEX
  8
0
  5
8024
 10
-132.499
 20
298.955
 30
-6.64000e-14
  70
    32
  0
VERTEX
  8
0
  5
8025
 10
-132.499
 20
298.957
 30
-6.64000e-14
  70
    32
  0
VERTEX
  8
0
  5
8026
 10
-132.499
 20
298.958
 30
-6.64000e-14
  70
    32
  0
VERTEX
  8
0
  5
8027
 10
-132.499
 20
298.960
 30
-6.64000e-14
  70
    32
  0
VERTEX
  8
0
  5
8028
 10
-132.499
 20
298.961
 30
-6.64000e-14
  70
    32
  0
VERTEX
  8
0
  5
8029
 10
-132.499
 20
298.962
 30
-6.64000e-14
  70
    32
  0
VERTEX
  8
0
  5
802A
 10
-132.499
 20
298.964
 30
-6.64000e-14
  70
    32
  0
VERTEX
  8
0
  5
802B
 10
-132.499
 20
298.965
 30
-6.64000e-14
  70
    32
  0
VERTEX
  8
0
  5
802C
 10
-132.499
 20
298.966
 30
-6.64000e-14
  70
    32
  0
VERTEX
  8
0
  5
802D
 10
-132.499
 20
298.968
 30
-6.64000e-14
  70
    32
  0
VERTEX
  8
0
  5
802E
 10
-132.499
 20
298.969
 30
-6.64000e-14
  70
    32
  0
VERTEX
  8
0
  5
802F
 10
-132.499
 20
298.970
 30
-6.64000e-14
  70
    32
  0
VERTEX
  8
0
  5
8030
 10
-132.499
 20
298.971
 30
-6.64000e-14
  70
    32
  0
VERTEX
  8
0
  5
8031
 10
-132.499
 20
298.972
 30
-6.64000e-14
  70
    32
  0
VERTEX
  8
0
  5
8032
 10
-132.499
 20
298.974
 30
-6.64000e-14
  70
    32
  0
VERTEX
  8
0
  5
8033
 10
-132.499
 20
298.975
 30
-6.64000e-14
  70
    32
  0
VERTEX
  8
0
  5
8034
 10
-132.499
 20
298.976
 30
-6.64000e-14
  70
    32
  0
VERTEX
  8
0
  5
8035
 10
-132.499
 20
298.977
 30
-6.64000e-14
  70
    32
  0
VERTEX
  8
0
  5
8036
 10
-132.499
 20
298.978
 30
-6.64000e-14
  70
    32
  0
VERTEX
  8
0
  5
8037
 10
-132.499
 20
298.979
 30
-6.64000e-14
  70
    32
  0
VERTEX
  8
0
  5
8038
 10
-132.499
 20
298.980
 30
-6.64000e-14
  70
    32
  0
VERTEX
  8
0
  5
8039
 10
-132.500
 20
298.981
 30
-6.64000e-14
  70
    32
  0
VERTEX
  8
0
  5
803A
 10
-132.500
 20
298.982
 30
-6.64000e-14
  70
    32
  0
VERTEX
  8
0
  5
803B
 10
-132.500
 20
298.983
 30
-6.64000e-14
  70
    32
  0
VERTEX
  8
0
  5
803C
 10
-132.500
 20
298.984
 30
-6.64000e-14
  70
    32
  0
VERTEX
  8
0
  5
803D
 10
-132.500
 20
298.985
 30
-6.64000e-14
  70
    32
  0
VERTEX
  8
0
  5
803E
 10
-132.500
 20
298.985
 30
-6.64000e-14
  70
    32
  0
VERTEX
  8
0
  5
803F
 10
-132.500
 20
298.986
 30
-6.64000e-14
  70
    32
  0
VERTEX
  8
0
  5
8040
 10
-132.500
 20
298.987
 30
-6.64000e-14
  70
    32
  0
VERTEX
  8
0
  5
8041
 10
-132.500
 20
298.988
 30
-6.64000e-14
  70
    32
  0
VERTEX
  8
0
  5
8042
 10
-132.500
 20
298.989
 30
-6.64000e-14
  70
    32
  0
VERTEX
  8
0
  5
8043
 10
-132.500
 20
298.989
 30
-6.64000e-14
  70
    32
  0
VERTEX
  8
0
  5
8044
 10
-132.500
 20
298.990
 30
-6.64000e-14
  70
    32
  0
VERTEX
  8
0
  5
8045
 10
-132.500
 20
298.991
 30
-6.64000e-14
  70
    32
  0
VERTEX
  8
0
  5
8046
 10
-132.500
 20
298.991
 30
-6.64000e-14
  70
    32
  0
VERTEX
  8
0
  5
8047
 10
-132.500
 20
298.992
 30
-6.64000e-14
  70
    32
  0
VERTEX
  8
0
  5
8048
 10
-132.500
 20
298.993
 30
-6.64000e-14
  70
    32
  0
VERTEX
  8
0
  5
8049
 10
-132.500
 20
298.993
 30
-6.64000e-14
  70
    32
  0
VERTEX
  8
0
  5
804A
 10
-132.500
 20
298.994
 30
-6.64000e-14
  70
    32
  0
VERTEX
  8
0
  5
804B
 10
-132.500
 20
298.994
 30
-6.64000e-14
  70
    32
  0
VERTEX
  8
0
  5
804C
 10
-132.500
 20
298.995
 30
-6.64000e-14
  70
    32
  0
VERTEX
  8
0
  5
804D
 10
-132.500
 20
298.995
 30
-6.64000e-14
  70
    32
  0
VERTEX
  8
0
  5
804E
 10
-132.500
 20
298.996
 30
-6.64000e-14
  70
    32
  0
VERTEX
  8
0
  5
804F
 10
-132.500
 20
298.996
 30
-6.64000e-14
  70
    32
  0
VERTEX
  8
0
  5
8050
 10
-132.500
 20
298.997
 30
-6.64000e-14
  70
    32
  0
VERTEX
  8
0
  5
8051
 10
-132.500
 20
298.997
 30
-6.64000e-14
  70
    32
  0
VERTEX
  8
0
  5
8052
 10
-132.500
 20
298.997
 30
-6.64000e-14
  70
    32
  0
VERTEX
  8
0
  5
8053
 10
-132.500
 20
298.998
 30
-6.64000e-14
  70
    32
  0
VERTEX
  8
0
  5
8054
 10
-132.500
 20
298.998
 30
-6.64000e-14
  70
    32
  0
VERTEX
  8
0
  5
8055
 10
-132.500
 20
298.998
 30
-6.64000e-14
  70
    32
  0
VERTEX
  8
0
  5
8056
 10
-132.500
 20
298.999
 30
-6.64000e-14
  70
    32
  0
VERTEX
  8
0
  5
8057
 10
-132.500
 20
298.999
 30
-6.64000e-14
  70
    32
  0
VERTEX
  8
0
  5
8058
 10
-132.500
 20
298.999
 30
-6.64000e-14
  70
    32
  0
VERTEX
  8
0
  5
8059
 10
-132.500
 20
298.999
 30
-6.64000e-14
  70
    32
  0
VERTEX
  8
0
  5
805A
 10
-132.500
 20
298.999
 30
-6.64000e-14
  70
    32
  0
VERTEX
  8
0
  5
805B
 10
-132.500
 20
299.000
 30
-6.64000e-14
  70
    32
  0
VERTEX
  8
0
  5
805C
 10
-132.500
 20
299.000
 30
-6.64000e-14
  70
    32
  0
VERTEX
  8
0
  5
805D
 10
-132.500
 20
299.000
 30
-6.64000e-14
  70
    32
  0
VERTEX
  8
0
  5
805E
 10
-132.500
 20
299.000
 30
-6.64000e-14
  70
    32
  0
VERTEX
  8
0
  5
805F
 10
-132.500
 20
299.000
 30
-6.64000e-14
  70
    32
  0
VERTEX
  8
0
  5
8060
 10
-132.500
 20
299.000
 30
-6.64000e-14
  70
    32
  0
VERTEX
  8
0
  5
8061
 10
-132.500
 20
299.000
 30
-6.64000e-14
  70
    32
  0
SEQEND
  8
0
  5
8062
  0
POLYLINE
  8
0
  5
8063
  62
1
  66
     1
 10
0.000000
 20
0.000000
 30
0.000000
  70
     8
  0
VERTEX
  8
0
  5
8064
 10
-132.500
 20
292.300
 30
-6.49000e-14
  70
    32
  0
VERTEX
  8
0
  5
8065
 10
-132.500
 20
292.300
 30
-6.49000e-14
  70
    32
  0
VERTEX
  8
0
  5
8066
 10
-132.500
 20
292.300
 30
-6.49000e-14
  70
    32
  0
VERTEX
  8
0
  5
8067
 10
-132.500
 20
292.300
 30
-6.49000e-14
  70
    32
  0
VERTEX
  8
0
  5
8068
 10
-132.500
 20
292.300
 30
-6.49000e-14
  70
    32
  0
VERTEX
  8
0
  5
8069
 10
-132.500
 20
292.300
 30
-6.49000e-14
  70
    32
  0
VERTEX
  8
0
  5
806A
 10
-132.500
 20
292.300
 30
-6.49000e-14
  70
    32
  0
VERTEX
  8
0
  5
806B
 10
-132.500
 20
292.301
 30
-6.49000e-14
  70
    32
  0
VERTEX
  8
0
  5
806C
 10
-132.500
 20
292.301
 30
-6.49000e-14
  70
    32
  0
VERTEX
  8
0
  5
806D
 10
-132.500
 20
292.301
 30
-6.49000e-14
  70
    32
  0
VERTEX
  8
0
  5
806E
 10
-132.500
 20
292.301
 30
-6.49000e-14
  70
    32
  0
VERTEX
  8
0
  5
806F
 10
-132.500
 20
292.301
 30
-6.49000e-14
  70
    32
  0
VERTEX
  8
0
  5
8070
 10
-132.500
 20
292.302
 30
-6.49000e-14
  70
    32
  0
VERTEX
  8
0
  5
8071
 10
-132.500
 20
292.302
 30
-6.49000e-14
  70
    32
  0
VERTEX
  8
0
  5
8072
 10
-132.500
 20
292.302
 30
-6.49000e-14
  70
    32
  0
VERTEX
  8
0
  5
8073
 10
-132.500
 20
292.303
 30
-6.49000e-14
  70
    32
  0
VERTEX
  8
0
  5
8074
 10
-132.500
 20
292.303
 30
-6.49000e-14
  70
    32
  0
VERTEX
  8
0
  5
8075
 10
-132.500
 20
292.303
 30
-6.49000e-14
  70
    32
  0
VERTEX
  8
0
  5
8076
 10
-132.500
 20
292.304
 30
-6.49000e-14
  70
    32
  0
VERTEX
  8
0
  5
8077
 10
-132.500
 20
292.304
 30
-6.49000e-14
  70
    32
  0
VERTEX
  8
0
  5
8078
 10
-132.500
 20
292.305
 30
-6.49000e-14
  70
    32
  0
VERTEX
  8
0
  5
8079
 10
-132.500
 20
292.305
 30
-6.49000e-14
  70
    32
  0
VERTEX
  8
0
  5
807A
 10
-132.500
 20
292.306
 30
-6.49000e-14
  70
    32
  0
VERTEX
  8
0
  5
807B
 10
-132.500
 20
292.306
 30
-6.49000e-14
  70
    32
  0
VERTEX
  8
0
  5
807C
 10
-132.500
 20
292.307
 30
-6.49000e-14
  70
    32
  0
VERTEX
  8
0
  5
807D
 10
-132.500
 20
292.307
 30
-6.49000e-14
  70
    32
  0
VERTEX
  8
0
  5
807E
 10
-132.500
 20
292.308
 30
-6.49000e-14
  70
    32
  0
VERTEX
  8
0
  5
807F
 10
-132.500
 20
292.309
 30
-6.49000e-14
  70
    32
  0
VERTEX
  8
0
  5
8080
 10
-132.500
 20
292.309
 30
-6.49000e-14
  70
    32
  0
VERTEX
  8
0
  5
8081
 10
-132.500
 20
292.310
 30
-6.49000e-14
  70
    32
  0
VERTEX
  8
0
  5
8082
 10
-132.500
 20
292.311
 30
-6.49000e-14
  70
    32
  0
VERTEX
  8
0
  5
8083
 10
-132.500
 20
292.311
 30
-6.49000e-14
  70
    32
  0
VERTEX
  8
0
  5
8084
 10
-132.500
 20
292.312
 30
-6.49000e-14
  70
    32
  0
VERTEX
  8
0
  5
8085
 10
-132.500
 20
292.313
 30
-6.49000e-14
  70
    32
  0
VERTEX
  8
0
  5
8086
 10
-132.500
 20
292.314
 30
-6.49000e-14
  70
    32
  0
VERTEX
  8
0
  5
8087
 10
-132.500
 20
292.315
 30
-6.49000e-14
  70
    32
  0
VERTEX
  8
0
  5
8088
 10
-132.500
 20
292.315
 30
-6.49000e-14
  70
    32
  0
VERTEX
  8
0
  5
8089
 10
-132.500
 20
292.316
 30
-6.49000e-14
  70
    32
  0
VERTEX
  8
0
  5
808A
 10
-132.500
 20
292.317
 30
-6.49000e-14
  70
    32
  0
VERTEX
  8
0
  5
808B
 10
-132.500
 20
292.318
 30
-6.49000e-14
  70
    32
  0
VERTEX
  8
0
  5
808C
 10
-132.500
 20
292.319
 30
-6.49000e-14
  70
    32
  0
VERTEX
  8
0
  5
808D
 10
-132.499
 20
292.320
 30
-6.49000e-14
  70
    32
  0
VERTEX
  8
0
  5
808E
 10
-132.499
 20
292.321
 30
-6.49000e-14
  70
    32
  0
VERTEX
  8
0
  5
808F
 10
-132.499
 20
292.322
 30
-6.49000e-14
  70
    32
  0
VERTEX
  8
0
  5
8090
 10
-132.499
 20
292.323
 30
-6.49000e-14
  70
    32
  0
VERTEX
  8
0
  5
8091
 10
-132.499
 20
292.324
 30
-6.49000e-14
  70
    32
  0
VERTEX
  8
0
  5
8092
 10
-132.499
 20
292.325
 30
-6.49000e-14
  70
    32
  0
VERTEX
  8
0
  5
8093
 10
-132.499
 20
292.326
 30
-6.49000e-14
  70
    32
  0
VERTEX
  8
0
  5
8094
 10
-132.499
 20
292.328
 30
-6.49000e-14
  70
    32
  0
VERTEX
  8
0
  5
8095
 10
-132.499
 20
292.329
 30
-6.49000e-14
  70
    32
  0
VERTEX
  8
0
  5
8096
 10
-132.499
 20
292.330
 30
-6.49000e-14
  70
    32
  0
VERTEX
  8
0
  5
8097
 10
-132.499
 20
292.331
 30
-6.49000e-14
  70
    32
  0
VERTEX
  8
0
  5
8098
 10
-132.499
 20
292.332
 30
-6.49000e-14
  70
    32
  0
VERTEX
  8
0
  5
8099
 10
-132.499
 20
292.334
 30
-6.49000e-14
  70
    32
  0
VERTEX
  8
0
  5
809A
 10
-132.499
 20
292.335
 30
-6.49000e-14
  70
    32
  0
VERTEX
  8
0
  5
809B
 10
-132.499
 20
292.336
 30
-6.49000e-14
  70
    32
  0
VERTEX
  8
0
  5
809C
 10
-132.499
 20
292.338
 30
-6.49000e-14
  70
    32
  0
VERTEX
  8
0
  5
809D
 10
-132.499
 20
292.339
 30
-6.49000e-14
  70
    32
  0
VERTEX
  8
0
  5
809E
 10
-132.499
 20
292.340
 30
-6.49000e-14
  70
    32
  0
VERTEX
  8
0
  5
809F
 10
-132.499
 20
292.342
 30
-6.49000e-14
  70
    32
  0
VERTEX
  8
0
  5
80A0
 10
-132.499
 20
292.343
 30
-6.49000e-14
  70
    32
  0
VERTEX
  8
0
  5
80A1
 10
-132.499
 20
292.345
 30
-6.49000e-14
  70
    32
  0
VERTEX
  8
0
  5
80A2
 10
-132.499
 20
292.346
 30
-6.49000e-14
  70
    32
  0
VERTEX
  8
0
  5
80A3
 10
-132.499
 20
292.348
 30
-6.49000e-14
  70
    32
  0
VERTEX
  8
0
  5
80A4
 10
-132.499
 20
292.349
 30
-6.49000e-14
  70
    32
  0
VERTEX
  8
0
  5
80A5
 10
-132.499
 20
292.351
 30
-6.49000e-14
  70
    32
  0
VERTEX
  8
0
  5
80A6
 10
-132.499
 20
292.353
 30
-6.49000e-14
  70
    32
  0
VERTEX
  8
0
  5
80A7
 10
-132.499
 20
292.354
 30
-6.49000e-14
  70
    32
  0
VERTEX
  8
0
  5
80A8
 10
-132.499
 20
292.356
 30
-6.49000e-14
  70
    32
  0
VERTEX
  8
0
  5
80A9
 10
-132.499
 20
292.358
 30
-6.49000e-14
  70
    32
  0
VERTEX
  8
0
  5
80AA
 10
-132.499
 20
292.359
 30
-6.49000e-14
  70
    32
  0
VERTEX
  8
0
  5
80AB
 10
-132.498
 20
292.361
 30
-6.49000e-14
  70
    32
  0
VERTEX
  8
0
  5
80AC
 10
-132.498
 20
292.363
 30
-6.49000e-14
  70
    32
  0
VERTEX
  8
0
  5
80AD
 10
-132.498
 20
292.365
 30
-6.49000e-14
  70
    32
  0
VERTEX
  8
0
  5
80AE
 10
-132.498
 20
292.366
 30
-6.49000e-14
  70
    32
  0
VERTEX
  8
0
  5
80AF
 10
-132.498
 20
292.368
 30
-6.49000e-14
  70
    32
  0
VERTEX
  8
0
  5
80B0
 10
-132.498
 20
292.370
 30
-6.49000e-14
  70
    32
  0
VERTEX
  8
0
  5
80B1
 10
-132.498
 20
292.372
 30
-6.49000e-14
  70
    32
  0
VERTEX
  8
0
  5
80B2
 10
-132.498
 20
292.374
 30
-6.49000e-14
  70
    32
  0
VERTEX
  8
0
  5
80B3
 10
-132.498
 20
292.376
 30
-6.49000e-14
  70
    32
  0
VERTEX
  8
0
  5
80B4
 10
-132.498
 20
292.378
 30
-6.49001e-14
  70
    32
  0
VERTEX
  8
0
  5
80B5
 10
-132.498
 20
292.380
 30
-6.49001e-14
  70
    32
  0
VERTEX
  8
0
  5
80B6
 10
-132.498
 20
292.382
 30
-6.49001e-14
  70
    32
  0
VERTEX
  8
0
  5
80B7
 10
-132.498
 20
292.384
 30
-6.49002e-14
  70
    32
  0
VERTEX
  8
0
  5
80B8
 10
-132.498
 20
292.386
 30
-6.49002e-14
  70
    32
  0
VERTEX
  8
0
  5
80B9
 10
-132.498
 20
292.388
 30
-6.49003e-14
  70
    32
  0
VERTEX
  8
0
  5
80BA
 10
-132.498
 20
292.390
 30
-6.49004e-14
  70
    32
  0
VERTEX
  8
0
  5
80BB
 10
-132.498
 20
292.392
 30
-6.49005e-14
  70
    32
  0
VERTEX
  8
0
  5
80BC
 10
-132.498
 20
292.394
 30
-6.49006e-14
  70
    32
  0
VERTEX
  8
0
  5
80BD
 10
-132.498
 20
292.397
 30
-6.49007e-14
  70
    32
  0
VERTEX
  8
0
  5
80BE
 10
-132.498
 20
292.399
 30
-6.49008e-14
  70
    32
  0
VERTEX
  8
0
  5
80BF
 10
-132.497
 20
292.401
 30
-6.49009e-14
  70
    32
  0
VERTEX
  8
0
  5
80C0
 10
-132.497
 20
292.403
 30
-6.49011e-14
  70
    32
  0
VERTEX
  8
0
  5
80C1
 10
-132.497
 20
292.406
 30
-6.49013e-14
  70
    32
  0
VERTEX
  8
0
  5
80C2
 10
-132.497
 20
292.408
 30
-6.49015e-14
  70
    32
  0
VERTEX
  8
0
  5
80C3
 10
-132.497
 20
292.410
 30
-6.49017e-14
  70
    32
  0
VERTEX
  8
0
  5
80C4
 10
-132.497
 20
292.413
 30
-6.49019e-14
  70
    32
  0
VERTEX
  8
0
  5
80C5
 10
-132.497
 20
292.415
 30
-6.49021e-14
  70
    32
  0
VERTEX
  8
0
  5
80C6
 10
-132.497
 20
292.417
 30
-6.49024e-14
  70
    32
  0
VERTEX
  8
0
  5
80C7
 10
-132.497
 20
292.420
 30
-6.49027e-14
  70
    32
  0
VERTEX
  8
0
  5
80C8
 10
-132.497
 20
292.422
 30
-6.49030e-14
  70
    32
  0
VERTEX
  8
0
  5
80C9
 10
-132.497
 20
292.425
 30
-6.49033e-14
  70
    32
  0
VERTEX
  8
0
  5
80CA
 10
-132.497
 20
292.427
 30
-6.49037e-14
  70
    32
  0
VERTEX
  8
0
  5
80CB
 10
-132.497
 20
292.430
 30
-6.49041e-14
  70
    32
  0
VERTEX
  8
0
  5
80CC
 10
-132.497
 20
292.433
 30
-6.49045e-14
  70
    32
  0
VERTEX
  8
0
  5
80CD
 10
-132.497
 20
292.435
 30
-6.49049e-14
  70
    32
  0
VERTEX
  8
0
  5
80CE
 10
-132.497
 20
292.438
 30
-6.49054e-14
  70
    32
  0
VERTEX
  8
0
  5
80CF
 10
-132.497
 20
292.440
 30
-6.49058e-14
  70
    32
  0
VERTEX
  8
0
  5
80D0
 10
-132.496
 20
292.443
 30
-6.49063e-14
  70
    32
  0
VERTEX
  8
0
  5
80D1
 10
-132.496
 20
292.446
 30
-6.49069e-14
  70
    32
  0
VERTEX
  8
0
  5
80D2
 10
-132.496
 20
292.449
 30
-6.49075e-14
  70
    32
  0
VERTEX
  8
0
  5
80D3
 10
-132.496
 20
292.451
 30
-6.49081e-14
  70
    32
  0
VERTEX
  8
0
  5
80D4
 10
-132.496
 20
292.454
 30
-6.49087e-14
  70
    32
  0
VERTEX
  8
0
  5
80D5
 10
-132.496
 20
292.457
 30
-6.49094e-14
  70
    32
  0
VERTEX
  8
0
  5
80D6
 10
-132.496
 20
292.460
 30
-6.49101e-14
  70
    32
  0
VERTEX
  8
0
  5
80D7
 10
-132.496
 20
292.463
 30
-6.49108e-14
  70
    32
  0
VERTEX
  8
0
  5
80D8
 10
-132.496
 20
292.465
 30
-6.49116e-14
  70
    32
  0
VERTEX
  8
0
  5
80D9
 10
-132.496
 20
292.468
 30
-6.49124e-14
  70
    32
  0
VERTEX
  8
0
  5
80DA
 10
-132.496
 20
292.471
 30
-6.49132e-14
  70
    32
  0
VERTEX
  8
0
  5
80DB
 10
-132.496
 20
292.474
 30
-6.49141e-14
  70
    32
  0
VERTEX
  8
0
  5
80DC
 10
-132.496
 20
292.477
 30
-6.49150e-14
  70
    32
  0
VERTEX
  8
0
  5
80DD
 10
-132.496
 20
292.480
 30
-6.49160e-14
  70
    32
  0
VERTEX
  8
0
  5
80DE
 10
-132.495
 20
292.483
 30
-6.49170e-14
  70
    32
  0
VERTEX
  8
0
  5
80DF
 10
-132.495
 20
292.486
 30
-6.49180e-14
  70
    32
  0
VERTEX
  8
0
  5
80E0
 10
-132.495
 20
292.489
 30
-6.49191e-14
  70
    32
  0
VERTEX
  8
0
  5
80E1
 10
-132.495
 20
292.492
 30
-6.49202e-14
  70
    32
  0
VERTEX
  8
0
  5
80E2
 10
-132.495
 20
292.496
 30
-6.49214e-14
  70
    32
  0
VERTEX
  8
0
  5
80E3
 10
-132.495
 20
292.499
 30
-6.49226e-14
  70
    32
  0
VERTEX
  8
0
  5
80E4
 10
-132.495
 20
292.502
 30
-6.49238e-14
  70
    32
  0
VERTEX
  8
0
  5
80E5
 10
-132.495
 20
292.505
 30
-6.49251e-14
  70
    32
  0
VERTEX
  8
0
  5
80E6
 10
-132.495
 20
292.508
 30
-6.49264e-14
  70
    32
  0
VERTEX
  8
0
  5
80E7
 10
-132.495
 20
292.512
 30
-6.49278e-14
  70
    32
  0
VERTEX
  8
0
  5
80E8
 10
-132.495
 20
292.515
 30
-6.49293e-14
  70
    32
  0
VERTEX
  8
0
  5
80E9
 10
-132.495
 20
292.518
 30
-6.49308e-14
  70
    32
  0
VERTEX
  8
0
  5
80EA
 10
-132.495
 20
292.521
 30
-6.49323e-14
  70
    32
  0
VERTEX
  8
0
  5
80EB
 10
-132.495
 20
292.525
 30
-6.49339e-14
  70
    32
  0
VERTEX
  8
0
  5
80EC
 10
-132.494
 20
292.528
 30
-6.49355e-14
  70
    32
  0
VERTEX
  8
0
  5
80ED
 10
-132.494
 20
292.531
 30
-6.49372e-14
  70
    32
  0
VERTEX
  8
0
  5
80EE
 10
-132.494
 20
292.535
 30
-6.49389e-14
  70
    32
  0
VERTEX
  8
0
  5
80EF
 10
-132.494
 20
292.538
 30
-6.49407e-14
  70
    32
  0
VERTEX
  8
0
  5
80F0
 10
-132.494
 20
292.542
 30
-6.49426e-14
  70
    32
  0
VERTEX
  8
0
  5
80F1
 10
-132.494
 20
292.545
 30
-6.49445e-14
  70
    32
  0
VERTEX
  8
0
  5
80F2
 10
-132.494
 20
292.549
 30
-6.49464e-14
  70
    32
  0
VERTEX
  8
0
  5
80F3
 10
-132.494
 20
292.552
 30
-6.49485e-14
  70
    32
  0
VERTEX
  8
0
  5
80F4
 10
-132.494
 20
292.556
 30
-6.49505e-14
  70
    32
  0
VERTEX
  8
0
  5
80F5
 10
-132.494
 20
292.559
 30
-6.49526e-14
  70
    32
  0
VERTEX
  8
0
  5
80F6
 10
-132.494
 20
292.563
 30
-6.49546e-14
  70
    32
  0
VERTEX
  8
0
  5
80F7
 10
-132.494
 20
292.567
 30
-6.49565e-14
  70
    32
  0
VERTEX
  8
0
  5
80F8
 10
-132.493
 20
292.570
 30
-6.49584e-14
  70
    32
  0
VERTEX
  8
0
  5
80F9
 10
-132.493
 20
292.574
 30
-6.49602e-14
  70
    32
  0
VERTEX
  8
0
  5
80FA
 10
-132.493
 20
292.578
 30
-6.49620e-14
  70
    32
  0
VERTEX
  8
0
  5
80FB
 10
-132.493
 20
292.582
 30
-6.49637e-14
  70
    32
  0
VERTEX
  8
0
  5
80FC
 10
-132.493
 20
292.585
 30
-6.49654e-14
  70
    32
  0
VERTEX
  8
0
  5
80FD
 10
-132.493
 20
292.589
 30
-6.49670e-14
  70
    32
  0
VERTEX
  8
0
  5
80FE
 10
-132.493
 20
292.593
 30
-6.49686e-14
  70
    32
  0
VERTEX
  8
0
  5
80FF
 10
-132.493
 20
292.597
 30
-6.49702e-14
  70
    32
  0
VERTEX
  8
0
  5
8100
 10
-132.493
 20
292.601
 30
-6.49717e-14
  70
    32
  0
VERTEX
  8
0
  5
8101
 10
-132.493
 20
292.604
 30
-6.49732e-14
  70
    32
  0
VERTEX
  8
0
  5
8102
 10
-132.493
 20
292.608
 30
-6.49746e-14
  70
    32
  0
VERTEX
  8
0
  5
8103
 10
-132.492
 20
292.612
 30
-6.49760e-14
  70
    32
  0
VERTEX
  8
0
  5
8104
 10
-132.492
 20
292.616
 30
-6.49774e-14
  70
    32
  0
VERTEX
  8
0
  5
8105
 10
-132.492
 20
292.620
 30
-6.49787e-14
  70
    32
  0
VERTEX
  8
0
  5
8106
 10
-132.492
 20
292.624
 30
-6.49801e-14
  70
    32
  0
VERTEX
  8
0
  5
8107
 10
-132.492
 20
292.628
 30
-6.49813e-14
  70
    32
  0
VERTEX
  8
0
  5
8108
 10
-132.492
 20
292.632
 30
-6.49826e-14
  70
    32
  0
VERTEX
  8
0
  5
8109
 10
-132.492
 20
292.636
 30
-6.49838e-14
  70
    32
  0
VERTEX
  8
0
  5
810A
 10
-132.492
 20
292.640
 30
-6.49850e-14
  70
    32
  0
VERTEX
  8
0
  5
810B
 10
-132.492
 20
292.644
 30
-6.49862e-14
  70
    32
  0
VERTEX
  8
0
  5
810C
 10
-132.492
 20
292.649
 30
-6.49874e-14
  70
    32
  0
VERTEX
  8
0
  5
810D
 10
-132.492
 20
292.653
 30
-6.49885e-14
  70
    32
  0
VERTEX
  8
0
  5
810E
 10
-132.491
 20
292.657
 30
-6.49896e-14
  70
    32
  0
VERTEX
  8
0
  5
810F
 10
-132.491
 20
292.661
 30
-6.49908e-14
  70
    32
  0
VERTEX
  8
0
  5
8110
 10
-132.491
 20
292.665
 30
-6.49919e-14
  70
    32
  0
VERTEX
  8
0
  5
8111
 10
-132.491
 20
292.669
 30
-6.49929e-14
  70
    32
  0
VERTEX
  8
0
  5
8112
 10
-132.491
 20
292.674
 30
-6.49940e-14
  70
    32
  0
VERTEX
  8
0
  5
8113
 10
-132.491
 20
292.678
 30
-6.49951e-14
  70
    32
  0
VERTEX
  8
0
  5
8114
 10
-132.491
 20
292.682
 30
-6.49961e-14
  70
    32
  0
VERTEX
  8
0
  5
8115
 10
-132.491
 20
292.687
 30
-6.49972e-14
  70
    32
  0
VERTEX
  8
0
  5
8116
 10
-132.491
 20
292.691
 30
-6.49982e-14
  70
    32
  0
VERTEX
  8
0
  5
8117
 10
-132.491
 20
292.695
 30
-6.49993e-14
  70
    32
  0
VERTEX
  8
0
  5
8118
 10
-132.490
 20
292.700
 30
-6.50003e-14
  70
    32
  0
VERTEX
  8
0
  5
8119
 10
-132.490
 20
292.704
 30
-6.50014e-14
  70
    32
  0
VERTEX
  8
0
  5
811A
 10
-132.490
 20
292.709
 30
-6.50024e-14
  70
    32
  0
VERTEX
  8
0
  5
811B
 10
-132.490
 20
292.713
 30
-6.50035e-14
  70
    32
  0
VERTEX
  8
0
  5
811C
 10
-132.490
 20
292.718
 30
-6.50045e-14
  70
    32
  0
VERTEX
  8
0
  5
811D
 10
-132.490
 20
292.722
 30
-6.50056e-14
  70
    32
  0
VERTEX
  8
0
  5
811E
 10
-132.490
 20
292.727
 30
-6.50067e-14
  70
    32
  0
VERTEX
  8
0
  5
811F
 10
-132.490
 20
292.731
 30
-6.50077e-14
  70
    32
  0
VERTEX
  8
0
  5
8120
 10
-132.490
 20
292.736
 30
-6.50088e-14
  70
    32
  0
VERTEX
  8
0
  5
8121
 10
-132.490
 20
292.740
 30
-6.50099e-14
  70
    32
  0
VERTEX
  8
0
  5
8122
 10
-132.489
 20
292.745
 30
-6.50111e-14
  70
    32
  0
VERTEX
  8
0
  5
8123
 10
-132.489
 20
292.750
 30
-6.50122e-14
  70
    32
  0
VERTEX
  8
0
  5
8124
 10
-132.489
 20
292.754
 30
-6.50134e-14
  70
    32
  0
VERTEX
  8
0
  5
8125
 10
-132.489
 20
292.759
 30
-6.50145e-14
  70
    32
  0
VERTEX
  8
0
  5
8126
 10
-132.489
 20
292.764
 30
-6.50157e-14
  70
    32
  0
VERTEX
  8
0
  5
8127
 10
-132.489
 20
292.768
 30
-6.50169e-14
  70
    32
  0
VERTEX
  8
0
  5
8128
 10
-132.489
 20
292.773
 30
-6.50182e-14
  70
    32
  0
VERTEX
  8
0
  5
8129
 10
-132.489
 20
292.778
 30
-6.50195e-14
  70
    32
  0
VERTEX
  8
0
  5
812A
 10
-132.489
 20
292.782
 30
-6.50208e-14
  70
    32
  0
VERTEX
  8
0
  5
812B
 10
-132.489
 20
292.787
 30
-6.50221e-14
  70
    32
  0
VERTEX
  8
0
  5
812C
 10
-132.488
 20
292.792
 30
-6.50235e-14
  70
    32
  0
VERTEX
  8
0
  5
812D
 10
-132.488
 20
292.797
 30
-6.50248e-14
  70
    32
  0
VERTEX
  8
0
  5
812E
 10
-132.488
 20
292.802
 30
-6.50263e-14
  70
    32
  0
VERTEX
  8
0
  5
812F
 10
-132.488
 20
292.807
 30
-6.50277e-14
  70
    32
  0
VERTEX
  8
0
  5
8130
 10
-132.488
 20
292.812
 30
-6.50292e-14
  70
    32
  0
VERTEX
  8
0
  5
8131
 10
-132.488
 20
292.816
 30
-6.50308e-14
  70
    32
  0
VERTEX
  8
0
  5
8132
 10
-132.488
 20
292.821
 30
-6.50324e-14
  70
    32
  0
VERTEX
  8
0
  5
8133
 10
-132.488
 20
292.826
 30
-6.50340e-14
  70
    32
  0
VERTEX
  8
0
  5
8134
 10
-132.488
 20
292.831
 30
-6.50357e-14
  70
    32
  0
VERTEX
  8
0
  5
8135
 10
-132.488
 20
292.836
 30
-6.50374e-14
  70
    32
  0
VERTEX
  8
0
  5
8136
 10
-132.487
 20
292.841
 30
-6.50391e-14
  70
    32
  0
VERTEX
  8
0
  5
8137
 10
-132.487
 20
292.846
 30
-6.50409e-14
  70
    32
  0
VERTEX
  8
0
  5
8138
 10
-132.487
 20
292.851
 30
-6.50428e-14
  70
    32
  0
VERTEX
  8
0
  5
8139
 10
-132.487
 20
292.857
 30
-6.50447e-14
  70
    32
  0
VERTEX
  8
0
  5
813A
 10
-132.487
 20
292.862
 30
-6.50467e-14
  70
    32
  0
VERTEX
  8
0
  5
813B
 10
-132.487
 20
292.867
 30
-6.50487e-14
  70
    32
  0
VERTEX
  8
0
  5
813C
 10
-132.487
 20
292.872
 30
-6.50508e-14
  70
    32
  0
VERTEX
  8
0
  5
813D
 10
-132.487
 20
292.877
 30
-6.50528e-14
  70
    32
  0
VERTEX
  8
0
  5
813E
 10
-132.487
 20
292.882
 30
-6.50548e-14
  70
    32
  0
VERTEX
  8
0
  5
813F
 10
-132.486
 20
292.887
 30
-6.50567e-14
  70
    32
  0
VERTEX
  8
0
  5
8140
 10
-132.486
 20
292.893
 30
-6.50586e-14
  70
    32
  0
VERTEX
  8
0
  5
8141
 10
-132.486
 20
292.898
 30
-6.50604e-14
  70
    32
  0
VERTEX
  8
0
  5
8142
 10
-132.486
 20
292.903
 30
-6.50622e-14
  70
    32
  0
VERTEX
  8
0
  5
8143
 10
-132.486
 20
292.908
 30
-6.50639e-14
  70
    32
  0
VERTEX
  8
0
  5
8144
 10
-132.486
 20
292.914
 30
-6.50656e-14
  70
    32
  0
VERTEX
  8
0
  5
8145
 10
-132.486
 20
292.919
 30
-6.50672e-14
  70
    32
  0
VERTEX
  8
0
  5
8146
 10
-132.486
 20
292.924
 30
-6.50688e-14
  70
    32
  0
VERTEX
  8
0
  5
8147
 10
-132.486
 20
292.930
 30
-6.50704e-14
  70
    32
  0
VERTEX
  8
0
  5
8148
 10
-132.485
 20
292.935
 30
-6.50719e-14
  70
    32
  0
VERTEX
  8
0
  5
8149
 10
-132.485
 20
292.940
 30
-6.50734e-14
  70
    32
  0
VERTEX
  8
0
  5
814A
 10
-132.485
 20
292.946
 30
-6.50748e-14
  70
    32
  0
VERTEX
  8
0
  5
814B
 10
-132.485
 20
292.951
 30
-6.50762e-14
  70
    32
  0
VERTEX
  8
0
  5
814C
 10
-132.485
 20
292.956
 30
-6.50776e-14
  70
    32
  0
VERTEX
  8
0
  5
814D
 10
-132.485
 20
292.962
 30
-6.50789e-14
  70
    32
  0
VERTEX
  8
0
  5
814E
 10
-132.485
 20
292.967
 30
-6.50802e-14
  70
    32
  0
VERTEX
  8
0
  5
814F
 10
-132.485
 20
292.973
 30
-6.50815e-14
  70
    32
  0
VERTEX
  8
0
  5
8150
 10
-132.485
 20
292.978
 30
-6.50827e-14
  70
    32
  0
VERTEX
  8
0
  5
8151
 10
-132.484
 20
292.984
 30
-6.50840e-14
  70
    32
  0
VERTEX
  8
0
  5
8152
 10
-132.484
 20
292.989
 30
-6.50852e-14
  70
    32
  0
VERTEX
  8
0
  5
8153
 10
-132.484
 20
292.995
 30
-6.50864e-14
  70
    32
  0
VERTEX
  8
0
  5
8154
 10
-132.484
 20
293.000
 30
-6.50875e-14
  70
    32
  0
VERTEX
  8
0
  5
8155
 10
-132.484
 20
293.006
 30
-6.50887e-14
  70
    32
  0
VERTEX
  8
0
  5
8156
 10
-132.484
 20
293.012
 30
-6.50898e-14
  70
    32
  0
VERTEX
  8
0
  5
8157
 10
-132.484
 20
293.017
 30
-6.50909e-14
  70
    32
  0
VERTEX
  8
0
  5
8158
 10
-132.484
 20
293.023
 30
-6.50920e-14
  70
    32
  0
VERTEX
  8
0
  5
8159
 10
-132.484
 20
293.029
 30
-6.50931e-14
  70
    32
  0
VERTEX
  8
0
  5
815A
 10
-132.483
 20
293.034
 30
-6.50941e-14
  70
    32
  0
VERTEX
  8
0
  5
815B
 10
-132.483
 20
293.040
 30
-6.50952e-14
  70
    32
  0
VERTEX
  8
0
  5
815C
 10
-132.483
 20
293.046
 30
-6.50963e-14
  70
    32
  0
VERTEX
  8
0
  5
815D
 10
-132.483
 20
293.051
 30
-6.50973e-14
  70
    32
  0
VERTEX
  8
0
  5
815E
 10
-132.483
 20
293.057
 30
-6.50984e-14
  70
    32
  0
VERTEX
  8
0
  5
815F
 10
-132.483
 20
293.063
 30
-6.50994e-14
  70
    32
  0
VERTEX
  8
0
  5
8160
 10
-132.483
 20
293.068
 30
-6.51005e-14
  70
    32
  0
VERTEX
  8
0
  5
8161
 10
-132.483
 20
293.074
 30
-6.51015e-14
  70
    32
  0
VERTEX
  8
0
  5
8162
 10
-132.483
 20
293.080
 30
-6.51025e-14
  70
    32
  0
VERTEX
  8
0
  5
8163
 10
-132.482
 20
293.086
 30
-6.51036e-14
  70
    32
  0
VERTEX
  8
0
  5
8164
 10
-132.482
 20
293.092
 30
-6.51047e-14
  70
    32
  0
VERTEX
  8
0
  5
8165
 10
-132.482
 20
293.097
 30
-6.51057e-14
  70
    32
  0
VERTEX
  8
0
  5
8166
 10
-132.482
 20
293.103
 30
-6.51068e-14
  70
    32
  0
VERTEX
  8
0
  5
8167
 10
-132.482
 20
293.109
 30
-6.51079e-14
  70
    32
  0
VERTEX
  8
0
  5
8168
 10
-132.482
 20
293.115
 30
-6.51090e-14
  70
    32
  0
VERTEX
  8
0
  5
8169
 10
-132.482
 20
293.121
 30
-6.51101e-14
  70
    32
  0
VERTEX
  8
0
  5
816A
 10
-132.482
 20
293.127
 30
-6.51112e-14
  70
    32
  0
VERTEX
  8
0
  5
816B
 10
-132.482
 20
293.133
 30
-6.51123e-14
  70
    32
  0
VERTEX
  8
0
  5
816C
 10
-132.481
 20
293.139
 30
-6.51135e-14
  70
    32
  0
VERTEX
  8
0
  5
816D
 10
-132.481
 20
293.144
 30
-6.51147e-14
  70
    32
  0
VERTEX
  8
0
  5
816E
 10
-132.481
 20
293.150
 30
-6.51159e-14
  70
    32
  0
VERTEX
  8
0
  5
816F
 10
-132.481
 20
293.156
 30
-6.51171e-14
  70
    32
  0
VERTEX
  8
0
  5
8170
 10
-132.481
 20
293.162
 30
-6.51183e-14
  70
    32
  0
VERTEX
  8
0
  5
8171
 10
-132.481
 20
293.168
 30
-6.51196e-14
  70
    32
  0
VERTEX
  8
0
  5
8172
 10
-132.481
 20
293.174
 30
-6.51209e-14
  70
    32
  0
VERTEX
  8
0
  5
8173
 10
-132.481
 20
293.180
 30
-6.51223e-14
  70
    32
  0
VERTEX
  8
0
  5
8174
 10
-132.481
 20
293.186
 30
-6.51236e-14
  70
    32
  0
VERTEX
  8
0
  5
8175
 10
-132.480
 20
293.192
 30
-6.51250e-14
  70
    32
  0
VERTEX
  8
0
  5
8176
 10
-132.480
 20
293.198
 30
-6.51265e-14
  70
    32
  0
VERTEX
  8
0
  5
8177
 10
-132.480
 20
293.204
 30
-6.51279e-14
  70
    32
  0
VERTEX
  8
0
  5
8178
 10
-132.480
 20
293.211
 30
-6.51294e-14
  70
    32
  0
VERTEX
  8
0
  5
8179
 10
-132.480
 20
293.217
 30
-6.51310e-14
  70
    32
  0
VERTEX
  8
0
  5
817A
 10
-132.480
 20
293.223
 30
-6.51326e-14
  70
    32
  0
VERTEX
  8
0
  5
817B
 10
-132.480
 20
293.229
 30
-6.51342e-14
  70
    32
  0
VERTEX
  8
0
  5
817C
 10
-132.480
 20
293.235
 30
-6.51359e-14
  70
    32
  0
VERTEX
  8
0
  5
817D
 10
-132.480
 20
293.241
 30
-6.51376e-14
  70
    32
  0
VERTEX
  8
0
  5
817E
 10
-132.479
 20
293.247
 30
-6.51394e-14
  70
    32
  0
VERTEX
  8
0
  5
817F
 10
-132.479
 20
293.253
 30
-6.51412e-14
  70
    32
  0
VERTEX
  8
0
  5
8180
 10
-132.479
 20
293.260
 30
-6.51430e-14
  70
    32
  0
VERTEX
  8
0
  5
8181
 10
-132.479
 20
293.266
 30
-6.51450e-14
  70
    32
  0
VERTEX
  8
0
  5
8182
 10
-132.479
 20
293.272
 30
-6.51469e-14
  70
    32
  0
VERTEX
  8
0
  5
8183
 10
-132.479
 20
293.278
 30
-6.51490e-14
  70
    32
  0
VERTEX
  8
0
  5
8184
 10
-132.479
 20
293.284
 30
-6.51510e-14
  70
    32
  0
VERTEX
  8
0
  5
8185
 10
-132.479
 20
293.291
 30
-6.51531e-14
  70
    32
  0
VERTEX
  8
0
  5
8186
 10
-132.479
 20
293.297
 30
-6.51550e-14
  70
    32
  0
VERTEX
  8
0
  5
8187
 10
-132.478
 20
293.303
 30
-6.51570e-14
  70
    32
  0
VERTEX
  8
0
  5
8188
 10
-132.478
 20
293.309
 30
-6.51588e-14
  70
    32
  0
VERTEX
  8
0
  5
8189
 10
-132.478
 20
293.316
 30
-6.51606e-14
  70
    32
  0
VERTEX
  8
0
  5
818A
 10
-132.478
 20
293.322
 30
-6.51624e-14
  70
    32
  0
VERTEX
  8
0
  5
818B
 10
-132.478
 20
293.328
 30
-6.51641e-14
  70
    32
  0
VERTEX
  8
0
  5
818C
 10
-132.478
 20
293.335
 30
-6.51658e-14
  70
    32
  0
VERTEX
  8
0
  5
818D
 10
-132.478
 20
293.341
 30
-6.51674e-14
  70
    32
  0
VERTEX
  8
0
  5
818E
 10
-132.478
 20
293.348
 30
-6.51690e-14
  70
    32
  0
VERTEX
  8
0
  5
818F
 10
-132.478
 20
293.354
 30
-6.51706e-14
  70
    32
  0
VERTEX
  8
0
  5
8190
 10
-132.477
 20
293.361
 30
-6.51721e-14
  70
    32
  0
VERTEX
  8
0
  5
8191
 10
-132.477
 20
293.367
 30
-6.51735e-14
  70
    32
  0
VERTEX
  8
0
  5
8192
 10
-132.477
 20
293.374
 30
-6.51750e-14
  70
    32
  0
VERTEX
  8
0
  5
8193
 10
-132.477
 20
293.380
 30
-6.51764e-14
  70
    32
  0
VERTEX
  8
0
  5
8194
 10
-132.477
 20
293.387
 30
-6.51777e-14
  70
    32
  0
VERTEX
  8
0
  5
8195
 10
-132.477
 20
293.393
 30
-6.51791e-14
  70
    32
  0
VERTEX
  8
0
  5
8196
 10
-132.477
 20
293.400
 30
-6.51804e-14
  70
    32
  0
VERTEX
  8
0
  5
8197
 10
-132.477
 20
293.406
 30
-6.51817e-14
  70
    32
  0
VERTEX
  8
0
  5
8198
 10
-132.477
 20
293.413
 30
-6.51829e-14
  70
    32
  0
VERTEX
  8
0
  5
8199
 10
-132.476
 20
293.420
 30
-6.51841e-14
  70
    32
  0
VERTEX
  8
0
  5
819A
 10
-132.476
 20
293.426
 30
-6.51853e-14
  70
    32
  0
VERTEX
  8
0
  5
819B
 10
-132.476
 20
293.433
 30
-6.51865e-14
  70
    32
  0
VERTEX
  8
0
  5
819C
 10
-132.476
 20
293.440
 30
-6.51877e-14
  70
    32
  0
VERTEX
  8
0
  5
819D
 10
-132.476
 20
293.447
 30
-6.51888e-14
  70
    32
  0
VERTEX
  8
0
  5
819E
 10
-132.476
 20
293.453
 30
-6.51899e-14
  70
    32
  0
VERTEX
  8
0
  5
819F
 10
-132.476
 20
293.460
 30
-6.51910e-14
  70
    32
  0
VERTEX
  8
0
  5
81A0
 10
-132.476
 20
293.467
 30
-6.51921e-14
  70
    32
  0
VERTEX
  8
0
  5
81A1
 10
-132.476
 20
293.474
 30
-6.51932e-14
  70
    32
  0
VERTEX
  8
0
  5
81A2
 10
-132.475
 20
293.481
 30
-6.51943e-14
  70
    32
  0
VERTEX
  8
0
  5
81A3
 10
-132.475
 20
293.487
 30
-6.51953e-14
  70
    32
  0
VERTEX
  8
0
  5
81A4
 10
-132.475
 20
293.494
 30
-6.51964e-14
  70
    32
  0
VERTEX
  8
0
  5
81A5
 10
-132.475
 20
293.501
 30
-6.51975e-14
  70
    32
  0
VERTEX
  8
0
  5
81A6
 10
-132.475
 20
293.508
 30
-6.51985e-14
  70
    32
  0
VERTEX
  8
0
  5
81A7
 10
-132.475
 20
293.515
 30
-6.51995e-14
  70
    32
  0
VERTEX
  8
0
  5
81A8
 10
-132.475
 20
293.522
 30
-6.52006e-14
  70
    32
  0
VERTEX
  8
0
  5
81A9
 10
-132.475
 20
293.529
 30
-6.52016e-14
  70
    32
  0
VERTEX
  8
0
  5
81AA
 10
-132.475
 20
293.536
 30
-6.52027e-14
  70
    32
  0
VERTEX
  8
0
  5
81AB
 10
-132.474
 20
293.543
 30
-6.52037e-14
  70
    32
  0
VERTEX
  8
0
  5
81AC
 10
-132.474
 20
293.550
 30
-6.52048e-14
  70
    32
  0
VERTEX
  8
0
  5
81AD
 10
-132.474
 20
293.557
 30
-6.52059e-14
  70
    32
  0
VERTEX
  8
0
  5
81AE
 10
-132.474
 20
293.564
 30
-6.52069e-14
  70
    32
  0
VERTEX
  8
0
  5
81AF
 10
-132.474
 20
293.571
 30
-6.52080e-14
  70
    32
  0
VERTEX
  8
0
  5
81B0
 10
-132.474
 20
293.579
 30
-6.52091e-14
  70
    32
  0
VERTEX
  8
0
  5
81B1
 10
-132.474
 20
293.586
 30
-6.52102e-14
  70
    32
  0
VERTEX
  8
0
  5
81B2
 10
-132.474
 20
293.593
 30
-6.52113e-14
  70
    32
  0
VERTEX
  8
0
  5
81B3
 10
-132.474
 20
293.600
 30
-6.52125e-14
  70
    32
  0
VERTEX
  8
0
  5
81B4
 10
-132.473
 20
293.607
 30
-6.52136e-14
  70
    32
  0
VERTEX
  8
0
  5
81B5
 10
-132.473
 20
293.614
 30
-6.52148e-14
  70
    32
  0
VERTEX
  8
0
  5
81B6
 10
-132.473
 20
293.622
 30
-6.52160e-14
  70
    32
  0
VERTEX
  8
0
  5
81B7
 10
-132.473
 20
293.629
 30
-6.52173e-14
  70
    32
  0
VERTEX
  8
0
  5
81B8
 10
-132.473
 20
293.636
 30
-6.52185e-14
  70
    32
  0
VERTEX
  8
0
  5
81B9
 10
-132.473
 20
293.644
 30
-6.52198e-14
  70
    32
  0
VERTEX
  8
0
  5
81BA
 10
-132.473
 20
293.651
 30
-6.52211e-14
  70
    32
  0
VERTEX
  8
0
  5
81BB
 10
-132.473
 20
293.658
 30
-6.52224e-14
  70
    32
  0
VERTEX
  8
0
  5
81BC
 10
-132.473
 20
293.666
 30
-6.52238e-14
  70
    32
  0
VERTEX
  8
0
  5
81BD
 10
-132.472
 20
293.673
 30
-6.52252e-14
  70
    32
  0
VERTEX
  8
0
  5
81BE
 10
-132.472
 20
293.680
 30
-6.52266e-14
  70
    32
  0
VERTEX
  8
0
  5
81BF
 10
-132.472
 20
293.688
 30
-6.52281e-14
  70
    32
  0
VERTEX
  8
0
  5
81C0
 10
-132.472
 20
293.695
 30
-6.52296e-14
  70
    32
  0
VERTEX
  8
0
  5
81C1
 10
-132.472
 20
293.703
 30
-6.52312e-14
  70
    32
  0
VERTEX
  8
0
  5
81C2
 10
-132.472
 20
293.710
 30
-6.52328e-14
  70
    32
  0
VERTEX
  8
0
  5
81C3
 10
-132.472
 20
293.718
 30
-6.52344e-14
  70
    32
  0
VERTEX
  8
0
  5
81C4
 10
-132.472
 20
293.725
 30
-6.52361e-14
  70
    32
  0
VERTEX
  8
0
  5
81C5
 10
-132.472
 20
293.733
 30
-6.52378e-14
  70
    32
  0
VERTEX
  8
0
  5
81C6
 10
-132.471
 20
293.740
 30
-6.52396e-14
  70
    32
  0
VERTEX
  8
0
  5
81C7
 10
-132.471
 20
293.748
 30
-6.52414e-14
  70
    32
  0
VERTEX
  8
0
  5
81C8
 10
-132.471
 20
293.755
 30
-6.52433e-14
  70
    32
  0
VERTEX
  8
0
  5
81C9
 10
-132.471
 20
293.763
 30
-6.52452e-14
  70
    32
  0
VERTEX
  8
0
  5
81CA
 10
-132.471
 20
293.770
 30
-6.52472e-14
  70
    32
  0
VERTEX
  8
0
  5
81CB
 10
-132.471
 20
293.778
 30
-6.52492e-14
  70
    32
  0
VERTEX
  8
0
  5
81CC
 10
-132.471
 20
293.786
 30
-6.52513e-14
  70
    32
  0
VERTEX
  8
0
  5
81CD
 10
-132.471
 20
293.793
 30
-6.52533e-14
  70
    32
  0
VERTEX
  8
0
  5
81CE
 10
-132.471
 20
293.801
 30
-6.52553e-14
  70
    32
  0
VERTEX
  8
0
  5
81CF
 10
-132.470
 20
293.809
 30
-6.52572e-14
  70
    32
  0
VERTEX
  8
0
  5
81D0
 10
-132.470
 20
293.816
 30
-6.52591e-14
  70
    32
  0
VERTEX
  8
0
  5
81D1
 10
-132.470
 20
293.824
 30
-6.52609e-14
  70
    32
  0
VERTEX
  8
0
  5
81D2
 10
-132.470
 20
293.832
 30
-6.52626e-14
  70
    32
  0
VERTEX
  8
0
  5
81D3
 10
-132.470
 20
293.840
 30
-6.52643e-14
  70
    32
  0
VERTEX
  8
0
  5
81D4
 10
-132.470
 20
293.847
 30
-6.52660e-14
  70
    32
  0
VERTEX
  8
0
  5
81D5
 10
-132.470
 20
293.855
 30
-6.52676e-14
  70
    32
  0
VERTEX
  8
0
  5
81D6
 10
-132.470
 20
293.863
 30
-6.52692e-14
  70
    32
  0
VERTEX
  8
0
  5
81D7
 10
-132.470
 20
293.871
 30
-6.52708e-14
  70
    32
  0
VERTEX
  8
0
  5
81D8
 10
-132.469
 20
293.879
 30
-6.52723e-14
  70
    32
  0
VERTEX
  8
0
  5
81D9
 10
-132.469
 20
293.886
 30
-6.52737e-14
  70
    32
  0
VERTEX
  8
0
  5
81DA
 10
-132.469
 20
293.894
 30
-6.52752e-14
  70
    32
  0
VERTEX
  8
0
  5
81DB
 10
-132.469
 20
293.902
 30
-6.52765e-14
  70
    32
  0
VERTEX
  8
0
  5
81DC
 10
-132.469
 20
293.910
 30
-6.52779e-14
  70
    32
  0
VERTEX
  8
0
  5
81DD
 10
-132.469
 20
293.918
 30
-6.52792e-14
  70
    32
  0
VERTEX
  8
0
  5
81DE
 10
-132.469
 20
293.926
 30
-6.52805e-14
  70
    32
  0
VERTEX
  8
0
  5
81DF
 10
-132.469
 20
293.934
 30
-6.52818e-14
  70
    32
  0
VERTEX
  8
0
  5
81E0
 10
-132.469
 20
293.942
 30
-6.52831e-14
  70
    32
  0
VERTEX
  8
0
  5
81E1
 10
-132.469
 20
293.950
 30
-6.52843e-14
  70
    32
  0
VERTEX
  8
0
  5
81E2
 10
-132.468
 20
293.958
 30
-6.52855e-14
  70
    32
  0
VERTEX
  8
0
  5
81E3
 10
-132.468
 20
293.966
 30
-6.52866e-14
  70
    32
  0
VERTEX
  8
0
  5
81E4
 10
-132.468
 20
293.974
 30
-6.52878e-14
  70
    32
  0
VERTEX
  8
0
  5
81E5
 10
-132.468
 20
293.982
 30
-6.52889e-14
  70
    32
  0
VERTEX
  8
0
  5
81E6
 10
-132.468
 20
293.990
 30
-6.52901e-14
  70
    32
  0
VERTEX
  8
0
  5
81E7
 10
-132.468
 20
293.998
 30
-6.52912e-14
  70
    32
  0
VERTEX
  8
0
  5
81E8
 10
-132.468
 20
294.006
 30
-6.52923e-14
  70
    32
  0
VERTEX
  8
0
  5
81E9
 10
-132.468
 20
294.014
 30
-6.52933e-14
  70
    32
  0
VERTEX
  8
0
  5
81EA
 10
-132.468
 20
294.022
 30
-6.52944e-14
  70
    32
  0
VERTEX
  8
0
  5
81EB
 10
-132.468
 20
294.030
 30
-6.52955e-14
  70
    32
  0
VERTEX
  8
0
  5
81EC
 10
-132.467
 20
294.039
 30
-6.52965e-14
  70
    32
  0
VERTEX
  8
0
  5
81ED
 10
-132.467
 20
294.047
 30
-6.52976e-14
  70
    32
  0
VERTEX
  8
0
  5
81EE
 10
-132.467
 20
294.055
 30
-6.52986e-14
  70
    32
  0
VERTEX
  8
0
  5
81EF
 10
-132.467
 20
294.063
 30
-6.52997e-14
  70
    32
  0
VERTEX
  8
0
  5
81F0
 10
-132.467
 20
294.071
 30
-6.53007e-14
  70
    32
  0
VERTEX
  8
0
  5
81F1
 10
-132.467
 20
294.079
 30
-6.53018e-14
  70
    32
  0
VERTEX
  8
0
  5
81F2
 10
-132.467
 20
294.088
 30
-6.53028e-14
  70
    32
  0
VERTEX
  8
0
  5
81F3
 10
-132.467
 20
294.096
 30
-6.53039e-14
  70
    32
  0
VERTEX
  8
0
  5
81F4
 10
-132.467
 20
294.104
 30
-6.53049e-14
  70
    32
  0
VERTEX
  8
0
  5
81F5
 10
-132.467
 20
294.112
 30
-6.53060e-14
  70
    32
  0
VERTEX
  8
0
  5
81F6
 10
-132.466
 20
294.121
 30
-6.53071e-14
  70
    32
  0
VERTEX
  8
0
  5
81F7
 10
-132.466
 20
294.129
 30
-6.53081e-14
  70
    32
  0
VERTEX
  8
0
  5
81F8
 10
-132.466
 20
294.137
 30
-6.53092e-14
  70
    32
  0
VERTEX
  8
0
  5
81F9
 10
-132.466
 20
294.146
 30
-6.53104e-14
  70
    32
  0
VERTEX
  8
0
  5
81FA
 10
-132.466
 20
294.154
 30
-6.53115e-14
  70
    32
  0
VERTEX
  8
0
  5
81FB
 10
-132.466
 20
294.162
 30
-6.53126e-14
  70
    32
  0
VERTEX
  8
0
  5
81FC
 10
-132.466
 20
294.171
 30
-6.53138e-14
  70
    32
  0
VERTEX
  8
0
  5
81FD
 10
-132.466
 20
294.179
 30
-6.53150e-14
  70
    32
  0
VERTEX
  8
0
  5
81FE
 10
-132.466
 20
294.187
 30
-6.53162e-14
  70
    32
  0
VERTEX
  8
0
  5
81FF
 10
-132.466
 20
294.196
 30
-6.53174e-14
  70
    32
  0
VERTEX
  8
0
  5
8200
 10
-132.466
 20
294.204
 30
-6.53187e-14
  70
    32
  0
VERTEX
  8
0
  5
8201
 10
-132.465
 20
294.213
 30
-6.53199e-14
  70
    32
  0
VERTEX
  8
0
  5
8202
 10
-132.465
 20
294.221
 30
-6.53213e-14
  70
    32
  0
VERTEX
  8
0
  5
8203
 10
-132.465
 20
294.229
 30
-6.53226e-14
  70
    32
  0
VERTEX
  8
0
  5
8204
 10
-132.465
 20
294.238
 30
-6.53240e-14
  70
    32
  0
VERTEX
  8
0
  5
8205
 10
-132.465
 20
294.246
 30
-6.53254e-14
  70
    32
  0
VERTEX
  8
0
  5
8206
 10
-132.465
 20
294.255
 30
-6.53268e-14
  70
    32
  0
VERTEX
  8
0
  5
8207
 10
-132.465
 20
294.263
 30
-6.53283e-14
  70
    32
  0
VERTEX
  8
0
  5
8208
 10
-132.465
 20
294.272
 30
-6.53298e-14
  70
    32
  0
VERTEX
  8
0
  5
8209
 10
-132.465
 20
294.280
 30
-6.53314e-14
  70
    32
  0
VERTEX
  8
0
  5
820A
 10
-132.465
 20
294.289
 30
-6.53330e-14
  70
    32
  0
VERTEX
  8
0
  5
820B
 10
-132.465
 20
294.297
 30
-6.53346e-14
  70
    32
  0
VERTEX
  8
0
  5
820C
 10
-132.464
 20
294.306
 30
-6.53363e-14
  70
    32
  0
VERTEX
  8
0
  5
820D
 10
-132.464
 20
294.314
 30
-6.53380e-14
  70
    32
  0
VERTEX
  8
0
  5
820E
 10
-132.464
 20
294.323
 30
-6.53398e-14
  70
    32
  0
VERTEX
  8
0
  5
820F
 10
-132.464
 20
294.331
 30
-6.53416e-14
  70
    32
  0
VERTEX
  8
0
  5
8210
 10
-132.464
 20
294.340
 30
-6.53435e-14
  70
    32
  0
VERTEX
  8
0
  5
8211
 10
-132.464
 20
294.349
 30
-6.53454e-14
  70
    32
  0
VERTEX
  8
0
  5
8212
 10
-132.464
 20
294.357
 30
-6.53474e-14
  70
    32
  0
VERTEX
  8
0
  5
8213
 10
-132.464
 20
294.366
 30
-6.53495e-14
  70
    32
  0
VERTEX
  8
0
  5
8214
 10
-132.464
 20
294.374
 30
-6.53516e-14
  70
    32
  0
VERTEX
  8
0
  5
8215
 10
-132.464
 20
294.383
 30
-6.53537e-14
  70
    32
  0
VERTEX
  8
0
  5
8216
 10
-132.464
 20
294.392
 30
-6.53560e-14
  70
    32
  0
VERTEX
  8
0
  5
8217
 10
-132.464
 20
294.400
 30
-6.53582e-14
  70
    32
  0
VERTEX
  8
0
  5
8218
 10
-132.463
 20
294.409
 30
-6.53605e-14
  70
    32
  0
VERTEX
  8
0
  5
8219
 10
-132.463
 20
294.418
 30
-6.53629e-14
  70
    32
  0
VERTEX
  8
0
  5
821A
 10
-132.463
 20
294.426
 30
-6.53653e-14
  70
    32
  0
VERTEX
  8
0
  5
821B
 10
-132.463
 20
294.435
 30
-6.53678e-14
  70
    32
  0
VERTEX
  8
0
  5
821C
 10
-132.463
 20
294.444
 30
-6.53703e-14
  70
    32
  0
VERTEX
  8
0
  5
821D
 10
-132.463
 20
294.452
 30
-6.53729e-14
  70
    32
  0
VERTEX
  8
0
  5
821E
 10
-132.463
 20
294.461
 30
-6.53755e-14
  70
    32
  0
VERTEX
  8
0
  5
821F
 10
-132.463
 20
294.470
 30
-6.53781e-14
  70
    32
  0
VERTEX
  8
0
  5
8220
 10
-132.463
 20
294.479
 30
-6.53808e-14
  70
    32
  0
VERTEX
  8
0
  5
8221
 10
-132.463
 20
294.487
 30
-6.53835e-14
  70
    32
  0
VERTEX
  8
0
  5
8222
 10
-132.463
 20
294.496
 30
-6.53862e-14
  70
    32
  0
VERTEX
  8
0
  5
8223
 10
-132.463
 20
294.505
 30
-6.53890e-14
  70
    32
  0
VERTEX
  8
0
  5
8224
 10
-132.463
 20
294.514
 30
-6.53918e-14
  70
    32
  0
VERTEX
  8
0
  5
8225
 10
-132.462
 20
294.522
 30
-6.53947e-14
  70
    32
  0
VERTEX
  8
0
  5
8226
 10
-132.462
 20
294.531
 30
-6.53976e-14
  70
    32
  0
VERTEX
  8
0
  5
8227
 10
-132.462
 20
294.540
 30
-6.54005e-14
  70
    32
  0
VERTEX
  8
0
  5
8228
 10
-132.462
 20
294.549
 30
-6.54034e-14
  70
    32
  0
VERTEX
  8
0
  5
8229
 10
-132.462
 20
294.558
 30
-6.54064e-14
  70
    32
  0
VERTEX
  8
0
  5
822A
 10
-132.462
 20
294.566
 30
-6.54093e-14
  70
    32
  0
VERTEX
  8
0
  5
822B
 10
-132.462
 20
294.575
 30
-6.54123e-14
  70
    32
  0
VERTEX
  8
0
  5
822C
 10
-132.462
 20
294.584
 30
-6.54154e-14
  70
    32
  0
VERTEX
  8
0
  5
822D
 10
-132.462
 20
294.593
 30
-6.54184e-14
  70
    32
  0
VERTEX
  8
0
  5
822E
 10
-132.462
 20
294.602
 30
-6.54214e-14
  70
    32
  0
VERTEX
  8
0
  5
822F
 10
-132.462
 20
294.610
 30
-6.54245e-14
  70
    32
  0
VERTEX
  8
0
  5
8230
 10
-132.462
 20
294.619
 30
-6.54276e-14
  70
    32
  0
VERTEX
  8
0
  5
8231
 10
-132.462
 20
294.628
 30
-6.54307e-14
  70
    32
  0
VERTEX
  8
0
  5
8232
 10
-132.462
 20
294.637
 30
-6.54338e-14
  70
    32
  0
VERTEX
  8
0
  5
8233
 10
-132.461
 20
294.646
 30
-6.54369e-14
  70
    32
  0
VERTEX
  8
0
  5
8234
 10
-132.461
 20
294.655
 30
-6.54400e-14
  70
    32
  0
VERTEX
  8
0
  5
8235
 10
-132.461
 20
294.664
 30
-6.54432e-14
  70
    32
  0
VERTEX
  8
0
  5
8236
 10
-132.461
 20
294.673
 30
-6.54463e-14
  70
    32
  0
VERTEX
  8
0
  5
8237
 10
-132.461
 20
294.681
 30
-6.54494e-14
  70
    32
  0
VERTEX
  8
0
  5
8238
 10
-132.461
 20
294.690
 30
-6.54525e-14
  70
    32
  0
VERTEX
  8
0
  5
8239
 10
-132.461
 20
294.699
 30
-6.54557e-14
  70
    32
  0
VERTEX
  8
0
  5
823A
 10
-132.461
 20
294.708
 30
-6.54588e-14
  70
    32
  0
VERTEX
  8
0
  5
823B
 10
-132.461
 20
294.717
 30
-6.54619e-14
  70
    32
  0
VERTEX
  8
0
  5
823C
 10
-132.461
 20
294.726
 30
-6.54650e-14
  70
    32
  0
VERTEX
  8
0
  5
823D
 10
-132.461
 20
294.735
 30
-6.54681e-14
  70
    32
  0
VERTEX
  8
0
  5
823E
 10
-132.461
 20
294.744
 30
-6.54712e-14
  70
    32
  0
VERTEX
  8
0
  5
823F
 10
-132.461
 20
294.753
 30
-6.54743e-14
  70
    32
  0
VERTEX
  8
0
  5
8240
 10
-132.461
 20
294.762
 30
-6.54774e-14
  70
    32
  0
VERTEX
  8
0
  5
8241
 10
-132.461
 20
294.771
 30
-6.54805e-14
  70
    32
  0
VERTEX
  8
0
  5
8242
 10
-132.461
 20
294.780
 30
-6.54835e-14
  70
    32
  0
VERTEX
  8
0
  5
8243
 10
-132.460
 20
294.789
 30
-6.54865e-14
  70
    32
  0
VERTEX
  8
0
  5
8244
 10
-132.460
 20
294.798
 30
-6.54895e-14
  70
    32
  0
VERTEX
  8
0
  5
8245
 10
-132.460
 20
294.807
 30
-6.54925e-14
  70
    32
  0
VERTEX
  8
0
  5
8246
 10
-132.460
 20
294.816
 30
-6.54955e-14
  70
    32
  0
VERTEX
  8
0
  5
8247
 10
-132.460
 20
294.825
 30
-6.54984e-14
  70
    32
  0
VERTEX
  8
0
  5
8248
 10
-132.460
 20
294.834
 30
-6.55014e-14
  70
    32
  0
VERTEX
  8
0
  5
8249
 10
-132.460
 20
294.843
 30
-6.55042e-14
  70
    32
  0
VERTEX
  8
0
  5
824A
 10
-132.460
 20
294.851
 30
-6.55071e-14
  70
    32
  0
VERTEX
  8
0
  5
824B
 10
-132.460
 20
294.860
 30
-6.55099e-14
  70
    32
  0
VERTEX
  8
0
  5
824C
 10
-132.460
 20
294.869
 30
-6.55127e-14
  70
    32
  0
VERTEX
  8
0
  5
824D
 10
-132.460
 20
294.878
 30
-6.55155e-14
  70
    32
  0
VERTEX
  8
0
  5
824E
 10
-132.460
 20
294.887
 30
-6.55182e-14
  70
    32
  0
VERTEX
  8
0
  5
824F
 10
-132.460
 20
294.896
 30
-6.55209e-14
  70
    32
  0
VERTEX
  8
0
  5
8250
 10
-132.460
 20
294.905
 30
-6.55236e-14
  70
    32
  0
VERTEX
  8
0
  5
8251
 10
-132.460
 20
294.914
 30
-6.55262e-14
  70
    32
  0
VERTEX
  8
0
  5
8252
 10
-132.460
 20
294.924
 30
-6.55287e-14
  70
    32
  0
VERTEX
  8
0
  5
8253
 10
-132.460
 20
294.933
 30
-6.55313e-14
  70
    32
  0
VERTEX
  8
0
  5
8254
 10
-132.460
 20
294.942
 30
-6.55338e-14
  70
    32
  0
VERTEX
  8
0
  5
8255
 10
-132.459
 20
294.951
 30
-6.55362e-14
  70
    32
  0
VERTEX
  8
0
  5
8256
 10
-132.459
 20
294.960
 30
-6.55386e-14
  70
    32
  0
VERTEX
  8
0
  5
8257
 10
-132.459
 20
294.969
 30
-6.55409e-14
  70
    32
  0
VERTEX
  8
0
  5
8258
 10
-132.459
 20
294.978
 30
-6.55432e-14
  70
    32
  0
VERTEX
  8
0
  5
8259
 10
-132.459
 20
294.987
 30
-6.55454e-14
  70
    32
  0
VERTEX
  8
0
  5
825A
 10
-132.459
 20
294.996
 30
-6.55476e-14
  70
    32
  0
VERTEX
  8
0
  5
825B
 10
-132.459
 20
295.005
 30
-6.55497e-14
  70
    32
  0
VERTEX
  8
0
  5
825C
 10
-132.459
 20
295.014
 30
-6.55518e-14
  70
    32
  0
VERTEX
  8
0
  5
825D
 10
-132.459
 20
295.023
 30
-6.55538e-14
  70
    32
  0
VERTEX
  8
0
  5
825E
 10
-132.459
 20
295.032
 30
-6.55558e-14
  70
    32
  0
VERTEX
  8
0
  5
825F
 10
-132.459
 20
295.041
 30
-6.55577e-14
  70
    32
  0
VERTEX
  8
0
  5
8260
 10
-132.459
 20
295.050
 30
-6.55595e-14
  70
    32
  0
VERTEX
  8
0
  5
8261
 10
-132.459
 20
295.059
 30
-6.55613e-14
  70
    32
  0
VERTEX
  8
0
  5
8262
 10
-132.459
 20
295.068
 30
-6.55630e-14
  70
    32
  0
VERTEX
  8
0
  5
8263
 10
-132.459
 20
295.077
 30
-6.55647e-14
  70
    32
  0
VERTEX
  8
0
  5
8264
 10
-132.459
 20
295.086
 30
-6.55663e-14
  70
    32
  0
VERTEX
  8
0
  5
8265
 10
-132.459
 20
295.095
 30
-6.55679e-14
  70
    32
  0
VERTEX
  8
0
  5
8266
 10
-132.459
 20
295.104
 30
-6.55694e-14
  70
    32
  0
VERTEX
  8
0
  5
8267
 10
-132.459
 20
295.113
 30
-6.55709e-14
  70
    32
  0
VERTEX
  8
0
  5
8268
 10
-132.459
 20
295.122
 30
-6.55723e-14
  70
    32
  0
VERTEX
  8
0
  5
8269
 10
-132.459
 20
295.131
 30
-6.55737e-14
  70
    32
  0
VERTEX
  8
0
  5
826A
 10
-132.459
 20
295.140
 30
-6.55751e-14
  70
    32
  0
VERTEX
  8
0
  5
826B
 10
-132.459
 20
295.149
 30
-6.55764e-14
  70
    32
  0
VERTEX
  8
0
  5
826C
 10
-132.459
 20
295.158
 30
-6.55776e-14
  70
    32
  0
VERTEX
  8
0
  5
826D
 10
-132.459
 20
295.167
 30
-6.55788e-14
  70
    32
  0
VERTEX
  8
0
  5
826E
 10
-132.458
 20
295.176
 30
-6.55800e-14
  70
    32
  0
VERTEX
  8
0
  5
826F
 10
-132.458
 20
295.185
 30
-6.55811e-14
  70
    32
  0
VERTEX
  8
0
  5
8270
 10
-132.458
 20
295.194
 30
-6.55821e-14
  70
    32
  0
VERTEX
  8
0
  5
8271
 10
-132.458
 20
295.203
 30
-6.55832e-14
  70
    32
  0
VERTEX
  8
0
  5
8272
 10
-132.458
 20
295.212
 30
-6.55842e-14
  70
    32
  0
VERTEX
  8
0
  5
8273
 10
-132.458
 20
295.221
 30
-6.55851e-14
  70
    32
  0
VERTEX
  8
0
  5
8274
 10
-132.458
 20
295.231
 30
-6.55860e-14
  70
    32
  0
VERTEX
  8
0
  5
8275
 10
-132.458
 20
295.240
 30
-6.55869e-14
  70
    32
  0
VERTEX
  8
0
  5
8276
 10
-132.458
 20
295.249
 30
-6.55877e-14
  70
    32
  0
VERTEX
  8
0
  5
8277
 10
-132.458
 20
295.258
 30
-6.55885e-14
  70
    32
  0
VERTEX
  8
0
  5
8278
 10
-132.458
 20
295.267
 30
-6.55893e-14
  70
    32
  0
VERTEX
  8
0
  5
8279
 10
-132.458
 20
295.276
 30
-6.55900e-14
  70
    32
  0
VERTEX
  8
0
  5
827A
 10
-132.458
 20
295.285
 30
-6.55907e-14
  70
    32
  0
VERTEX
  8
0
  5
827B
 10
-132.458
 20
295.294
 30
-6.55914e-14
  70
    32
  0
VERTEX
  8
0
  5
827C
 10
-132.458
 20
295.303
 30
-6.55920e-14
  70
    32
  0
VERTEX
  8
0
  5
827D
 10
-132.458
 20
295.312
 30
-6.55926e-14
  70
    32
  0
VERTEX
  8
0
  5
827E
 10
-132.458
 20
295.321
 30
-6.55932e-14
  70
    32
  0
VERTEX
  8
0
  5
827F
 10
-132.458
 20
295.330
 30
-6.55937e-14
  70
    32
  0
VERTEX
  8
0
  5
8280
 10
-132.458
 20
295.339
 30
-6.55942e-14
  70
    32
  0
VERTEX
  8
0
  5
8281
 10
-132.458
 20
295.348
 30
-6.55947e-14
  70
    32
  0
VERTEX
  8
0
  5
8282
 10
-132.458
 20
295.357
 30
-6.55952e-14
  70
    32
  0
VERTEX
  8
0
  5
8283
 10
-132.458
 20
295.366
 30
-6.55956e-14
  70
    32
  0
VERTEX
  8
0
  5
8284
 10
-132.458
 20
295.375
 30
-6.55960e-14
  70
    32
  0
VERTEX
  8
0
  5
8285
 10
-132.458
 20
295.383
 30
-6.55964e-14
  70
    32
  0
VERTEX
  8
0
  5
8286
 10
-132.458
 20
295.392
 30
-6.55967e-14
  70
    32
  0
VERTEX
  8
0
  5
8287
 10
-132.458
 20
295.401
 30
-6.55970e-14
  70
    32
  0
VERTEX
  8
0
  5
8288
 10
-132.458
 20
295.410
 30
-6.55973e-14
  70
    32
  0
VERTEX
  8
0
  5
8289
 10
-132.458
 20
295.419
 30
-6.55976e-14
  70
    32
  0
VERTEX
  8
0
  5
828A
 10
-132.458
 20
295.428
 30
-6.55979e-14
  70
    32
  0
VERTEX
  8
0
  5
828B
 10
-132.458
 20
295.437
 30
-6.55981e-14
  70
    32
  0
VERTEX
  8
0
  5
828C
 10
-132.458
 20
295.446
 30
-6.55984e-14
  70
    32
  0
VERTEX
  8
0
  5
828D
 10
-132.458
 20
295.455
 30
-6.55986e-14
  70
    32
  0
VERTEX
  8
0
  5
828E
 10
-132.458
 20
295.464
 30
-6.55988e-14
  70
    32
  0
VERTEX
  8
0
  5
828F
 10
-132.458
 20
295.473
 30
-6.55989e-14
  70
    32
  0
VERTEX
  8
0
  5
8290
 10
-132.458
 20
295.482
 30
-6.55991e-14
  70
    32
  0
VERTEX
  8
0
  5
8291
 10
-132.458
 20
295.491
 30
-6.55992e-14
  70
    32
  0
VERTEX
  8
0
  5
8292
 10
-132.458
 20
295.500
 30
-6.55993e-14
  70
    32
  0
VERTEX
  8
0
  5
8293
 10
-132.458
 20
295.509
 30
-6.55994e-14
  70
    32
  0
VERTEX
  8
0
  5
8294
 10
-132.458
 20
295.517
 30
-6.55995e-14
  70
    32
  0
VERTEX
  8
0
  5
8295
 10
-132.458
 20
295.526
 30
-6.55996e-14
  70
    32
  0
VERTEX
  8
0
  5
8296
 10
-132.458
 20
295.535
 30
-6.55997e-14
  70
    32
  0
VERTEX
  8
0
  5
8297
 10
-132.458
 20
295.544
 30
-6.55998e-14
  70
    32
  0
VERTEX
  8
0
  5
8298
 10
-132.458
 20
295.553
 30
-6.55998e-14
  70
    32
  0
VERTEX
  8
0
  5
8299
 10
-132.458
 20
295.562
 30
-6.55999e-14
  70
    32
  0
VERTEX
  8
0
  5
829A
 10
-132.458
 20
295.571
 30
-6.55999e-14
  70
    32
  0
VERTEX
  8
0
  5
829B
 10
-132.458
 20
295.580
 30
-6.55999e-14
  70
    32
  0
VERTEX
  8
0
  5
829C
 10
-132.458
 20
295.588
 30
-6.56000e-14
  70
    32
  0
VERTEX
  8
0
  5
829D
 10
-132.458
 20
295.597
 30
-6.56000e-14
  70
    32
  0
VERTEX
  8
0
  5
829E
 10
-132.458
 20
295.606
 30
-6.56000e-14
  70
    32
  0
VERTEX
  8
0
  5
829F
 10
-132.458
 20
295.615
 30
-6.56000e-14
  70
    32
  0
VERTEX
  8
0
  5
82A0
 10
-132.458
 20
295.624
 30
-6.56000e-14
  70
    32
  0
VERTEX
  8
0
  5
82A1
 10
-132.458
 20
295.632
 30
-6.56000e-14
  70
    32
  0
VERTEX
  8
0
  5
82A2
 10
-132.458
 20
295.641
 30
-6.56000e-14
  70
    32
  0
VERTEX
  8
0
  5
82A3
 10
-132.458
 20
295.650
 30
-6.56000e-14
  70
    32
  0
SEQEND
  8
0
  5
82A4
  0
LINE
  5
7920
  8
0
  6
VERDECKT2
 62
     1
 10
-136.5000000000013074
 20
299.0000000000003979
 30
-0.0000000000000664
 11
-132.5000000000013074
 21
299.0000000000003979
 31
-0.0000000000000664
210
0.0
220
1.0
230
-0.0000000000000002
  0
LINE
  5
7921
  8
0
  6
VERDECKT2
 62
     1
 10
-136.5000000000013074
 20
292.3000000000002956
 30
-0.0000000000000649
 11
-132.5000000000013074
 21
292.3000000000002956
 31
-0.0000000000000649
210
0.0
220
1.0
230
-0.0000000000000002
  0
LINE
  5
7922
  8
0
  6
VERDECKT2
 62
     1
 10
136.5000000000011937
 20
232.0010806653936868
 30
-0.0000000000000515
 11
136.5000000000011937
 21
216.59278228978539
 31
-0.0000000000000481
210
0.0
220
1.0
230
-0.0000000000000002
  0
LINE
  5
7923
  8
0
  6
VERDECKT2
 62
     1
 10
-136.5000000000013074
 20
232.0010806653936868
 30
-0.0000000000000515
 11
-136.5000000000013074
 21
216.59278228978539
 31
-0.0000000000000481
210
0.0
220
1.0
230
-0.0000000000000002
  0
LINE
  5
7924
  8
0
  6
VERDECKT2
 62
     1
 10
132.5000000000011937
 20
308.0000000000003979
 30
-0.0000000000000684
 11
132.5000000000011937
 21
140.0000000000003979
 31
-0.0000000000000311
210
0.0
220
1.0
230
-0.0000000000000002
  0
LINE
  5
7925
  8
0
  6
VERDECKT2
 62
     1
 10
-132.5000000000013074
 20
308.0000000000003979
 30
-0.0000000000000684
 11
-132.5000000000013074
 21
299.0000000000003979
 31
-0.0000000000000664
210
0.0
220
1.0
230
-0.0000000000000002
  0
LINE
  5
7926
  8
0
  6
VERDECKT2
 62
     1
 10
-132.5000000000013074
 20
292.3000000000002956
 30
-0.0000000000000649
 11
-132.5000000000013074
 21
140.0000000000003979
 31
-0.0000000000000311
210
0.0
220
1.0
230
-0.0000000000000002
  0
LINE
  5
7927
  8
0
  6
VERDECKT2
 62
     1
 10
-136.7500000000009095
 20
218.5135969962109925
 30
-0.0000000000000485
 11
136.7500000000007958
 21
218.5135969962109925
 31
-0.0000000000000485
210
0.0
220
1.0
230
-0.0000000000000002
  0
LINE
  5
7928
  8
0
  6
VERDECKT2
 62
     1
 10
136.7500000000009095
 20
218.5135969962109925
 30
-0.0000000000000485
 11
137.3071991238153089
 21
216.59278228978539
 31
-0.0000000000000481
210
0.0
220
1.0
230
-0.0000000000000002
  0
LINE
  5
7929
  8
0
  6
VERDECKT2
 62
     1
 10
-136.7500000000009948
 20
218.5135969962109925
 30
-0.0000000000000485
 11
-137.3071991238153942
 21
216.59278228978539
 31
-0.0000000000000481
210
0.0
220
1.0
230
-0.0000000000000002
  0
LINE
  5
792A
  8
0
  6
VERDECKT2
 62
     1
 10
-136.7500000000009948
 20
218.5135969962109925
 30
-0.0000000000000485
 11
-183.231322140857003
 21
231.9971214007148888
 31
-0.0000000000000515
210
0.0
220
1.0
230
-0.0000000000000002
  0
LINE
  5
792B
  8
0
  6
VERDECKT2
 62
     1
 10
136.7500000000009095
 20
218.5135969962109925
 30
-0.0000000000000485
 11
183.2313221408568893
 21
231.9971214007148035
 31
-0.0000000000000515
210
0.0
220
1.0
230
-0.0000000000000002
  0
ARC
  5
792C
  8
0
  6
VERDECKT2
 62
     1
 10
183.2591820970476135
 20
231.9010806653942893
 30
0.0
 40
0.0999999999992554
210
0.0
220
-0.0000000000000002
230
-1.0
 50
89.9999999999185718
 51
106.1766399606664066
  0
ARC
  5
792D
  8
0
  6
VERDECKT2
 62
     1
 10
-183.2591820970473862
 20
231.9010806653942893
 30
0.0
 40
0.0999999999992584
210
0.0
220
-0.0000000000000002
230
-1.0
 50
73.8233600393335792
 51
90.000000000081414
  0
LINE
  5
792E
  8
0
  6
VERDECKT2
 62
     1
 10
109.5000000000008953
 20
308.0000000000003979
 30
-0.0000000000000684
 11
109.5000000000008953
 21
140.0000000000003979
 31
-0.0000000000000311
210
0.0
220
1.0
230
-0.0000000000000002
  0
LINE
  5
792F
  8
0
  6
VERDECKT2
 62
     1
 10
-109.5000000000010942
 20
308.0000000000003979
 30
-0.0000000000000684
 11
-109.5000000000010942
 21
140.0000000000003979
 31
-0.0000000000000311
210
0.0
220
1.0
230
-0.0000000000000002
  0
LINE
  5
7930
  8
0
  6
VERDECKT2
 62
     1
 10
132.5000000000009095
 20
308.0000000000003979
 30
-0.0000000000000684
 11
132.5000000000009095
 21
140.0000000000003979
 31
-0.0000000000000311
210
0.0
220
1.0
230
-0.0000000000000002
  0
LINE
  5
7931
  8
0
  6
VERDECKT2
 62
     1
 10
-132.5000000000011084
 20
308.0000000000003979
 30
-0.0000000000000684
 11
-132.5000000000011084
 21
140.0000000000003979
 31
-0.0000000000000311
210
0.0
220
1.0
230
-0.0000000000000002
  0
LINE
  5
7932
  8
0
  6
VERDECKT2
 62
     1
 10
110.0000000000006963
 20
312.0000000000003979
 30
-0.0000000000000693
 11
110.0000000000006963
 21
308.0000000000003979
 31
-0.0000000000000684
210
0.0
220
1.0
230
-0.0000000000000002
  0
LINE
  5
7933
  8
0
  6
VERDECKT2
 62
     1
 10
-110.0000000000007958
 20
312.0000000000003979
 30
-0.0000000000000693
 11
-110.0000000000007958
 21
308.0000000000003979
 31
-0.0000000000000684
210
0.0
220
1.0
230
-0.0000000000000002
  0
LINE
  5
7934
  8
0
  6
VERDECKT2
 62
     1
 10
-131.9791316720796885
 20
290.8571067811869284
 30
-0.0000000000000646
 11
-131.9791316720796885
 21
300.4428932188141061
 31
-0.0000000000000667
210
0.0
220
1.0
230
-0.0000000000000002
  0
LINE
  5
7935
  8
0
  6
VERDECKT2
 62
     1
 10
-130.9791316720794043
 20
290.8571067811868147
 30
-0.0000000000000646
 11
-130.9791316720794043
 21
300.4428932188142198
 31
-0.0000000000000667
210
0.0
220
1.0
230
-0.0000000000000002
  0
ARC
  5
7936
  8
0
  6
VERDECKT2
 62
     1
 10
131.4791316720796033
 20
290.8571067811868147
 30
0.0
 40
0.5000000000001137
210
0.0
220
-0.0000000000000002
230
-1.0
 50
180.0
 51
0.0
  0
ARC
  5
7937
  8
0
  6
VERDECKT2
 62
     1
 10
131.4791316720796033
 20
300.4428932188142198
 30
0.0
 40
0.5000000000001137
210
0.0
220
-0.0000000000000002
230
-1.0
 50
359.9999999999935199
 51
179.9999999999934914
  0
LINE
  5
7938
  8
0
  6
VERDECKT2
 62
     1
 10
-136.4918587315754053
 20
298.6500000000004889
 30
-0.0000000000000663
 11
-131.9791316720796885
 21
298.6500000000004889
 31
-0.0000000000000663
210
0.0
220
1.0
230
-0.0000000000000002
  0
LINE
  5
7939
  8
0
  6
VERDECKT2
 62
     1
 10
-136.4918587315754053
 20
292.6500000000004889
 30
-0.000000000000065
 11
-131.9791316720796885
 21
292.6500000000004889
 31
-0.000000000000065
210
0.0
220
1.0
230
-0.0000000000000002
  0
ENDBLK
  5
793B
  8
0
  0
ENDSEC
  0
SECTION
  2
ENTITIES
  0
INSERT
  5
573
  8
ADSK_ASSOC_ENTITY_BACKUPS
  2
*S0
 10
0.0
 20
0.0
 30
0.0
  0
INSERT
  5
78CC
  8
INDEX2
  2
A$C67F30A60
 10
593.3154371625960266
 20
-52.761137368871978
 30
0.0
  0
INSERT
  5
793C
  8
INDEX2
  2
A$C29F96D22
 10
593.3154371625961403
 20
368.4609961523693187
 30
0.0
  0
VIEWPORT
  5
BCC
 67
     1
  8
0
 10
460.4599710554662124
 20
262.3955400693017168
 30
0.0
 40
2788.2137082875169654
 41
1471.4572989543150925
 68
     1
 69
     1
1001
ACAD
1000
MVIEW
1002
{
1070
    16
1010
0.0
1020
0.0
1030
0.0
1010
0.0
1020
0.0
1030
1.0
1040
0.0
1040
1471.4572989543150925
1040
460.4599710554662124
1040
262.3955400693017168
1040
50.0
1040
0.0
1040
0.0
1070
     0
1070
  1500
1070
     1
1070
     1
1070
     0
1070
     0
1070
     0
1070
     0
1040
0.0
1040
0.0
1040
0.0
1040
10.0
1040
10.0
1040
10.0
1040
10.0
1070
     0
1002
{
1002
}
1002
}
  0
ENDSEC
  0
EOF
