  0
SECTION
  2
HEADER
  9
$ACADVER
  1
AC1009
  9
$INSBASE
 10
0.0
 20
0.0
 30
0.0
  9
$EXTMIN
 10
-122.4999999999983942
 20
-138.7948448955729077
 30
-0.0000000000002377
  9
$EXTMAX
 10
547.1533990193687487
 20
1325.2402331558901096
 30
1060.0
  9
$LIMMIN
 10
0.0
 20
0.0
  9
$LIMMAX
 10
595.0
 20
421.0
  9
$ORTHOMODE
 70
     1
  9
$REGENMODE
 70
     1
  9
$FILLMODE
 70
     1
  9
$QTEXTMODE
 70
     0
  9
$MIRRTEXT
 70
     0
  9
$DRAGMODE
 70
     2
  9
$LTSCALE
 40
10.0
  9
$OSMODE
 70
    39
  9
$ATTMODE
 70
     1
  9
$TEXTSIZE
 40
3.5
  9
$TRACEWID
 40
1.0
  9
$TEXTSTYLE
  7
STANDARD
  9
$CLAYER
  8
INDEX2
  9
$CELTYPE
  6
BYLAYER
  9
$CECOLOR
 62
   256
  9
$DIMSCALE
 40
1.0
  9
$DIMASZ
 40
3.5
  9
$DIMEXO
 40
1.0
  9
$DIMDLI
 40
7.0
  9
$DIMRND
 40
0.0
  9
$DIMDLE
 40
0.0
  9
$DIMEXE
 40
1.0
  9
$DIMTP
 40
0.0
  9
$DIMTM
 40
0.0
  9
$DIMTXT
 40
3.5
  9
$DIMCEN
 40
1.5
  9
$DIMTSZ
 40
0.0
  9
$DIMTOL
 70
     0
  9
$DIMLIM
 70
     0
  9
$DIMTIH
 70
     0
  9
$DIMTOH
 70
     0
  9
$DIMSE1
 70
     0
  9
$DIMSE2
 70
     0
  9
$DIMTAD
 70
     1
  9
$DIMZIN
 70
     8
  9
$DIMBLK
  1

  9
$DIMASO
 70
     1
  9
$DIMSHO
 70
     0
  9
$DIMPOST
  1

  9
$DIMAPOST
  1

  9
$DIMALT
 70
     0
  9
$DIMALTD
 70
     2
  9
$DIMALTF
 40
25.3999999999999986
  9
$DIMLFAC
 40
2.0
  9
$DIMTOFL
 70
     1
  9
$DIMTVP
 40
0.0
  9
$DIMTIX
 70
     0
  9
$DIMSOXD
 70
     0
  9
$DIMSAH
 70
     0
  9
$DIMBLK1
  1

  9
$DIMBLK2
  1

  9
$DIMSTYLE
  2
STANDARD
  9
$DIMCLRD
 70
     0
  9
$DIMCLRE
 70
     0
  9
$DIMCLRT
 70
     1
  9
$DIMTFAC
 40
0.5142857142857143
  9
$DIMGAP
 40
1.5
  9
$LUNITS
 70
     2
  9
$LUPREC
 70
     2
  9
$SKETCHINC
 40
1.0
  9
$FILLETRAD
 40
2.0
  9
$AUNITS
 70
     0
  9
$AUPREC
 70
     0
  9
$MENU
  1
ACAD
  9
$ELEVATION
 40
0.0
  9
$PELEVATION
 40
0.0
  9
$THICKNESS
 40
0.0
  9
$LIMCHECK
 70
     0
  9
$BLIPMODE
 70
     0
  9
$CHAMFERA
 40
0.0
  9
$CHAMFERB
 40
0.0
  9
$SKPOLY
 70
     0
  9
$TDCREATE
 40
2458193.491747684776783
  9
$TDUPDATE
 40
2458591.2886574068106711
  9
$TDINDWG
 40
0.5300462963
  9
$TDUSRTIMER
 40
0.5300462963
  9
$USRTIMER
 70
     1
  9
$ANGBASE
 50
0.0
  9
$ANGDIR
 70
     0
  9
$PDMODE
 70
     0
  9
$PDSIZE
 40
0.0
  9
$PLINEWID
 40
0.0
  9
$COORDS
 70
     1
  9
$SPLFRAME
 70
     0
  9
$SPLINETYPE
 70
     6
  9
$SPLINESEGS
 70
     8
  9
$ATTDIA
 70
     1
  9
$ATTREQ
 70
     1
  9
$HANDLING
 70
     1
  9
$HANDSEED
  5
7318
  9
$SURFTAB1
 70
     6
  9
$SURFTAB2
 70
     6
  9
$SURFTYPE
 70
     6
  9
$SURFU
 70
     6
  9
$SURFV
 70
     6
  9
$UCSNAME
  2

  9
$UCSORG
 10
0.0
 20
0.0
 30
0.0
  9
$UCSXDIR
 10
1.0
 20
0.0
 30
0.0
  9
$UCSYDIR
 10
0.0
 20
1.0
 30
0.0
  9
$PUCSNAME
  2

  9
$PUCSORG
 10
0.0
 20
0.0
 30
0.0
  9
$PUCSXDIR
 10
1.0
 20
0.0
 30
0.0
  9
$PUCSYDIR
 10
0.0
 20
1.0
 30
0.0
  9
$USERI1
 70
     0
  9
$USERI2
 70
     0
  9
$USERI3
 70
     0
  9
$USERI4
 70
     0
  9
$USERI5
 70
     0
  9
$USERR1
 40
0.0
  9
$USERR2
 40
0.0
  9
$USERR3
 40
0.0
  9
$USERR4
 40
0.0
  9
$USERR5
 40
0.0
  9
$WORLDVIEW
 70
     1
  9
$SHADEDGE
 70
     3
  9
$SHADEDIF
 70
    70
  9
$TILEMODE
 70
     1
  9
$MAXACTVP
 70
    16
  9
$PLIMCHECK
 70
     0
  9
$PEXTMIN
 10
-229.3429622514898085
 20
-253.1114704417649932
 30
-411.2051490090652237
  9
$PEXTMAX
 10
285.8738879896848175
 20
567.8347514494785173
 30
0.0062757374259945
  9
$PLIMMIN
 10
-7.5000000000000009
 20
-20.0
  9
$PLIMMAX
 10
289.5
 20
400.0
  9
$UNITMODE
 70
     0
  9
$VISRETAIN
 70
     0
  9
$PLINEGEN
 70
     0
  9
$PSLTSCALE
 70
     1
  0
ENDSEC
  0
SECTION
  2
TABLES
  0
TABLE
  2
VPORT
 70
     1
  0
VPORT
  2
*ACTIVE
 70
     0
 10
0.0
 20
0.0
 11
1.0
 21
1.0
 12
0.0
 22
0.0
 13
0.0
 23
0.0
 14
1.0
 24
1.0
 15
10.0
 25
10.0
 16
-0.0000000000011369
 26
0.0
 36
5269.7802048932680918
 17
829.6798360982350005
 27
581.4995395914412484
 37
529.9999999999997726
 40
1923.5038931750909796
 41
1.894865525672371
 42
50.0
 43
0.0
 44
0.0
 50
0.0
 51
0.0
 71
     0
 72
  1500
 73
     1
 74
     1
 75
     0
 76
     0
 77
     0
 78
     0
  0
ENDTAB
  0
TABLE
  2
LTYPE
 70
     9
  0
LTYPE
  2
CONTINUOUS
 70
     0
  3
Solid line
 72
    65
 73
     0
 40
0.0
  0
LTYPE
  2
JIS_08_11
 70
     0
  3
1SASEN11 ___ _ ___ _ ___ _ ___ _ ___ _ ___
 72
    65
 73
     4
 40
12.8000000000000007
 49
11.0
 49
-0.6
 49
0.6
 49
-0.6
  0
LTYPE
  2
VERDECKT2
 70
     0
  3
Verdeckt (.5x) _ _ _ _ _ _ _ _ _ _ _ _ _ _ _ _ 
 72
    65
 73
     2
 40
4.7624999999999993
 49
3.1749999999999989
 49
-1.587499999999999
  0
ENDTAB
  0
TABLE
  2
LAYER
 70
    20
  0
LAYER
  2
0
 70
     0
 62
     7
  6
CONTINUOUS
  0
LAYER
  2
BEM
 70
     0
 62
     7
  6
CONTINUOUS
  0
LAYER
  2
ADSK_ASSOC_ENTITY_BACKUPS
 70
     1
 62
    -7
  6
CONTINUOUS
  0
LAYER
  2
DEFPOINTS
 70
     0
 62
     7
  6
CONTINUOUS
  0
LAYER
  2
INDEX2
 70
     0
 62
   150
  6
CONTINUOUS
  0
ENDTAB
  0
TABLE
  2
STYLE
 70
     4
  0
STYLE
  2
STANDARD
 70
     0
 40
0.0
 41
0.8
 50
0.0
 71
     0
 42
3.5
  3
simplex.shx
  4

  0
STYLE
  2
GREEKS
 70
     0
 40
0.0
 41
0.8
 50
0.0
 71
     0
 42
2.5
  3
SIMPLEX.shx
  4

  0
ENDTAB
  0
TABLE
  2
VIEW
 70
     2
  0
ENDTAB
  0
TABLE
  2
UCS
 70
     0
  0
ENDTAB
  0
TABLE
  2
APPID
 70
    48
  0
APPID
  2
ACAD
 70
     0
  0
APPID
  2
ACAD_NAV_VCDISPLAY
 70
     0
  0
APPID
  2
ACAD_EXEMPT_FROM_CAD_STANDARDS
 70
     0
  0
APPID
  2
ACAD_PSEXT
 70
     0
  0
APPID
  2
ACAUTHENVIRON
 70
     0
  0
APPID
  2
ACDBDYNAMICBLOCKTRUENAME
 70
     0
  0
APPID
  2
ACDBDYNAMICBLOCKGUID
 70
     0
  0
APPID
  2
ACAECLAYERSTANDARD
 70
     0
  0
APPID
  2
ACCMTRANSPARENCY
 70
     0
  0
APPID
  2
ACAD_STEPID
 70
     0
  0
APPID
  2
ACSYNERGY
 70
     0
  0
APPID
  2
SYNERGY_BODY_TBR_ID
 70
     0
  0
APPID
  2
ACAD_VIEW_EDGE_ID
 70
     0
  0
APPID
  2
ACAD_DSTYLE_DIMJAG
 70
     0
  0
APPID
  2
ACAD_DSTYLE_DIMTALN
 70
     0
  0
APPID
  2
ACADANNOMONITORALERTICONDI
 70
     0
  0
APPID
  2
ACADANNOTATIVE
 70
     0
  0
APPID
  2
ACADANNOAV
 70
     0
  0
APPID
  2
ACSYNERGYSKETCH
 70
     0
  0
APPID
  2
ACAD_MODELDOC_XFORM
 70
     0
  0
APPID
  2
ACDBBLOCKREPETAG
 70
     0
  0
APPID
  2
ACADANNOPO
 70
     0
  0
APPID
  2
ACAD_ASSOCPERSSUBENTMANAGER
 70
     0
  0
APPID
  2
ACDBDYNAMICBLOCKTRUENAME2
 70
     0
  0
APPID
  2
GRADIENTCOLOR1ACI
 70
     0
  0
APPID
  2
GRADIENTCOLOR2ACI
 70
     0
  0
APPID
  2
ACAD_DSTYLE_DIMRADIAL_EXTENSION
 70
     0
  0
APPID
  2
ACAD_MLEADERVER
 70
     0
  0
APPID
  2
ACAD_OBJECT_CHANGE_GUID
 70
     0
  0
APPID
  2
MCAD_NO_VIS
 70
     0
  0
APPID
  2
ACAD_TEMP_GRAPHIC
 70
     0
  0
APPID
  2
ACATTRIBSERVICES
 70
     0
  0
APPID
  2
DESIGNERASSEMBLIES
 70
     0
  0
APPID
  2
ACAD_DSTYLE_DIMBREAK
 70
     0
  0
APPID
  2
GENIUS_GENSCREG_15
 70
     0
  0
APPID
  2
GENIUS_GENOBJ-N-SDF_13
 70
     0
  0
APPID
  2
GENIUS_GENODEF_13
 70
     0
  0
APPID
  2
ACAD_DSTYLE_DIMARC_LENGTH_
 70
     0
  0
APPID
  2
ACAD_DSTYLE_DIM_LINETYPE
 70
     0
  0
APPID
  2
ACAD_DSTYLE_DIM_EXT1_LINETYPE
 70
     0
  0
APPID
  2
ACAD_DSTYLE_DIM_EXT2_LINETYPE
 70
     0
  0
APPID
  2
RAK
 70
     0
  0
APPID
  2
GENIUS_GENDTOL_13
 70
     0
  0
APPID
  2
ACAD_DSTYLE_DIMINSPECT
 70
     0
  0
APPID
  2
ACAD_DSTYLE_DIMANGULAR_EXT
 70
     0
  0
APPID
  2
PLOTTRANSPARENCY
 70
     0
  0
APPID
  2
PE_URL
 70
     0
  0
APPID
  2
AcDbAttr
 70
     0
  0
ENDTAB
  0
TABLE
  2
DIMSTYLE
 70
     3
  0
DIMSTYLE
  2
STANDARD
 70
     0
  3

  4

  5

  6

  7

 40
1.0
 41
0.18
 42
0.0625
 43
0.38
 44
0.18
 45
0.0
 46
0.0
 47
0.0
 48
0.0
140
0.18
141
0.09
142
0.0
143
25.3999999999999986
144
1.0
145
0.0
146
1.0
147
0.09
 71
     0
 72
     0
 73
     1
 74
     1
 75
     0
 76
     0
 77
     0
 78
     0
170
     0
171
     2
172
     0
173
     0
174
     0
175
     0
176
     0
177
     0
178
     0
  0
ENDTAB
  0
ENDSEC
  0
SECTION
  2
BLOCKS
  0
BLOCK
  8
0
  2
$MODEL_SPACE
 70
     0
 10
0.0
 20
0.0
 30
0.0
  3
$MODEL_SPACE
  1

  0
ENDBLK
  5
38
  8
0
  0
BLOCK
 67
     1
  8
0
  2
$PAPER_SPACE
 70
     0
 10
0.0
 20
0.0
 30
0.0
  3
$PAPER_SPACE
  1

  0
ENDBLK
  5
BC1
 67
     1
  8
0
  0
BLOCK
  8
0
  2
*S0
 70
     1
 10
0.0
 20
0.0
 30
0.0
  3
*S0
  1

  0
ENDBLK
  5
571
  8
0
  0
BLOCK
  8
0
  2
_NONE
 70
     0
 10
0.0
 20
0.0
 30
0.0
  3
_NONE
  1

  0
ENDBLK
  5
11C0
  8
0
  0
BLOCK
  8
0
  2
123
 70
     0
 10
0.0
 20
0.0
 30
0.0
  3
123
  1

  0
LINE
  5
14A3
  8
BEM
 10
0.0
 20
0.0
 30
0.0
 11
15.4991845013463507
 21
-0.0000000000000284
 31
0.0
1001
ACDBBLOCKREPETAG
1070
     1
1071
        0
1005
14A3
  0
LINE
  5
14A4
  8
BEM
 10
2.4991845013463769
 20
-1.500000000000028
 30
0.0
 11
5.4991845013463774
 21
-1.500000000000028
 31
0.0
1001
ACDBBLOCKREPETAG
1070
     1
1071
        1
1005
14A4
  0
LINE
  5
14A5
  8
BEM
 10
7.4991845013463481
 20
-1.500000000000028
 30
0.0
 11
10.4991845013463507
 21
-1.500000000000028
 31
0.0
1001
ACDBBLOCKREPETAG
1070
     1
1071
        2
1005
14A5
  0
LINE
  5
14A6
  8
BEM
 10
12.4991845013463507
 20
-1.500000000000028
 30
0.0
 11
15.4991845013463507
 21
-1.500000000000028
 31
0.0
1001
ACDBBLOCKREPETAG
1070
     1
1071
        3
1005
14A6
  0
POLYLINE
  5
14A7
  8
0
 66
     1
 10
0.0
 20
0.0
 30
0.0
 70
     1
1001
ACDBBLOCKREPETAG
1070
     1
1071
        4
1005
14A7
  0
VERTEX
  5
6A8A
  8
0
 10
10.2127767082253005
 20
-0.0000000000000284
 30
0.0
  0
VERTEX
  5
6A8B
  8
0
 10
6.2864077931210707
 20
3.3928740806512101
 30
0.0
  0
VERTEX
  5
6A8C
  8
0
 10
6.2864077931210707
 20
-0.0000000000000284
 30
0.0
  0
VERTEX
  5
6A8D
  8
0
 10
10.2127767082253005
 20
-0.0000000000000284
 30
0.0
  0
SEQEND
  5
6A8E
  8
0
  0
LINE
  5
14A9
  8
BEM
  6
BYBLOCK
 62
     7
 10
0.0
 20
0.0
 30
0.0
 11
0.0
 21
0.0
 31
0.0
  0
ENDBLK
  5
148D
  8
0
  0
BLOCK
  8
0
  2
A$C394D0680
 70
     0
 10
0.0
 20
0.0
 30
0.0
  3
A$C394D0680
  1

  0
ARC
  5
698C
  8
0
  6
CONTINUOUS
 62
     3
 10
0.0000000000016424
 20
-0.000000000000152
 30
0.0
 40
66.6377934417405413
 50
182.7540843575694112
 51
177.2459156424305888
  0
CIRCLE
  5
698D
  8
0
  6
CONTINUOUS
 62
     3
 10
0.0000000000016426
 20
-0.0000000000001519
 30
0.0
 40
120.9638678878223033
  0
CIRCLE
  5
698E
  8
0
  6
CONTINUOUS
 62
     3
 10
0.0000000000016423
 20
-0.0000000000001522
 30
0.0
 40
122.5
  0
LINE
  5
698F
  8
0
  6
CONTINUOUS
 62
     3
 10
-68.5608243782116347
 20
-2.4999999999999711
 30
0.0
 11
-68.5608243782116347
 21
2.500000000000028
 31
0.0
  0
LINE
  5
6990
  8
0
  6
CONTINUOUS
 62
     3
 10
-67.5608243782116347
 20
-4.7928932188136448
 30
0.0
 11
-67.5608243782116347
 21
4.7928932188137017
 31
0.0
  0
LINE
  5
6991
  8
0
  6
CONTINUOUS
 62
     3
 10
-66.5608243782116347
 20
-4.7928932188136448
 30
0.0
 11
-66.5608243782116347
 21
4.7928932188137017
 31
0.0
  0
ARC
  5
6992
  8
0
  6
CONTINUOUS
 62
     3
 10
-68.0608243782115068
 20
-2.4999999999998468
 30
0.0
 40
0.5000000000001243
 50
180.0000000000287912
 51
270.0
  0
ARC
  5
6993
  8
0
  6
CONTINUOUS
 62
     3
 10
-68.0608243782115068
 20
2.4999999999999032
 30
0.0
 40
0.5000000000001279
 50
90.0000000000289901
 51
180.0
  0
LINE
  5
6994
  8
0
  6
CONTINUOUS
 62
     3
 10
-68.0608243782116347
 20
3.000000000000028
 30
0.0
 11
-67.5608243782116347
 21
3.000000000000028
 31
0.0000000000000001
  0
LINE
  5
6995
  8
0
  6
CONTINUOUS
 62
     3
 10
-68.0608243782116347
 20
-2.9999999999999711
 30
0.0
 11
-67.5608243782116347
 21
-2.9999999999999711
 31
0.0000000000000001
  0
ARC
  5
6996
  8
0
  6
CONTINUOUS
 62
     3
 10
-67.0608243782116347
 20
-4.7928932188136448
 30
0.0
 40
0.5
 50
180.0
 51
0.0
  0
ARC
  5
6997
  8
0
  6
CONTINUOUS
 62
     3
 10
-67.0608243782116347
 20
4.7928932188137017
 30
0.0
 40
0.5
 50
0.0
 51
180.0
  0
LINE
  5
6998
  8
0
  6
CONTINUOUS
 62
     3
 10
-66.5608243782116347
 20
3.000000000000028
 30
0.0
 11
-66.4322963625371301
 21
3.000000000000028
 31
0.0
  0
LINE
  5
6999
  8
0
  6
CONTINUOUS
 62
     3
 10
-66.5608243782116347
 20
-2.9999999999999711
 30
0.0
 11
-66.4322963625371159
 21
-2.9999999999999711
 31
0.0
  0
CIRCLE
  5
699A
  8
0
  6
CONTINUOUS
 62
     3
 10
0.0000000000000673
 20
0.0000000000001046
 30
0.0
 40
66.4999999999997726
  0
CIRCLE
  5
699B
  8
0
  6
CONTINUOUS
 62
     3
 10
0.0
 20
0.000000000000003
 30
0.0
 40
34.2138188499329772
  0
CIRCLE
  5
699C
  8
0
  6
CONTINUOUS
 62
     3
 10
0.0000000000002264
 20
-0.0000000000000029
 30
0.0
 40
42.0999999999999091
  0
CIRCLE
  5
699D
  8
0
  6
CONTINUOUS
 62
     3
 10
0.0000000000002287
 20
-0.0000000000000003
 30
0.0
 40
39.7653973282756397
  0
CIRCLE
  5
699E
  8
0
  6
CONTINUOUS
 62
     3
 10
0.0000000000002285
 20
-0.0000000000000005
 30
0.0
 40
38.31481189926604
  0
CIRCLE
  5
699F
  8
0
  6
CONTINUOUS
 62
     3
 10
0.0000000000002215
 20
-0.0000000000000084
 30
0.0
 40
38.0
  0
CIRCLE
  5
69A0
  8
0
  6
CONTINUOUS
 62
     3
 10
0.0000000000002157
 20
-0.0000000000000151
 30
0.0
 40
34.9000000000000909
  0
CIRCLE
  5
69A1
  8
0
  6
CONTINUOUS
 62
     3
 10
0.0000000000002244
 20
-0.0000000000000051
 30
0.0
 40
42.1000932431256487
  0
ARC
  5
69A2
  8
0
  6
VERDECKT2
 62
     1
 10
-0.0000000000629317
 20
0.0000000000013765
 30
0.0
 40
66.6377934416759672
 50
177.2459156424291962
 51
180.0000000000011937
  0
ARC
  5
69A3
  8
0
  6
VERDECKT2
 62
     1
 10
-0.0000000000627043
 20
-0.0000000000016806
 30
0.0
 40
66.6377934416761946
 50
179.9999999999986073
 51
182.7540843575706901
  0
CIRCLE
  5
69A4
  8
0
  6
VERDECKT2
 62
     1
 10
0.0000000000002938
 20
0.0000000000001036
 30
0.0
 40
64.0000000000002274
  0
LINE
  5
69A5
  8
0
  6
VERDECKT2
 62
     1
 10
-63.9122640813167706
 20
-3.3499999999998988
 30
0.0
 11
-66.4155666993814862
 21
-3.3499999999998988
 31
-0.0000000000000005
  0
LINE
  5
69A6
  8
0
  6
VERDECKT2
 62
     1
 10
-63.9122640813167706
 20
3.3500000000001
 30
0.0
 11
-66.4155666993814862
 21
3.3500000000001
 31
-0.0000000000000005
  0
CIRCLE
  5
69A7
  8
0
  6
VERDECKT2
 62
     1
 10
0.0000000000002938
 20
0.0000000000001036
 30
0.0
 40
64.0
  0
LINE
  5
69A8
  8
0
  6
VERDECKT2
 62
     1
 10
-64.0608243782117484
 20
-4.792893218813588
 30
0.0
 11
-64.0608243782117484
 21
4.7928932188136448
 31
0.0
  0
LINE
  5
69A9
  8
0
  6
VERDECKT2
 62
     1
 10
-63.0608243782115068
 20
-4.7928932188136448
 30
0.0
 11
-63.0608243782115068
 21
4.7928932188137017
 31
0.0
  0
LINE
  5
69AA
  8
0
  6
VERDECKT2
 62
     1
 10
-66.4322963625371301
 20
3.000000000000028
 30
0.0
 11
-64.0608243782116347
 21
3.000000000000028
 31
0.0000000000000005
  0
LINE
  5
69AB
  8
0
  6
VERDECKT2
 62
     1
 10
-66.4322963625371159
 20
-2.9999999999999711
 30
0.0
 11
-64.0608243782116347
 21
-2.9999999999999711
 31
0.0000000000000005
  0
ARC
  5
69AC
  8
0
  6
VERDECKT2
 62
     1
 10
-63.5608243782116276
 20
-4.7928932188136448
 30
0.0
 40
0.5000000000001137
 50
180.0
 51
0.0
  0
ARC
  5
69AD
  8
0
  6
VERDECKT2
 62
     1
 10
-63.5608243782116276
 20
4.7928932188137017
 30
0.0
 40
0.5000000000001137
 50
0.0000000000065138
 51
180.0000000000065086
  0
CIRCLE
  5
69AE
  8
0
  6
VERDECKT2
 62
     1
 10
0.0000000000000673
 20
0.0000000000000478
 30
0.0
 40
37.0
  0
CIRCLE
  5
69AF
  8
0
  6
VERDECKT2
 62
     1
 10
0.0
 20
0.000000000000003
 30
0.0
 40
35.8077303668797029
  0
CIRCLE
  5
69B0
  8
0
  6
VERDECKT2
 62
     1
 10
0.0000000000002215
 20
-0.0000000000000084
 30
0.0
 40
39.5999999999999091
  0
CIRCLE
  5
69B1
  8
0
  6
VERDECKT2
 62
     1
 10
0.0000000000002264
 20
-0.0000000000000029
 30
0.0
 40
40.4999999999997726
  0
CIRCLE
  5
69B2
  8
0
  6
VERDECKT2
 62
     1
 10
0.0000000000002157
 20
-0.0000000000000151
 30
0.0
 40
36.5
  0
CIRCLE
  5
69B3
  8
0
  6
VERDECKT2
 62
     1
 10
0.0000000000002244
 20
-0.0000000000000051
 30
0.0
 40
40.5000932431256402
  0
ENDBLK
  5
69B5
  8
0
  0
BLOCK
  8
0
  2
A$C10F5356A
 70
     0
 10
0.0
 20
0.0
 30
0.0
  3
A$C10F5356A
  1

  0
LINE
  5
69B9
  8
0
  6
CONTINUOUS
 62
     3
 10
-120.9638678878206974
 20
236.2107412439384859
 30
-0.0000000000000524
 11
120.9638678878237954
 21
236.2107412439384859
 31
-0.0000000000000524
210
0.0
220
1.0
230
-0.0000000000000002
  0
LINE
  5
69BA
  8
0
  6
CONTINUOUS
 62
     3
 10
-122.4999999999983942
 20
234.9299999999956015
 30
-0.0000000000000522
 11
122.5000000000016058
 21
234.9299999999956015
 31
-0.0000000000000522
210
0.0
220
1.0
230
-0.0000000000000002
  0
ARC
  5
69BB
  8
0
  6
CONTINUOUS
 62
     3
 10
117.4054789838992008
 20
232.0989384205088868
 30
0.0
 40
2.1000000000019261
210
0.0
220
-0.0000000000000002
230
-1.0
 50
269.9999999999993179
 51
320.1805385996303812
  0
ARC
  5
69BC
  8
0
  6
CONTINUOUS
 62
     3
 10
-117.4054789839023982
 20
232.0989384205088868
 30
0.0
 40
2.1000000000019181
210
0.0
220
-0.0000000000000002
230
-1.0
 50
219.8194614003695904
 51
270.0000000000006821
  0
LINE
  5
69BD
  8
0
  6
CONTINUOUS
 62
     3
 10
-117.4054789838992008
 20
229.9989384205071019
 30
-0.0000000000000511
 11
117.4054789839023982
 21
229.9989384205069882
 31
-0.0000000000000511
210
0.0
220
1.0
230
-0.0000000000000002
  0
LINE
  5
69BE
  8
0
  6
CONTINUOUS
 62
     3
 10
120.9638678878237954
 20
236.2107412439384859
 30
-0.0000000000000524
 11
122.5000000000016058
 21
234.9299999999956015
 31
-0.0000000000000522
210
0.0
220
1.0
230
-0.0000000000000002
  0
LINE
  5
69BF
  8
0
  6
CONTINUOUS
 62
     3
 10
-120.9638678878206974
 20
236.2107412439384859
 30
-0.0000000000000524
 11
-122.4999999999983942
 21
234.9299999999956015
 31
-0.0000000000000522
210
0.0
220
1.0
230
-0.0000000000000002
  0
LINE
  5
69C0
  8
0
  6
CONTINUOUS
 62
     3
 10
-119.0184177016865021
 20
230.7541601143666981
 30
-0.0000000000000512
 11
-122.4999999999983942
 21
234.9299999999956015
 31
-0.0000000000000522
210
0.0
220
1.0
230
-0.0000000000000002
  0
LINE
  5
69C1
  8
0
  6
CONTINUOUS
 62
     3
 10
119.0184177016896996
 20
230.7541601143666981
 30
-0.0000000000000512
 11
122.5000000000016058
 21
234.9299999999956015
 31
-0.0000000000000522
210
0.0
220
1.0
230
-0.0000000000000002
  0
LINE
  5
69C2
  8
0
  6
CONTINUOUS
 62
     3
 10
-66.4999999999997726
 20
307.9999999999973284
 30
-0.0000000000000684
 11
66.5000000000002274
 21
307.9999999999973284
 31
-0.0000000000000684
210
0.0
220
1.0
230
-0.0000000000000002
  0
POLYLINE
  8
0
  5
6A94
  62
3
  66
     1
 10
0.000000
 20
0.000000
 30
0.000000
  70
     8
  0
VERTEX
  8
0
  5
6A95
 10
-66.5000
 20
299.000
 30
-6.64000e-14
  70
    32
  0
VERTEX
  8
0
  5
6A96
 10
-66.5000
 20
299.000
 30
-6.64000e-14
  70
    32
  0
VERTEX
  8
0
  5
6A97
 10
-66.5000
 20
299.000
 30
-6.64000e-14
  70
    32
  0
VERTEX
  8
0
  5
6A98
 10
-66.5000
 20
299.000
 30
-6.64000e-14
  70
    32
  0
VERTEX
  8
0
  5
6A99
 10
-66.5000
 20
299.000
 30
-6.64000e-14
  70
    32
  0
VERTEX
  8
0
  5
6A9A
 10
-66.5000
 20
299.000
 30
-6.64000e-14
  70
    32
  0
VERTEX
  8
0
  5
6A9B
 10
-66.5000
 20
299.000
 30
-6.64000e-14
  70
    32
  0
VERTEX
  8
0
  5
6A9C
 10
-66.5000
 20
298.999
 30
-6.64000e-14
  70
    32
  0
VERTEX
  8
0
  5
6A9D
 10
-66.5000
 20
298.999
 30
-6.64000e-14
  70
    32
  0
VERTEX
  8
0
  5
6A9E
 10
-66.4999
 20
298.999
 30
-6.64000e-14
  70
    32
  0
VERTEX
  8
0
  5
6A9F
 10
-66.4999
 20
298.999
 30
-6.64000e-14
  70
    32
  0
VERTEX
  8
0
  5
6AA0
 10
-66.4999
 20
298.998
 30
-6.64000e-14
  70
    32
  0
VERTEX
  8
0
  5
6AA1
 10
-66.4999
 20
298.998
 30
-6.64000e-14
  70
    32
  0
VERTEX
  8
0
  5
6AA2
 10
-66.4999
 20
298.998
 30
-6.64000e-14
  70
    32
  0
VERTEX
  8
0
  5
6AA3
 10
-66.4999
 20
298.997
 30
-6.64000e-14
  70
    32
  0
VERTEX
  8
0
  5
6AA4
 10
-66.4998
 20
298.997
 30
-6.64000e-14
  70
    32
  0
VERTEX
  8
0
  5
6AA5
 10
-66.4998
 20
298.997
 30
-6.64000e-14
  70
    32
  0
VERTEX
  8
0
  5
6AA6
 10
-66.4998
 20
298.996
 30
-6.64000e-14
  70
    32
  0
VERTEX
  8
0
  5
6AA7
 10
-66.4998
 20
298.996
 30
-6.64000e-14
  70
    32
  0
VERTEX
  8
0
  5
6AA8
 10
-66.4998
 20
298.995
 30
-6.64000e-14
  70
    32
  0
VERTEX
  8
0
  5
6AA9
 10
-66.4997
 20
298.995
 30
-6.64000e-14
  70
    32
  0
VERTEX
  8
0
  5
6AAA
 10
-66.4997
 20
298.994
 30
-6.64000e-14
  70
    32
  0
VERTEX
  8
0
  5
6AAB
 10
-66.4997
 20
298.994
 30
-6.64000e-14
  70
    32
  0
VERTEX
  8
0
  5
6AAC
 10
-66.4996
 20
298.993
 30
-6.64000e-14
  70
    32
  0
VERTEX
  8
0
  5
6AAD
 10
-66.4996
 20
298.992
 30
-6.64000e-14
  70
    32
  0
VERTEX
  8
0
  5
6AAE
 10
-66.4996
 20
298.992
 30
-6.64000e-14
  70
    32
  0
VERTEX
  8
0
  5
6AAF
 10
-66.4995
 20
298.991
 30
-6.64000e-14
  70
    32
  0
VERTEX
  8
0
  5
6AB0
 10
-66.4995
 20
298.990
 30
-6.64000e-14
  70
    32
  0
VERTEX
  8
0
  5
6AB1
 10
-66.4995
 20
298.990
 30
-6.64000e-14
  70
    32
  0
VERTEX
  8
0
  5
6AB2
 10
-66.4994
 20
298.989
 30
-6.64000e-14
  70
    32
  0
VERTEX
  8
0
  5
6AB3
 10
-66.4994
 20
298.988
 30
-6.64000e-14
  70
    32
  0
VERTEX
  8
0
  5
6AB4
 10
-66.4994
 20
298.987
 30
-6.64000e-14
  70
    32
  0
VERTEX
  8
0
  5
6AB5
 10
-66.4993
 20
298.986
 30
-6.64000e-14
  70
    32
  0
VERTEX
  8
0
  5
6AB6
 10
-66.4993
 20
298.986
 30
-6.64000e-14
  70
    32
  0
VERTEX
  8
0
  5
6AB7
 10
-66.4992
 20
298.985
 30
-6.64000e-14
  70
    32
  0
VERTEX
  8
0
  5
6AB8
 10
-66.4992
 20
298.984
 30
-6.64000e-14
  70
    32
  0
VERTEX
  8
0
  5
6AB9
 10
-66.4991
 20
298.983
 30
-6.64000e-14
  70
    32
  0
VERTEX
  8
0
  5
6ABA
 10
-66.4991
 20
298.982
 30
-6.64000e-14
  70
    32
  0
VERTEX
  8
0
  5
6ABB
 10
-66.4990
 20
298.981
 30
-6.64000e-14
  70
    32
  0
VERTEX
  8
0
  5
6ABC
 10
-66.4990
 20
298.980
 30
-6.64000e-14
  70
    32
  0
VERTEX
  8
0
  5
6ABD
 10
-66.4989
 20
298.979
 30
-6.64000e-14
  70
    32
  0
VERTEX
  8
0
  5
6ABE
 10
-66.4989
 20
298.978
 30
-6.64000e-14
  70
    32
  0
VERTEX
  8
0
  5
6ABF
 10
-66.4988
 20
298.976
 30
-6.64000e-14
  70
    32
  0
VERTEX
  8
0
  5
6AC0
 10
-66.4988
 20
298.975
 30
-6.64000e-14
  70
    32
  0
VERTEX
  8
0
  5
6AC1
 10
-66.4987
 20
298.974
 30
-6.64000e-14
  70
    32
  0
VERTEX
  8
0
  5
6AC2
 10
-66.4986
 20
298.973
 30
-6.64000e-14
  70
    32
  0
VERTEX
  8
0
  5
6AC3
 10
-66.4986
 20
298.972
 30
-6.64000e-14
  70
    32
  0
VERTEX
  8
0
  5
6AC4
 10
-66.4985
 20
298.970
 30
-6.64000e-14
  70
    32
  0
VERTEX
  8
0
  5
6AC5
 10
-66.4984
 20
298.969
 30
-6.64000e-14
  70
    32
  0
VERTEX
  8
0
  5
6AC6
 10
-66.4984
 20
298.968
 30
-6.64000e-14
  70
    32
  0
VERTEX
  8
0
  5
6AC7
 10
-66.4983
 20
298.966
 30
-6.64000e-14
  70
    32
  0
VERTEX
  8
0
  5
6AC8
 10
-66.4982
 20
298.965
 30
-6.64000e-14
  70
    32
  0
VERTEX
  8
0
  5
6AC9
 10
-66.4982
 20
298.964
 30
-6.64000e-14
  70
    32
  0
VERTEX
  8
0
  5
6ACA
 10
-66.4981
 20
298.962
 30
-6.64000e-14
  70
    32
  0
VERTEX
  8
0
  5
6ACB
 10
-66.4980
 20
298.961
 30
-6.64000e-14
  70
    32
  0
VERTEX
  8
0
  5
6ACC
 10
-66.4980
 20
298.959
 30
-6.64000e-14
  70
    32
  0
VERTEX
  8
0
  5
6ACD
 10
-66.4979
 20
298.958
 30
-6.64000e-14
  70
    32
  0
VERTEX
  8
0
  5
6ACE
 10
-66.4978
 20
298.956
 30
-6.64000e-14
  70
    32
  0
VERTEX
  8
0
  5
6ACF
 10
-66.4977
 20
298.955
 30
-6.64000e-14
  70
    32
  0
VERTEX
  8
0
  5
6AD0
 10
-66.4977
 20
298.953
 30
-6.64000e-14
  70
    32
  0
VERTEX
  8
0
  5
6AD1
 10
-66.4976
 20
298.951
 30
-6.64000e-14
  70
    32
  0
VERTEX
  8
0
  5
6AD2
 10
-66.4975
 20
298.950
 30
-6.64000e-14
  70
    32
  0
VERTEX
  8
0
  5
6AD3
 10
-66.4974
 20
298.948
 30
-6.64000e-14
  70
    32
  0
VERTEX
  8
0
  5
6AD4
 10
-66.4973
 20
298.946
 30
-6.64000e-14
  70
    32
  0
VERTEX
  8
0
  5
6AD5
 10
-66.4972
 20
298.945
 30
-6.64000e-14
  70
    32
  0
VERTEX
  8
0
  5
6AD6
 10
-66.4971
 20
298.943
 30
-6.64000e-14
  70
    32
  0
VERTEX
  8
0
  5
6AD7
 10
-66.4971
 20
298.941
 30
-6.64000e-14
  70
    32
  0
VERTEX
  8
0
  5
6AD8
 10
-66.4970
 20
298.939
 30
-6.64000e-14
  70
    32
  0
VERTEX
  8
0
  5
6AD9
 10
-66.4969
 20
298.937
 30
-6.64000e-14
  70
    32
  0
VERTEX
  8
0
  5
6ADA
 10
-66.4968
 20
298.935
 30
-6.64000e-14
  70
    32
  0
VERTEX
  8
0
  5
6ADB
 10
-66.4967
 20
298.934
 30
-6.64000e-14
  70
    32
  0
VERTEX
  8
0
  5
6ADC
 10
-66.4966
 20
298.932
 30
-6.64000e-14
  70
    32
  0
VERTEX
  8
0
  5
6ADD
 10
-66.4965
 20
298.930
 30
-6.64000e-14
  70
    32
  0
VERTEX
  8
0
  5
6ADE
 10
-66.4964
 20
298.928
 30
-6.64000e-14
  70
    32
  0
VERTEX
  8
0
  5
6ADF
 10
-66.4963
 20
298.926
 30
-6.64000e-14
  70
    32
  0
VERTEX
  8
0
  5
6AE0
 10
-66.4962
 20
298.924
 30
-6.63999e-14
  70
    32
  0
VERTEX
  8
0
  5
6AE1
 10
-66.4961
 20
298.921
 30
-6.63999e-14
  70
    32
  0
VERTEX
  8
0
  5
6AE2
 10
-66.4960
 20
298.919
 30
-6.63999e-14
  70
    32
  0
VERTEX
  8
0
  5
6AE3
 10
-66.4959
 20
298.917
 30
-6.63998e-14
  70
    32
  0
VERTEX
  8
0
  5
6AE4
 10
-66.4958
 20
298.915
 30
-6.63998e-14
  70
    32
  0
VERTEX
  8
0
  5
6AE5
 10
-66.4957
 20
298.913
 30
-6.63997e-14
  70
    32
  0
VERTEX
  8
0
  5
6AE6
 10
-66.4956
 20
298.911
 30
-6.63996e-14
  70
    32
  0
VERTEX
  8
0
  5
6AE7
 10
-66.4954
 20
298.908
 30
-6.63996e-14
  70
    32
  0
VERTEX
  8
0
  5
6AE8
 10
-66.4953
 20
298.906
 30
-6.63995e-14
  70
    32
  0
VERTEX
  8
0
  5
6AE9
 10
-66.4952
 20
298.904
 30
-6.63993e-14
  70
    32
  0
VERTEX
  8
0
  5
6AEA
 10
-66.4951
 20
298.901
 30
-6.63992e-14
  70
    32
  0
VERTEX
  8
0
  5
6AEB
 10
-66.4950
 20
298.899
 30
-6.63991e-14
  70
    32
  0
VERTEX
  8
0
  5
6AEC
 10
-66.4949
 20
298.897
 30
-6.63989e-14
  70
    32
  0
VERTEX
  8
0
  5
6AED
 10
-66.4947
 20
298.894
 30
-6.63987e-14
  70
    32
  0
VERTEX
  8
0
  5
6AEE
 10
-66.4946
 20
298.892
 30
-6.63985e-14
  70
    32
  0
VERTEX
  8
0
  5
6AEF
 10
-66.4945
 20
298.889
 30
-6.63983e-14
  70
    32
  0
VERTEX
  8
0
  5
6AF0
 10
-66.4944
 20
298.887
 30
-6.63980e-14
  70
    32
  0
VERTEX
  8
0
  5
6AF1
 10
-66.4943
 20
298.884
 30
-6.63978e-14
  70
    32
  0
VERTEX
  8
0
  5
6AF2
 10
-66.4941
 20
298.882
 30
-6.63975e-14
  70
    32
  0
VERTEX
  8
0
  5
6AF3
 10
-66.4940
 20
298.879
 30
-6.63972e-14
  70
    32
  0
VERTEX
  8
0
  5
6AF4
 10
-66.4939
 20
298.876
 30
-6.63968e-14
  70
    32
  0
VERTEX
  8
0
  5
6AF5
 10
-66.4938
 20
298.874
 30
-6.63965e-14
  70
    32
  0
VERTEX
  8
0
  5
6AF6
 10
-66.4936
 20
298.871
 30
-6.63961e-14
  70
    32
  0
VERTEX
  8
0
  5
6AF7
 10
-66.4935
 20
298.868
 30
-6.63957e-14
  70
    32
  0
VERTEX
  8
0
  5
6AF8
 10
-66.4934
 20
298.865
 30
-6.63952e-14
  70
    32
  0
VERTEX
  8
0
  5
6AF9
 10
-66.4932
 20
298.863
 30
-6.63947e-14
  70
    32
  0
VERTEX
  8
0
  5
6AFA
 10
-66.4931
 20
298.860
 30
-6.63942e-14
  70
    32
  0
VERTEX
  8
0
  5
6AFB
 10
-66.4930
 20
298.857
 30
-6.63937e-14
  70
    32
  0
VERTEX
  8
0
  5
6AFC
 10
-66.4928
 20
298.854
 30
-6.63931e-14
  70
    32
  0
VERTEX
  8
0
  5
6AFD
 10
-66.4927
 20
298.851
 30
-6.63925e-14
  70
    32
  0
VERTEX
  8
0
  5
6AFE
 10
-66.4925
 20
298.848
 30
-6.63919e-14
  70
    32
  0
VERTEX
  8
0
  5
6AFF
 10
-66.4924
 20
298.846
 30
-6.63912e-14
  70
    32
  0
VERTEX
  8
0
  5
6B00
 10
-66.4923
 20
298.843
 30
-6.63905e-14
  70
    32
  0
VERTEX
  8
0
  5
6B01
 10
-66.4921
 20
298.840
 30
-6.63897e-14
  70
    32
  0
VERTEX
  8
0
  5
6B02
 10
-66.4920
 20
298.837
 30
-6.63890e-14
  70
    32
  0
VERTEX
  8
0
  5
6B03
 10
-66.4918
 20
298.833
 30
-6.63881e-14
  70
    32
  0
VERTEX
  8
0
  5
6B04
 10
-66.4917
 20
298.830
 30
-6.63873e-14
  70
    32
  0
VERTEX
  8
0
  5
6B05
 10
-66.4915
 20
298.827
 30
-6.63864e-14
  70
    32
  0
VERTEX
  8
0
  5
6B06
 10
-66.4914
 20
298.824
 30
-6.63854e-14
  70
    32
  0
VERTEX
  8
0
  5
6B07
 10
-66.4912
 20
298.821
 30
-6.63844e-14
  70
    32
  0
VERTEX
  8
0
  5
6B08
 10
-66.4911
 20
298.818
 30
-6.63834e-14
  70
    32
  0
VERTEX
  8
0
  5
6B09
 10
-66.4909
 20
298.815
 30
-6.63823e-14
  70
    32
  0
VERTEX
  8
0
  5
6B0A
 10
-66.4908
 20
298.811
 30
-6.63812e-14
  70
    32
  0
VERTEX
  8
0
  5
6B0B
 10
-66.4906
 20
298.808
 30
-6.63800e-14
  70
    32
  0
VERTEX
  8
0
  5
6B0C
 10
-66.4905
 20
298.805
 30
-6.63788e-14
  70
    32
  0
VERTEX
  8
0
  5
6B0D
 10
-66.4903
 20
298.801
 30
-6.63775e-14
  70
    32
  0
VERTEX
  8
0
  5
6B0E
 10
-66.4901
 20
298.798
 30
-6.63762e-14
  70
    32
  0
VERTEX
  8
0
  5
6B0F
 10
-66.4900
 20
298.795
 30
-6.63748e-14
  70
    32
  0
VERTEX
  8
0
  5
6B10
 10
-66.4898
 20
298.791
 30
-6.63734e-14
  70
    32
  0
VERTEX
  8
0
  5
6B11
 10
-66.4897
 20
298.788
 30
-6.63719e-14
  70
    32
  0
VERTEX
  8
0
  5
6B12
 10
-66.4895
 20
298.784
 30
-6.63704e-14
  70
    32
  0
VERTEX
  8
0
  5
6B13
 10
-66.4893
 20
298.781
 30
-6.63688e-14
  70
    32
  0
VERTEX
  8
0
  5
6B14
 10
-66.4892
 20
298.777
 30
-6.63671e-14
  70
    32
  0
VERTEX
  8
0
  5
6B15
 10
-66.4890
 20
298.774
 30
-6.63654e-14
  70
    32
  0
VERTEX
  8
0
  5
6B16
 10
-66.4888
 20
298.770
 30
-6.63637e-14
  70
    32
  0
VERTEX
  8
0
  5
6B17
 10
-66.4887
 20
298.767
 30
-6.63619e-14
  70
    32
  0
VERTEX
  8
0
  5
6B18
 10
-66.4885
 20
298.763
 30
-6.63600e-14
  70
    32
  0
VERTEX
  8
0
  5
6B19
 10
-66.4883
 20
298.759
 30
-6.63581e-14
  70
    32
  0
VERTEX
  8
0
  5
6B1A
 10
-66.4881
 20
298.756
 30
-6.63561e-14
  70
    32
  0
VERTEX
  8
0
  5
6B1B
 10
-66.4880
 20
298.752
 30
-6.63540e-14
  70
    32
  0
VERTEX
  8
0
  5
6B1C
 10
-66.4878
 20
298.748
 30
-6.63519e-14
  70
    32
  0
VERTEX
  8
0
  5
6B1D
 10
-66.4876
 20
298.744
 30
-6.63497e-14
  70
    32
  0
VERTEX
  8
0
  5
6B1E
 10
-66.4874
 20
298.741
 30
-6.63476e-14
  70
    32
  0
VERTEX
  8
0
  5
6B1F
 10
-66.4873
 20
298.737
 30
-6.63455e-14
  70
    32
  0
VERTEX
  8
0
  5
6B20
 10
-66.4871
 20
298.733
 30
-6.63434e-14
  70
    32
  0
VERTEX
  8
0
  5
6B21
 10
-66.4869
 20
298.729
 30
-6.63414e-14
  70
    32
  0
VERTEX
  8
0
  5
6B22
 10
-66.4867
 20
298.725
 30
-6.63395e-14
  70
    32
  0
VERTEX
  8
0
  5
6B23
 10
-66.4865
 20
298.721
 30
-6.63376e-14
  70
    32
  0
VERTEX
  8
0
  5
6B24
 10
-66.4864
 20
298.717
 30
-6.63358e-14
  70
    32
  0
VERTEX
  8
0
  5
6B25
 10
-66.4862
 20
298.713
 30
-6.63340e-14
  70
    32
  0
VERTEX
  8
0
  5
6B26
 10
-66.4860
 20
298.709
 30
-6.63323e-14
  70
    32
  0
VERTEX
  8
0
  5
6B27
 10
-66.4858
 20
298.705
 30
-6.63306e-14
  70
    32
  0
VERTEX
  8
0
  5
6B28
 10
-66.4856
 20
298.701
 30
-6.63290e-14
  70
    32
  0
VERTEX
  8
0
  5
6B29
 10
-66.4854
 20
298.697
 30
-6.63274e-14
  70
    32
  0
VERTEX
  8
0
  5
6B2A
 10
-66.4852
 20
298.693
 30
-6.63259e-14
  70
    32
  0
VERTEX
  8
0
  5
6B2B
 10
-66.4851
 20
298.689
 30
-6.63244e-14
  70
    32
  0
VERTEX
  8
0
  5
6B2C
 10
-66.4849
 20
298.685
 30
-6.63229e-14
  70
    32
  0
VERTEX
  8
0
  5
6B2D
 10
-66.4847
 20
298.681
 30
-6.63215e-14
  70
    32
  0
VERTEX
  8
0
  5
6B2E
 10
-66.4845
 20
298.676
 30
-6.63201e-14
  70
    32
  0
VERTEX
  8
0
  5
6B2F
 10
-66.4843
 20
298.672
 30
-6.63188e-14
  70
    32
  0
VERTEX
  8
0
  5
6B30
 10
-66.4841
 20
298.668
 30
-6.63174e-14
  70
    32
  0
VERTEX
  8
0
  5
6B31
 10
-66.4839
 20
298.664
 30
-6.63161e-14
  70
    32
  0
VERTEX
  8
0
  5
6B32
 10
-66.4837
 20
298.659
 30
-6.63149e-14
  70
    32
  0
VERTEX
  8
0
  5
6B33
 10
-66.4835
 20
298.655
 30
-6.63136e-14
  70
    32
  0
VERTEX
  8
0
  5
6B34
 10
-66.4833
 20
298.651
 30
-6.63124e-14
  70
    32
  0
VERTEX
  8
0
  5
6B35
 10
-66.4831
 20
298.646
 30
-6.63112e-14
  70
    32
  0
VERTEX
  8
0
  5
6B36
 10
-66.4829
 20
298.642
 30
-6.63100e-14
  70
    32
  0
VERTEX
  8
0
  5
6B37
 10
-66.4827
 20
298.637
 30
-6.63088e-14
  70
    32
  0
VERTEX
  8
0
  5
6B38
 10
-66.4825
 20
298.633
 30
-6.63077e-14
  70
    32
  0
VERTEX
  8
0
  5
6B39
 10
-66.4823
 20
298.628
 30
-6.63065e-14
  70
    32
  0
VERTEX
  8
0
  5
6B3A
 10
-66.4821
 20
298.624
 30
-6.63054e-14
  70
    32
  0
VERTEX
  8
0
  5
6B3B
 10
-66.4819
 20
298.619
 30
-6.63043e-14
  70
    32
  0
VERTEX
  8
0
  5
6B3C
 10
-66.4817
 20
298.615
 30
-6.63031e-14
  70
    32
  0
VERTEX
  8
0
  5
6B3D
 10
-66.4815
 20
298.610
 30
-6.63020e-14
  70
    32
  0
VERTEX
  8
0
  5
6B3E
 10
-66.4813
 20
298.605
 30
-6.63009e-14
  70
    32
  0
VERTEX
  8
0
  5
6B3F
 10
-66.4811
 20
298.601
 30
-6.62998e-14
  70
    32
  0
VERTEX
  8
0
  5
6B40
 10
-66.4809
 20
298.596
 30
-6.62987e-14
  70
    32
  0
VERTEX
  8
0
  5
6B41
 10
-66.4807
 20
298.591
 30
-6.62976e-14
  70
    32
  0
VERTEX
  8
0
  5
6B42
 10
-66.4805
 20
298.587
 30
-6.62965e-14
  70
    32
  0
VERTEX
  8
0
  5
6B43
 10
-66.4803
 20
298.582
 30
-6.62954e-14
  70
    32
  0
VERTEX
  8
0
  5
6B44
 10
-66.4800
 20
298.577
 30
-6.62943e-14
  70
    32
  0
VERTEX
  8
0
  5
6B45
 10
-66.4798
 20
298.572
 30
-6.62931e-14
  70
    32
  0
VERTEX
  8
0
  5
6B46
 10
-66.4796
 20
298.568
 30
-6.62920e-14
  70
    32
  0
VERTEX
  8
0
  5
6B47
 10
-66.4794
 20
298.563
 30
-6.62908e-14
  70
    32
  0
VERTEX
  8
0
  5
6B48
 10
-66.4792
 20
298.558
 30
-6.62896e-14
  70
    32
  0
VERTEX
  8
0
  5
6B49
 10
-66.4790
 20
298.553
 30
-6.62885e-14
  70
    32
  0
VERTEX
  8
0
  5
6B4A
 10
-66.4788
 20
298.548
 30
-6.62872e-14
  70
    32
  0
VERTEX
  8
0
  5
6B4B
 10
-66.4786
 20
298.543
 30
-6.62860e-14
  70
    32
  0
VERTEX
  8
0
  5
6B4C
 10
-66.4783
 20
298.538
 30
-6.62847e-14
  70
    32
  0
VERTEX
  8
0
  5
6B4D
 10
-66.4781
 20
298.533
 30
-6.62835e-14
  70
    32
  0
VERTEX
  8
0
  5
6B4E
 10
-66.4779
 20
298.528
 30
-6.62822e-14
  70
    32
  0
VERTEX
  8
0
  5
6B4F
 10
-66.4777
 20
298.523
 30
-6.62808e-14
  70
    32
  0
VERTEX
  8
0
  5
6B50
 10
-66.4775
 20
298.518
 30
-6.62794e-14
  70
    32
  0
VERTEX
  8
0
  5
6B51
 10
-66.4773
 20
298.513
 30
-6.62780e-14
  70
    32
  0
VERTEX
  8
0
  5
6B52
 10
-66.4770
 20
298.508
 30
-6.62766e-14
  70
    32
  0
VERTEX
  8
0
  5
6B53
 10
-66.4768
 20
298.503
 30
-6.62751e-14
  70
    32
  0
VERTEX
  8
0
  5
6B54
 10
-66.4766
 20
298.498
 30
-6.62736e-14
  70
    32
  0
VERTEX
  8
0
  5
6B55
 10
-66.4764
 20
298.493
 30
-6.62721e-14
  70
    32
  0
VERTEX
  8
0
  5
6B56
 10
-66.4762
 20
298.487
 30
-6.62705e-14
  70
    32
  0
VERTEX
  8
0
  5
6B57
 10
-66.4759
 20
298.482
 30
-6.62688e-14
  70
    32
  0
VERTEX
  8
0
  5
6B58
 10
-66.4757
 20
298.477
 30
-6.62672e-14
  70
    32
  0
VERTEX
  8
0
  5
6B59
 10
-66.4755
 20
298.472
 30
-6.62654e-14
  70
    32
  0
VERTEX
  8
0
  5
6B5A
 10
-66.4753
 20
298.467
 30
-6.62636e-14
  70
    32
  0
VERTEX
  8
0
  5
6B5B
 10
-66.4750
 20
298.461
 30
-6.62618e-14
  70
    32
  0
VERTEX
  8
0
  5
6B5C
 10
-66.4748
 20
298.456
 30
-6.62599e-14
  70
    32
  0
VERTEX
  8
0
  5
6B5D
 10
-66.4746
 20
298.451
 30
-6.62580e-14
  70
    32
  0
VERTEX
  8
0
  5
6B5E
 10
-66.4744
 20
298.445
 30
-6.62560e-14
  70
    32
  0
VERTEX
  8
0
  5
6B5F
 10
-66.4741
 20
298.440
 30
-6.62539e-14
  70
    32
  0
VERTEX
  8
0
  5
6B60
 10
-66.4739
 20
298.434
 30
-6.62518e-14
  70
    32
  0
VERTEX
  8
0
  5
6B61
 10
-66.4737
 20
298.429
 30
-6.62496e-14
  70
    32
  0
VERTEX
  8
0
  5
6B62
 10
-66.4735
 20
298.424
 30
-6.62474e-14
  70
    32
  0
VERTEX
  8
0
  5
6B63
 10
-66.4732
 20
298.418
 30
-6.62453e-14
  70
    32
  0
VERTEX
  8
0
  5
6B64
 10
-66.4730
 20
298.413
 30
-6.62433e-14
  70
    32
  0
VERTEX
  8
0
  5
6B65
 10
-66.4728
 20
298.407
 30
-6.62413e-14
  70
    32
  0
VERTEX
  8
0
  5
6B66
 10
-66.4725
 20
298.402
 30
-6.62394e-14
  70
    32
  0
VERTEX
  8
0
  5
6B67
 10
-66.4723
 20
298.396
 30
-6.62375e-14
  70
    32
  0
VERTEX
  8
0
  5
6B68
 10
-66.4721
 20
298.390
 30
-6.62357e-14
  70
    32
  0
VERTEX
  8
0
  5
6B69
 10
-66.4719
 20
298.385
 30
-6.62339e-14
  70
    32
  0
VERTEX
  8
0
  5
6B6A
 10
-66.4716
 20
298.379
 30
-6.62322e-14
  70
    32
  0
VERTEX
  8
0
  5
6B6B
 10
-66.4714
 20
298.374
 30
-6.62305e-14
  70
    32
  0
VERTEX
  8
0
  5
6B6C
 10
-66.4712
 20
298.368
 30
-6.62289e-14
  70
    32
  0
VERTEX
  8
0
  5
6B6D
 10
-66.4709
 20
298.362
 30
-6.62273e-14
  70
    32
  0
VERTEX
  8
0
  5
6B6E
 10
-66.4707
 20
298.357
 30
-6.62258e-14
  70
    32
  0
VERTEX
  8
0
  5
6B6F
 10
-66.4705
 20
298.351
 30
-6.62243e-14
  70
    32
  0
VERTEX
  8
0
  5
6B70
 10
-66.4702
 20
298.345
 30
-6.62228e-14
  70
    32
  0
VERTEX
  8
0
  5
6B71
 10
-66.4700
 20
298.339
 30
-6.62214e-14
  70
    32
  0
VERTEX
  8
0
  5
6B72
 10
-66.4698
 20
298.334
 30
-6.62200e-14
  70
    32
  0
VERTEX
  8
0
  5
6B73
 10
-66.4695
 20
298.328
 30
-6.62187e-14
  70
    32
  0
VERTEX
  8
0
  5
6B74
 10
-66.4693
 20
298.322
 30
-6.62173e-14
  70
    32
  0
VERTEX
  8
0
  5
6B75
 10
-66.4691
 20
298.316
 30
-6.62160e-14
  70
    32
  0
VERTEX
  8
0
  5
6B76
 10
-66.4688
 20
298.310
 30
-6.62148e-14
  70
    32
  0
VERTEX
  8
0
  5
6B77
 10
-66.4686
 20
298.305
 30
-6.62135e-14
  70
    32
  0
VERTEX
  8
0
  5
6B78
 10
-66.4684
 20
298.299
 30
-6.62123e-14
  70
    32
  0
VERTEX
  8
0
  5
6B79
 10
-66.4681
 20
298.293
 30
-6.62111e-14
  70
    32
  0
VERTEX
  8
0
  5
6B7A
 10
-66.4679
 20
298.287
 30
-6.62099e-14
  70
    32
  0
VERTEX
  8
0
  5
6B7B
 10
-66.4677
 20
298.281
 30
-6.62087e-14
  70
    32
  0
VERTEX
  8
0
  5
6B7C
 10
-66.4674
 20
298.275
 30
-6.62076e-14
  70
    32
  0
VERTEX
  8
0
  5
6B7D
 10
-66.4672
 20
298.269
 30
-6.62064e-14
  70
    32
  0
VERTEX
  8
0
  5
6B7E
 10
-66.4669
 20
298.263
 30
-6.62053e-14
  70
    32
  0
VERTEX
  8
0
  5
6B7F
 10
-66.4667
 20
298.257
 30
-6.62042e-14
  70
    32
  0
VERTEX
  8
0
  5
6B80
 10
-66.4665
 20
298.251
 30
-6.62031e-14
  70
    32
  0
VERTEX
  8
0
  5
6B81
 10
-66.4662
 20
298.245
 30
-6.62020e-14
  70
    32
  0
VERTEX
  8
0
  5
6B82
 10
-66.4660
 20
298.239
 30
-6.62009e-14
  70
    32
  0
VERTEX
  8
0
  5
6B83
 10
-66.4658
 20
298.233
 30
-6.61998e-14
  70
    32
  0
VERTEX
  8
0
  5
6B84
 10
-66.4655
 20
298.227
 30
-6.61987e-14
  70
    32
  0
VERTEX
  8
0
  5
6B85
 10
-66.4653
 20
298.221
 30
-6.61975e-14
  70
    32
  0
VERTEX
  8
0
  5
6B86
 10
-66.4651
 20
298.214
 30
-6.61964e-14
  70
    32
  0
VERTEX
  8
0
  5
6B87
 10
-66.4648
 20
298.208
 30
-6.61953e-14
  70
    32
  0
VERTEX
  8
0
  5
6B88
 10
-66.4646
 20
298.202
 30
-6.61942e-14
  70
    32
  0
VERTEX
  8
0
  5
6B89
 10
-66.4643
 20
298.196
 30
-6.61931e-14
  70
    32
  0
VERTEX
  8
0
  5
6B8A
 10
-66.4641
 20
298.190
 30
-6.61919e-14
  70
    32
  0
VERTEX
  8
0
  5
6B8B
 10
-66.4639
 20
298.184
 30
-6.61907e-14
  70
    32
  0
VERTEX
  8
0
  5
6B8C
 10
-66.4636
 20
298.177
 30
-6.61896e-14
  70
    32
  0
VERTEX
  8
0
  5
6B8D
 10
-66.4634
 20
298.171
 30
-6.61884e-14
  70
    32
  0
VERTEX
  8
0
  5
6B8E
 10
-66.4632
 20
298.165
 30
-6.61872e-14
  70
    32
  0
VERTEX
  8
0
  5
6B8F
 10
-66.4629
 20
298.159
 30
-6.61859e-14
  70
    32
  0
VERTEX
  8
0
  5
6B90
 10
-66.4627
 20
298.152
 30
-6.61847e-14
  70
    32
  0
VERTEX
  8
0
  5
6B91
 10
-66.4625
 20
298.146
 30
-6.61834e-14
  70
    32
  0
VERTEX
  8
0
  5
6B92
 10
-66.4622
 20
298.140
 30
-6.61821e-14
  70
    32
  0
VERTEX
  8
0
  5
6B93
 10
-66.4620
 20
298.133
 30
-6.61807e-14
  70
    32
  0
VERTEX
  8
0
  5
6B94
 10
-66.4617
 20
298.127
 30
-6.61794e-14
  70
    32
  0
VERTEX
  8
0
  5
6B95
 10
-66.4615
 20
298.121
 30
-6.61780e-14
  70
    32
  0
VERTEX
  8
0
  5
6B96
 10
-66.4613
 20
298.114
 30
-6.61765e-14
  70
    32
  0
VERTEX
  8
0
  5
6B97
 10
-66.4610
 20
298.108
 30
-6.61750e-14
  70
    32
  0
VERTEX
  8
0
  5
6B98
 10
-66.4608
 20
298.102
 30
-6.61735e-14
  70
    32
  0
VERTEX
  8
0
  5
6B99
 10
-66.4606
 20
298.095
 30
-6.61720e-14
  70
    32
  0
VERTEX
  8
0
  5
6B9A
 10
-66.4603
 20
298.089
 30
-6.61704e-14
  70
    32
  0
VERTEX
  8
0
  5
6B9B
 10
-66.4601
 20
298.082
 30
-6.61687e-14
  70
    32
  0
VERTEX
  8
0
  5
6B9C
 10
-66.4599
 20
298.076
 30
-6.61670e-14
  70
    32
  0
VERTEX
  8
0
  5
6B9D
 10
-66.4596
 20
298.069
 30
-6.61653e-14
  70
    32
  0
VERTEX
  8
0
  5
6B9E
 10
-66.4594
 20
298.063
 30
-6.61635e-14
  70
    32
  0
VERTEX
  8
0
  5
6B9F
 10
-66.4591
 20
298.056
 30
-6.61617e-14
  70
    32
  0
VERTEX
  8
0
  5
6BA0
 10
-66.4589
 20
298.050
 30
-6.61598e-14
  70
    32
  0
VERTEX
  8
0
  5
6BA1
 10
-66.4587
 20
298.043
 30
-6.61578e-14
  70
    32
  0
VERTEX
  8
0
  5
6BA2
 10
-66.4584
 20
298.037
 30
-6.61558e-14
  70
    32
  0
VERTEX
  8
0
  5
6BA3
 10
-66.4582
 20
298.030
 30
-6.61538e-14
  70
    32
  0
VERTEX
  8
0
  5
6BA4
 10
-66.4580
 20
298.024
 30
-6.61516e-14
  70
    32
  0
VERTEX
  8
0
  5
6BA5
 10
-66.4577
 20
298.017
 30
-6.61494e-14
  70
    32
  0
VERTEX
  8
0
  5
6BA6
 10
-66.4575
 20
298.011
 30
-6.61473e-14
  70
    32
  0
VERTEX
  8
0
  5
6BA7
 10
-66.4573
 20
298.004
 30
-6.61452e-14
  70
    32
  0
VERTEX
  8
0
  5
6BA8
 10
-66.4570
 20
297.997
 30
-6.61432e-14
  70
    32
  0
VERTEX
  8
0
  5
6BA9
 10
-66.4568
 20
297.991
 30
-6.61412e-14
  70
    32
  0
VERTEX
  8
0
  5
6BAA
 10
-66.4566
 20
297.984
 30
-6.61393e-14
  70
    32
  0
VERTEX
  8
0
  5
6BAB
 10
-66.4563
 20
297.977
 30
-6.61374e-14
  70
    32
  0
VERTEX
  8
0
  5
6BAC
 10
-66.4561
 20
297.971
 30
-6.61356e-14
  70
    32
  0
VERTEX
  8
0
  5
6BAD
 10
-66.4559
 20
297.964
 30
-6.61338e-14
  70
    32
  0
VERTEX
  8
0
  5
6BAE
 10
-66.4556
 20
297.957
 30
-6.61321e-14
  70
    32
  0
VERTEX
  8
0
  5
6BAF
 10
-66.4554
 20
297.950
 30
-6.61304e-14
  70
    32
  0
VERTEX
  8
0
  5
6BB0
 10
-66.4552
 20
297.943
 30
-6.61288e-14
  70
    32
  0
VERTEX
  8
0
  5
6BB1
 10
-66.4549
 20
297.937
 30
-6.61272e-14
  70
    32
  0
VERTEX
  8
0
  5
6BB2
 10
-66.4547
 20
297.930
 30
-6.61257e-14
  70
    32
  0
VERTEX
  8
0
  5
6BB3
 10
-66.4544
 20
297.923
 30
-6.61242e-14
  70
    32
  0
VERTEX
  8
0
  5
6BB4
 10
-66.4542
 20
297.916
 30
-6.61228e-14
  70
    32
  0
VERTEX
  8
0
  5
6BB5
 10
-66.4540
 20
297.909
 30
-6.61213e-14
  70
    32
  0
VERTEX
  8
0
  5
6BB6
 10
-66.4537
 20
297.902
 30
-6.61199e-14
  70
    32
  0
VERTEX
  8
0
  5
6BB7
 10
-66.4535
 20
297.895
 30
-6.61186e-14
  70
    32
  0
VERTEX
  8
0
  5
6BB8
 10
-66.4533
 20
297.888
 30
-6.61173e-14
  70
    32
  0
VERTEX
  8
0
  5
6BB9
 10
-66.4530
 20
297.881
 30
-6.61160e-14
  70
    32
  0
VERTEX
  8
0
  5
6BBA
 10
-66.4528
 20
297.874
 30
-6.61147e-14
  70
    32
  0
VERTEX
  8
0
  5
6BBB
 10
-66.4525
 20
297.867
 30
-6.61135e-14
  70
    32
  0
VERTEX
  8
0
  5
6BBC
 10
-66.4523
 20
297.860
 30
-6.61122e-14
  70
    32
  0
VERTEX
  8
0
  5
6BBD
 10
-66.4521
 20
297.852
 30
-6.61110e-14
  70
    32
  0
VERTEX
  8
0
  5
6BBE
 10
-66.4518
 20
297.845
 30
-6.61098e-14
  70
    32
  0
VERTEX
  8
0
  5
6BBF
 10
-66.4516
 20
297.838
 30
-6.61087e-14
  70
    32
  0
VERTEX
  8
0
  5
6BC0
 10
-66.4514
 20
297.831
 30
-6.61075e-14
  70
    32
  0
VERTEX
  8
0
  5
6BC1
 10
-66.4511
 20
297.824
 30
-6.61064e-14
  70
    32
  0
VERTEX
  8
0
  5
6BC2
 10
-66.4509
 20
297.816
 30
-6.61052e-14
  70
    32
  0
VERTEX
  8
0
  5
6BC3
 10
-66.4507
 20
297.809
 30
-6.61041e-14
  70
    32
  0
VERTEX
  8
0
  5
6BC4
 10
-66.4504
 20
297.802
 30
-6.61030e-14
  70
    32
  0
VERTEX
  8
0
  5
6BC5
 10
-66.4502
 20
297.794
 30
-6.61019e-14
  70
    32
  0
VERTEX
  8
0
  5
6BC6
 10
-66.4499
 20
297.787
 30
-6.61008e-14
  70
    32
  0
VERTEX
  8
0
  5
6BC7
 10
-66.4497
 20
297.780
 30
-6.60997e-14
  70
    32
  0
VERTEX
  8
0
  5
6BC8
 10
-66.4495
 20
297.772
 30
-6.60986e-14
  70
    32
  0
VERTEX
  8
0
  5
6BC9
 10
-66.4492
 20
297.765
 30
-6.60975e-14
  70
    32
  0
VERTEX
  8
0
  5
6BCA
 10
-66.4490
 20
297.758
 30
-6.60964e-14
  70
    32
  0
VERTEX
  8
0
  5
6BCB
 10
-66.4488
 20
297.750
 30
-6.60952e-14
  70
    32
  0
VERTEX
  8
0
  5
6BCC
 10
-66.4485
 20
297.743
 30
-6.60941e-14
  70
    32
  0
VERTEX
  8
0
  5
6BCD
 10
-66.4483
 20
297.735
 30
-6.60930e-14
  70
    32
  0
VERTEX
  8
0
  5
6BCE
 10
-66.4481
 20
297.728
 30
-6.60918e-14
  70
    32
  0
VERTEX
  8
0
  5
6BCF
 10
-66.4478
 20
297.720
 30
-6.60907e-14
  70
    32
  0
VERTEX
  8
0
  5
6BD0
 10
-66.4476
 20
297.712
 30
-6.60895e-14
  70
    32
  0
VERTEX
  8
0
  5
6BD1
 10
-66.4473
 20
297.705
 30
-6.60883e-14
  70
    32
  0
VERTEX
  8
0
  5
6BD2
 10
-66.4471
 20
297.697
 30
-6.60871e-14
  70
    32
  0
VERTEX
  8
0
  5
6BD3
 10
-66.4469
 20
297.690
 30
-6.60859e-14
  70
    32
  0
VERTEX
  8
0
  5
6BD4
 10
-66.4466
 20
297.682
 30
-6.60846e-14
  70
    32
  0
VERTEX
  8
0
  5
6BD5
 10
-66.4464
 20
297.674
 30
-6.60833e-14
  70
    32
  0
VERTEX
  8
0
  5
6BD6
 10
-66.4462
 20
297.667
 30
-6.60820e-14
  70
    32
  0
VERTEX
  8
0
  5
6BD7
 10
-66.4459
 20
297.659
 30
-6.60806e-14
  70
    32
  0
VERTEX
  8
0
  5
6BD8
 10
-66.4457
 20
297.651
 30
-6.60793e-14
  70
    32
  0
VERTEX
  8
0
  5
6BD9
 10
-66.4455
 20
297.643
 30
-6.60779e-14
  70
    32
  0
VERTEX
  8
0
  5
6BDA
 10
-66.4452
 20
297.636
 30
-6.60764e-14
  70
    32
  0
VERTEX
  8
0
  5
6BDB
 10
-66.4450
 20
297.628
 30
-6.60749e-14
  70
    32
  0
VERTEX
  8
0
  5
6BDC
 10
-66.4448
 20
297.620
 30
-6.60734e-14
  70
    32
  0
VERTEX
  8
0
  5
6BDD
 10
-66.4445
 20
297.612
 30
-6.60719e-14
  70
    32
  0
VERTEX
  8
0
  5
6BDE
 10
-66.4443
 20
297.604
 30
-6.60703e-14
  70
    32
  0
VERTEX
  8
0
  5
6BDF
 10
-66.4441
 20
297.597
 30
-6.60686e-14
  70
    32
  0
VERTEX
  8
0
  5
6BE0
 10
-66.4439
 20
297.589
 30
-6.60669e-14
  70
    32
  0
VERTEX
  8
0
  5
6BE1
 10
-66.4436
 20
297.581
 30
-6.60652e-14
  70
    32
  0
VERTEX
  8
0
  5
6BE2
 10
-66.4434
 20
297.573
 30
-6.60634e-14
  70
    32
  0
VERTEX
  8
0
  5
6BE3
 10
-66.4432
 20
297.565
 30
-6.60616e-14
  70
    32
  0
VERTEX
  8
0
  5
6BE4
 10
-66.4429
 20
297.557
 30
-6.60597e-14
  70
    32
  0
VERTEX
  8
0
  5
6BE5
 10
-66.4427
 20
297.549
 30
-6.60577e-14
  70
    32
  0
VERTEX
  8
0
  5
6BE6
 10
-66.4425
 20
297.541
 30
-6.60557e-14
  70
    32
  0
VERTEX
  8
0
  5
6BE7
 10
-66.4422
 20
297.533
 30
-6.60536e-14
  70
    32
  0
VERTEX
  8
0
  5
6BE8
 10
-66.4420
 20
297.525
 30
-6.60515e-14
  70
    32
  0
VERTEX
  8
0
  5
6BE9
 10
-66.4418
 20
297.517
 30
-6.60493e-14
  70
    32
  0
VERTEX
  8
0
  5
6BEA
 10
-66.4416
 20
297.509
 30
-6.60472e-14
  70
    32
  0
VERTEX
  8
0
  5
6BEB
 10
-66.4413
 20
297.500
 30
-6.60451e-14
  70
    32
  0
VERTEX
  8
0
  5
6BEC
 10
-66.4411
 20
297.492
 30
-6.60430e-14
  70
    32
  0
VERTEX
  8
0
  5
6BED
 10
-66.4409
 20
297.484
 30
-6.60411e-14
  70
    32
  0
VERTEX
  8
0
  5
6BEE
 10
-66.4407
 20
297.476
 30
-6.60391e-14
  70
    32
  0
VERTEX
  8
0
  5
6BEF
 10
-66.4404
 20
297.468
 30
-6.60373e-14
  70
    32
  0
VERTEX
  8
0
  5
6BF0
 10
-66.4402
 20
297.460
 30
-6.60355e-14
  70
    32
  0
VERTEX
  8
0
  5
6BF1
 10
-66.4400
 20
297.451
 30
-6.60337e-14
  70
    32
  0
VERTEX
  8
0
  5
6BF2
 10
-66.4398
 20
297.443
 30
-6.60320e-14
  70
    32
  0
VERTEX
  8
0
  5
6BF3
 10
-66.4395
 20
297.435
 30
-6.60303e-14
  70
    32
  0
VERTEX
  8
0
  5
6BF4
 10
-66.4393
 20
297.427
 30
-6.60287e-14
  70
    32
  0
VERTEX
  8
0
  5
6BF5
 10
-66.4391
 20
297.418
 30
-6.60271e-14
  70
    32
  0
VERTEX
  8
0
  5
6BF6
 10
-66.4389
 20
297.410
 30
-6.60256e-14
  70
    32
  0
VERTEX
  8
0
  5
6BF7
 10
-66.4387
 20
297.402
 30
-6.60241e-14
  70
    32
  0
VERTEX
  8
0
  5
6BF8
 10
-66.4384
 20
297.393
 30
-6.60227e-14
  70
    32
  0
VERTEX
  8
0
  5
6BF9
 10
-66.4382
 20
297.385
 30
-6.60212e-14
  70
    32
  0
VERTEX
  8
0
  5
6BFA
 10
-66.4380
 20
297.377
 30
-6.60199e-14
  70
    32
  0
VERTEX
  8
0
  5
6BFB
 10
-66.4378
 20
297.368
 30
-6.60185e-14
  70
    32
  0
VERTEX
  8
0
  5
6BFC
 10
-66.4376
 20
297.360
 30
-6.60172e-14
  70
    32
  0
VERTEX
  8
0
  5
6BFD
 10
-66.4374
 20
297.351
 30
-6.60159e-14
  70
    32
  0
VERTEX
  8
0
  5
6BFE
 10
-66.4371
 20
297.343
 30
-6.60146e-14
  70
    32
  0
VERTEX
  8
0
  5
6BFF
 10
-66.4369
 20
297.334
 30
-6.60134e-14
  70
    32
  0
VERTEX
  8
0
  5
6C00
 10
-66.4367
 20
297.326
 30
-6.60121e-14
  70
    32
  0
VERTEX
  8
0
  5
6C01
 10
-66.4365
 20
297.317
 30
-6.60109e-14
  70
    32
  0
VERTEX
  8
0
  5
6C02
 10
-66.4363
 20
297.309
 30
-6.60098e-14
  70
    32
  0
VERTEX
  8
0
  5
6C03
 10
-66.4361
 20
297.300
 30
-6.60086e-14
  70
    32
  0
VERTEX
  8
0
  5
6C04
 10
-66.4359
 20
297.292
 30
-6.60074e-14
  70
    32
  0
VERTEX
  8
0
  5
6C05
 10
-66.4356
 20
297.283
 30
-6.60063e-14
  70
    32
  0
VERTEX
  8
0
  5
6C06
 10
-66.4354
 20
297.275
 30
-6.60052e-14
  70
    32
  0
VERTEX
  8
0
  5
6C07
 10
-66.4352
 20
297.266
 30
-6.60041e-14
  70
    32
  0
VERTEX
  8
0
  5
6C08
 10
-66.4350
 20
297.257
 30
-6.60029e-14
  70
    32
  0
VERTEX
  8
0
  5
6C09
 10
-66.4348
 20
297.249
 30
-6.60018e-14
  70
    32
  0
VERTEX
  8
0
  5
6C0A
 10
-66.4346
 20
297.240
 30
-6.60007e-14
  70
    32
  0
VERTEX
  8
0
  5
6C0B
 10
-66.4344
 20
297.231
 30
-6.59996e-14
  70
    32
  0
VERTEX
  8
0
  5
6C0C
 10
-66.4342
 20
297.223
 30
-6.59985e-14
  70
    32
  0
VERTEX
  8
0
  5
6C0D
 10
-66.4340
 20
297.214
 30
-6.59974e-14
  70
    32
  0
VERTEX
  8
0
  5
6C0E
 10
-66.4338
 20
297.205
 30
-6.59963e-14
  70
    32
  0
VERTEX
  8
0
  5
6C0F
 10
-66.4336
 20
297.197
 30
-6.59952e-14
  70
    32
  0
VERTEX
  8
0
  5
6C10
 10
-66.4334
 20
297.188
 30
-6.59941e-14
  70
    32
  0
VERTEX
  8
0
  5
6C11
 10
-66.4332
 20
297.179
 30
-6.59929e-14
  70
    32
  0
VERTEX
  8
0
  5
6C12
 10
-66.4330
 20
297.170
 30
-6.59918e-14
  70
    32
  0
VERTEX
  8
0
  5
6C13
 10
-66.4328
 20
297.162
 30
-6.59906e-14
  70
    32
  0
VERTEX
  8
0
  5
6C14
 10
-66.4326
 20
297.153
 30
-6.59894e-14
  70
    32
  0
VERTEX
  8
0
  5
6C15
 10
-66.4324
 20
297.144
 30
-6.59882e-14
  70
    32
  0
VERTEX
  8
0
  5
6C16
 10
-66.4322
 20
297.135
 30
-6.59870e-14
  70
    32
  0
VERTEX
  8
0
  5
6C17
 10
-66.4320
 20
297.126
 30
-6.59858e-14
  70
    32
  0
VERTEX
  8
0
  5
6C18
 10
-66.4318
 20
297.117
 30
-6.59845e-14
  70
    32
  0
VERTEX
  8
0
  5
6C19
 10
-66.4316
 20
297.109
 30
-6.59832e-14
  70
    32
  0
VERTEX
  8
0
  5
6C1A
 10
-66.4314
 20
297.100
 30
-6.59819e-14
  70
    32
  0
VERTEX
  8
0
  5
6C1B
 10
-66.4312
 20
297.091
 30
-6.59806e-14
  70
    32
  0
VERTEX
  8
0
  5
6C1C
 10
-66.4310
 20
297.082
 30
-6.59792e-14
  70
    32
  0
VERTEX
  8
0
  5
6C1D
 10
-66.4308
 20
297.073
 30
-6.59778e-14
  70
    32
  0
VERTEX
  8
0
  5
6C1E
 10
-66.4306
 20
297.064
 30
-6.59763e-14
  70
    32
  0
VERTEX
  8
0
  5
6C1F
 10
-66.4304
 20
297.055
 30
-6.59749e-14
  70
    32
  0
VERTEX
  8
0
  5
6C20
 10
-66.4302
 20
297.046
 30
-6.59733e-14
  70
    32
  0
VERTEX
  8
0
  5
6C21
 10
-66.4301
 20
297.037
 30
-6.59718e-14
  70
    32
  0
VERTEX
  8
0
  5
6C22
 10
-66.4299
 20
297.028
 30
-6.59702e-14
  70
    32
  0
VERTEX
  8
0
  5
6C23
 10
-66.4297
 20
297.019
 30
-6.59685e-14
  70
    32
  0
VERTEX
  8
0
  5
6C24
 10
-66.4295
 20
297.010
 30
-6.59668e-14
  70
    32
  0
VERTEX
  8
0
  5
6C25
 10
-66.4293
 20
297.001
 30
-6.59651e-14
  70
    32
  0
VERTEX
  8
0
  5
6C26
 10
-66.4291
 20
296.992
 30
-6.59633e-14
  70
    32
  0
VERTEX
  8
0
  5
6C27
 10
-66.4289
 20
296.983
 30
-6.59614e-14
  70
    32
  0
VERTEX
  8
0
  5
6C28
 10
-66.4288
 20
296.974
 30
-6.59595e-14
  70
    32
  0
VERTEX
  8
0
  5
6C29
 10
-66.4286
 20
296.965
 30
-6.59576e-14
  70
    32
  0
VERTEX
  8
0
  5
6C2A
 10
-66.4284
 20
296.956
 30
-6.59556e-14
  70
    32
  0
VERTEX
  8
0
  5
6C2B
 10
-66.4282
 20
296.947
 30
-6.59535e-14
  70
    32
  0
VERTEX
  8
0
  5
6C2C
 10
-66.4281
 20
296.938
 30
-6.59514e-14
  70
    32
  0
VERTEX
  8
0
  5
6C2D
 10
-66.4279
 20
296.929
 30
-6.59492e-14
  70
    32
  0
VERTEX
  8
0
  5
6C2E
 10
-66.4277
 20
296.920
 30
-6.59469e-14
  70
    32
  0
VERTEX
  8
0
  5
6C2F
 10
-66.4275
 20
296.910
 30
-6.59446e-14
  70
    32
  0
VERTEX
  8
0
  5
6C30
 10
-66.4274
 20
296.901
 30
-6.59422e-14
  70
    32
  0
VERTEX
  8
0
  5
6C31
 10
-66.4272
 20
296.892
 30
-6.59397e-14
  70
    32
  0
VERTEX
  8
0
  5
6C32
 10
-66.4270
 20
296.883
 30
-6.59372e-14
  70
    32
  0
VERTEX
  8
0
  5
6C33
 10
-66.4268
 20
296.874
 30
-6.59347e-14
  70
    32
  0
VERTEX
  8
0
  5
6C34
 10
-66.4267
 20
296.865
 30
-6.59321e-14
  70
    32
  0
VERTEX
  8
0
  5
6C35
 10
-66.4265
 20
296.855
 30
-6.59294e-14
  70
    32
  0
VERTEX
  8
0
  5
6C36
 10
-66.4263
 20
296.846
 30
-6.59267e-14
  70
    32
  0
VERTEX
  8
0
  5
6C37
 10
-66.4262
 20
296.837
 30
-6.59240e-14
  70
    32
  0
VERTEX
  8
0
  5
6C38
 10
-66.4260
 20
296.828
 30
-6.59211e-14
  70
    32
  0
VERTEX
  8
0
  5
6C39
 10
-66.4258
 20
296.819
 30
-6.59183e-14
  70
    32
  0
VERTEX
  8
0
  5
6C3A
 10
-66.4257
 20
296.809
 30
-6.59154e-14
  70
    32
  0
VERTEX
  8
0
  5
6C3B
 10
-66.4255
 20
296.800
 30
-6.59125e-14
  70
    32
  0
VERTEX
  8
0
  5
6C3C
 10
-66.4254
 20
296.791
 30
-6.59095e-14
  70
    32
  0
VERTEX
  8
0
  5
6C3D
 10
-66.4252
 20
296.781
 30
-6.59065e-14
  70
    32
  0
VERTEX
  8
0
  5
6C3E
 10
-66.4250
 20
296.772
 30
-6.59035e-14
  70
    32
  0
VERTEX
  8
0
  5
6C3F
 10
-66.4249
 20
296.763
 30
-6.59004e-14
  70
    32
  0
VERTEX
  8
0
  5
6C40
 10
-66.4247
 20
296.754
 30
-6.58973e-14
  70
    32
  0
VERTEX
  8
0
  5
6C41
 10
-66.4246
 20
296.744
 30
-6.58942e-14
  70
    32
  0
VERTEX
  8
0
  5
6C42
 10
-66.4244
 20
296.735
 30
-6.58911e-14
  70
    32
  0
VERTEX
  8
0
  5
6C43
 10
-66.4243
 20
296.726
 30
-6.58879e-14
  70
    32
  0
VERTEX
  8
0
  5
6C44
 10
-66.4241
 20
296.716
 30
-6.58847e-14
  70
    32
  0
VERTEX
  8
0
  5
6C45
 10
-66.4240
 20
296.707
 30
-6.58815e-14
  70
    32
  0
VERTEX
  8
0
  5
6C46
 10
-66.4238
 20
296.698
 30
-6.58783e-14
  70
    32
  0
VERTEX
  8
0
  5
6C47
 10
-66.4237
 20
296.688
 30
-6.58750e-14
  70
    32
  0
VERTEX
  8
0
  5
6C48
 10
-66.4235
 20
296.679
 30
-6.58717e-14
  70
    32
  0
VERTEX
  8
0
  5
6C49
 10
-66.4234
 20
296.669
 30
-6.58685e-14
  70
    32
  0
VERTEX
  8
0
  5
6C4A
 10
-66.4233
 20
296.660
 30
-6.58652e-14
  70
    32
  0
VERTEX
  8
0
  5
6C4B
 10
-66.4231
 20
296.651
 30
-6.58619e-14
  70
    32
  0
VERTEX
  8
0
  5
6C4C
 10
-66.4230
 20
296.641
 30
-6.58586e-14
  70
    32
  0
VERTEX
  8
0
  5
6C4D
 10
-66.4228
 20
296.632
 30
-6.58553e-14
  70
    32
  0
VERTEX
  8
0
  5
6C4E
 10
-66.4227
 20
296.623
 30
-6.58520e-14
  70
    32
  0
VERTEX
  8
0
  5
6C4F
 10
-66.4226
 20
296.613
 30
-6.58487e-14
  70
    32
  0
VERTEX
  8
0
  5
6C50
 10
-66.4224
 20
296.604
 30
-6.58453e-14
  70
    32
  0
VERTEX
  8
0
  5
6C51
 10
-66.4223
 20
296.594
 30
-6.58420e-14
  70
    32
  0
VERTEX
  8
0
  5
6C52
 10
-66.4221
 20
296.585
 30
-6.58387e-14
  70
    32
  0
VERTEX
  8
0
  5
6C53
 10
-66.4220
 20
296.575
 30
-6.58354e-14
  70
    32
  0
VERTEX
  8
0
  5
6C54
 10
-66.4219
 20
296.566
 30
-6.58321e-14
  70
    32
  0
VERTEX
  8
0
  5
6C55
 10
-66.4218
 20
296.556
 30
-6.58289e-14
  70
    32
  0
VERTEX
  8
0
  5
6C56
 10
-66.4216
 20
296.547
 30
-6.58256e-14
  70
    32
  0
VERTEX
  8
0
  5
6C57
 10
-66.4215
 20
296.538
 30
-6.58223e-14
  70
    32
  0
VERTEX
  8
0
  5
6C58
 10
-66.4214
 20
296.528
 30
-6.58191e-14
  70
    32
  0
VERTEX
  8
0
  5
6C59
 10
-66.4212
 20
296.519
 30
-6.58159e-14
  70
    32
  0
VERTEX
  8
0
  5
6C5A
 10
-66.4211
 20
296.509
 30
-6.58127e-14
  70
    32
  0
VERTEX
  8
0
  5
6C5B
 10
-66.4210
 20
296.500
 30
-6.58095e-14
  70
    32
  0
VERTEX
  8
0
  5
6C5C
 10
-66.4209
 20
296.490
 30
-6.58064e-14
  70
    32
  0
VERTEX
  8
0
  5
6C5D
 10
-66.4208
 20
296.481
 30
-6.58032e-14
  70
    32
  0
VERTEX
  8
0
  5
6C5E
 10
-66.4206
 20
296.471
 30
-6.58001e-14
  70
    32
  0
VERTEX
  8
0
  5
6C5F
 10
-66.4205
 20
296.462
 30
-6.57971e-14
  70
    32
  0
VERTEX
  8
0
  5
6C60
 10
-66.4204
 20
296.452
 30
-6.57940e-14
  70
    32
  0
VERTEX
  8
0
  5
6C61
 10
-66.4203
 20
296.443
 30
-6.57910e-14
  70
    32
  0
VERTEX
  8
0
  5
6C62
 10
-66.4202
 20
296.433
 30
-6.57881e-14
  70
    32
  0
VERTEX
  8
0
  5
6C63
 10
-66.4201
 20
296.424
 30
-6.57851e-14
  70
    32
  0
VERTEX
  8
0
  5
6C64
 10
-66.4200
 20
296.414
 30
-6.57822e-14
  70
    32
  0
VERTEX
  8
0
  5
6C65
 10
-66.4199
 20
296.405
 30
-6.57794e-14
  70
    32
  0
VERTEX
  8
0
  5
6C66
 10
-66.4197
 20
296.395
 30
-6.57766e-14
  70
    32
  0
VERTEX
  8
0
  5
6C67
 10
-66.4196
 20
296.385
 30
-6.57738e-14
  70
    32
  0
VERTEX
  8
0
  5
6C68
 10
-66.4195
 20
296.376
 30
-6.57711e-14
  70
    32
  0
VERTEX
  8
0
  5
6C69
 10
-66.4194
 20
296.366
 30
-6.57684e-14
  70
    32
  0
VERTEX
  8
0
  5
6C6A
 10
-66.4193
 20
296.357
 30
-6.57658e-14
  70
    32
  0
VERTEX
  8
0
  5
6C6B
 10
-66.4192
 20
296.347
 30
-6.57632e-14
  70
    32
  0
VERTEX
  8
0
  5
6C6C
 10
-66.4191
 20
296.338
 30
-6.57607e-14
  70
    32
  0
VERTEX
  8
0
  5
6C6D
 10
-66.4190
 20
296.328
 30
-6.57583e-14
  70
    32
  0
VERTEX
  8
0
  5
6C6E
 10
-66.4189
 20
296.319
 30
-6.57559e-14
  70
    32
  0
VERTEX
  8
0
  5
6C6F
 10
-66.4188
 20
296.309
 30
-6.57535e-14
  70
    32
  0
VERTEX
  8
0
  5
6C70
 10
-66.4187
 20
296.300
 30
-6.57513e-14
  70
    32
  0
VERTEX
  8
0
  5
6C71
 10
-66.4187
 20
296.290
 30
-6.57490e-14
  70
    32
  0
VERTEX
  8
0
  5
6C72
 10
-66.4186
 20
296.280
 30
-6.57469e-14
  70
    32
  0
VERTEX
  8
0
  5
6C73
 10
-66.4185
 20
296.271
 30
-6.57448e-14
  70
    32
  0
VERTEX
  8
0
  5
6C74
 10
-66.4184
 20
296.261
 30
-6.57428e-14
  70
    32
  0
VERTEX
  8
0
  5
6C75
 10
-66.4183
 20
296.252
 30
-6.57408e-14
  70
    32
  0
VERTEX
  8
0
  5
6C76
 10
-66.4182
 20
296.242
 30
-6.57389e-14
  70
    32
  0
VERTEX
  8
0
  5
6C77
 10
-66.4181
 20
296.233
 30
-6.57370e-14
  70
    32
  0
VERTEX
  8
0
  5
6C78
 10
-66.4180
 20
296.223
 30
-6.57352e-14
  70
    32
  0
VERTEX
  8
0
  5
6C79
 10
-66.4180
 20
296.214
 30
-6.57335e-14
  70
    32
  0
VERTEX
  8
0
  5
6C7A
 10
-66.4179
 20
296.204
 30
-6.57318e-14
  70
    32
  0
VERTEX
  8
0
  5
6C7B
 10
-66.4178
 20
296.194
 30
-6.57301e-14
  70
    32
  0
VERTEX
  8
0
  5
6C7C
 10
-66.4177
 20
296.185
 30
-6.57285e-14
  70
    32
  0
VERTEX
  8
0
  5
6C7D
 10
-66.4176
 20
296.175
 30
-6.57270e-14
  70
    32
  0
VERTEX
  8
0
  5
6C7E
 10
-66.4176
 20
296.166
 30
-6.57254e-14
  70
    32
  0
VERTEX
  8
0
  5
6C7F
 10
-66.4175
 20
296.156
 30
-6.57239e-14
  70
    32
  0
VERTEX
  8
0
  5
6C80
 10
-66.4174
 20
296.147
 30
-6.57225e-14
  70
    32
  0
VERTEX
  8
0
  5
6C81
 10
-66.4174
 20
296.137
 30
-6.57211e-14
  70
    32
  0
VERTEX
  8
0
  5
6C82
 10
-66.4173
 20
296.128
 30
-6.57197e-14
  70
    32
  0
VERTEX
  8
0
  5
6C83
 10
-66.4172
 20
296.118
 30
-6.57183e-14
  70
    32
  0
VERTEX
  8
0
  5
6C84
 10
-66.4172
 20
296.108
 30
-6.57170e-14
  70
    32
  0
VERTEX
  8
0
  5
6C85
 10
-66.4171
 20
296.099
 30
-6.57157e-14
  70
    32
  0
VERTEX
  8
0
  5
6C86
 10
-66.4170
 20
296.089
 30
-6.57145e-14
  70
    32
  0
VERTEX
  8
0
  5
6C87
 10
-66.4170
 20
296.080
 30
-6.57132e-14
  70
    32
  0
VERTEX
  8
0
  5
6C88
 10
-66.4169
 20
296.070
 30
-6.57120e-14
  70
    32
  0
VERTEX
  8
0
  5
6C89
 10
-66.4168
 20
296.061
 30
-6.57108e-14
  70
    32
  0
VERTEX
  8
0
  5
6C8A
 10
-66.4168
 20
296.051
 30
-6.57096e-14
  70
    32
  0
VERTEX
  8
0
  5
6C8B
 10
-66.4167
 20
296.042
 30
-6.57085e-14
  70
    32
  0
VERTEX
  8
0
  5
6C8C
 10
-66.4167
 20
296.032
 30
-6.57073e-14
  70
    32
  0
VERTEX
  8
0
  5
6C8D
 10
-66.4166
 20
296.023
 30
-6.57062e-14
  70
    32
  0
VERTEX
  8
0
  5
6C8E
 10
-66.4166
 20
296.013
 30
-6.57050e-14
  70
    32
  0
VERTEX
  8
0
  5
6C8F
 10
-66.4165
 20
296.003
 30
-6.57039e-14
  70
    32
  0
VERTEX
  8
0
  5
6C90
 10
-66.4165
 20
295.994
 30
-6.57028e-14
  70
    32
  0
VERTEX
  8
0
  5
6C91
 10
-66.4164
 20
295.984
 30
-6.57017e-14
  70
    32
  0
VERTEX
  8
0
  5
6C92
 10
-66.4164
 20
295.975
 30
-6.57006e-14
  70
    32
  0
VERTEX
  8
0
  5
6C93
 10
-66.4163
 20
295.965
 30
-6.56995e-14
  70
    32
  0
VERTEX
  8
0
  5
6C94
 10
-66.4163
 20
295.956
 30
-6.56984e-14
  70
    32
  0
VERTEX
  8
0
  5
6C95
 10
-66.4162
 20
295.946
 30
-6.56973e-14
  70
    32
  0
VERTEX
  8
0
  5
6C96
 10
-66.4162
 20
295.937
 30
-6.56962e-14
  70
    32
  0
VERTEX
  8
0
  5
6C97
 10
-66.4162
 20
295.927
 30
-6.56950e-14
  70
    32
  0
VERTEX
  8
0
  5
6C98
 10
-66.4161
 20
295.918
 30
-6.56939e-14
  70
    32
  0
VERTEX
  8
0
  5
6C99
 10
-66.4161
 20
295.908
 30
-6.56928e-14
  70
    32
  0
VERTEX
  8
0
  5
6C9A
 10
-66.4160
 20
295.899
 30
-6.56916e-14
  70
    32
  0
VERTEX
  8
0
  5
6C9B
 10
-66.4160
 20
295.889
 30
-6.56905e-14
  70
    32
  0
VERTEX
  8
0
  5
6C9C
 10
-66.4160
 20
295.880
 30
-6.56893e-14
  70
    32
  0
VERTEX
  8
0
  5
6C9D
 10
-66.4159
 20
295.871
 30
-6.56881e-14
  70
    32
  0
VERTEX
  8
0
  5
6C9E
 10
-66.4159
 20
295.861
 30
-6.56869e-14
  70
    32
  0
VERTEX
  8
0
  5
6C9F
 10
-66.4159
 20
295.852
 30
-6.56856e-14
  70
    32
  0
VERTEX
  8
0
  5
6CA0
 10
-66.4158
 20
295.842
 30
-6.56844e-14
  70
    32
  0
VERTEX
  8
0
  5
6CA1
 10
-66.4158
 20
295.833
 30
-6.56831e-14
  70
    32
  0
VERTEX
  8
0
  5
6CA2
 10
-66.4158
 20
295.823
 30
-6.56817e-14
  70
    32
  0
VERTEX
  8
0
  5
6CA3
 10
-66.4158
 20
295.814
 30
-6.56804e-14
  70
    32
  0
VERTEX
  8
0
  5
6CA4
 10
-66.4157
 20
295.804
 30
-6.56790e-14
  70
    32
  0
VERTEX
  8
0
  5
6CA5
 10
-66.4157
 20
295.795
 30
-6.56776e-14
  70
    32
  0
VERTEX
  8
0
  5
6CA6
 10
-66.4157
 20
295.786
 30
-6.56762e-14
  70
    32
  0
VERTEX
  8
0
  5
6CA7
 10
-66.4157
 20
295.776
 30
-6.56747e-14
  70
    32
  0
VERTEX
  8
0
  5
6CA8
 10
-66.4157
 20
295.767
 30
-6.56731e-14
  70
    32
  0
VERTEX
  8
0
  5
6CA9
 10
-66.4157
 20
295.757
 30
-6.56716e-14
  70
    32
  0
VERTEX
  8
0
  5
6CAA
 10
-66.4156
 20
295.748
 30
-6.56700e-14
  70
    32
  0
VERTEX
  8
0
  5
6CAB
 10
-66.4156
 20
295.739
 30
-6.56683e-14
  70
    32
  0
VERTEX
  8
0
  5
6CAC
 10
-66.4156
 20
295.729
 30
-6.56666e-14
  70
    32
  0
VERTEX
  8
0
  5
6CAD
 10
-66.4156
 20
295.720
 30
-6.56649e-14
  70
    32
  0
VERTEX
  8
0
  5
6CAE
 10
-66.4156
 20
295.711
 30
-6.56631e-14
  70
    32
  0
VERTEX
  8
0
  5
6CAF
 10
-66.4156
 20
295.701
 30
-6.56612e-14
  70
    32
  0
VERTEX
  8
0
  5
6CB0
 10
-66.4156
 20
295.692
 30
-6.56593e-14
  70
    32
  0
VERTEX
  8
0
  5
6CB1
 10
-66.4156
 20
295.683
 30
-6.56573e-14
  70
    32
  0
VERTEX
  8
0
  5
6CB2
 10
-66.4156
 20
295.673
 30
-6.56553e-14
  70
    32
  0
VERTEX
  8
0
  5
6CB3
 10
-66.4156
 20
295.664
 30
-6.56532e-14
  70
    32
  0
VERTEX
  8
0
  5
6CB4
 10
-66.4156
 20
295.655
 30
-6.56511e-14
  70
    32
  0
VERTEX
  8
0
  5
6CB5
 10
-66.4156
 20
295.645
 30
-6.56489e-14
  70
    32
  0
VERTEX
  8
0
  5
6CB6
 10
-66.4156
 20
295.636
 30
-6.56468e-14
  70
    32
  0
VERTEX
  8
0
  5
6CB7
 10
-66.4156
 20
295.627
 30
-6.56447e-14
  70
    32
  0
VERTEX
  8
0
  5
6CB8
 10
-66.4156
 20
295.617
 30
-6.56427e-14
  70
    32
  0
VERTEX
  8
0
  5
6CB9
 10
-66.4156
 20
295.608
 30
-6.56407e-14
  70
    32
  0
VERTEX
  8
0
  5
6CBA
 10
-66.4156
 20
295.599
 30
-6.56388e-14
  70
    32
  0
VERTEX
  8
0
  5
6CBB
 10
-66.4156
 20
295.589
 30
-6.56369e-14
  70
    32
  0
VERTEX
  8
0
  5
6CBC
 10
-66.4156
 20
295.580
 30
-6.56351e-14
  70
    32
  0
VERTEX
  8
0
  5
6CBD
 10
-66.4156
 20
295.571
 30
-6.56334e-14
  70
    32
  0
VERTEX
  8
0
  5
6CBE
 10
-66.4156
 20
295.561
 30
-6.56317e-14
  70
    32
  0
VERTEX
  8
0
  5
6CBF
 10
-66.4156
 20
295.552
 30
-6.56300e-14
  70
    32
  0
VERTEX
  8
0
  5
6CC0
 10
-66.4157
 20
295.543
 30
-6.56284e-14
  70
    32
  0
VERTEX
  8
0
  5
6CC1
 10
-66.4157
 20
295.533
 30
-6.56269e-14
  70
    32
  0
VERTEX
  8
0
  5
6CC2
 10
-66.4157
 20
295.524
 30
-6.56253e-14
  70
    32
  0
VERTEX
  8
0
  5
6CC3
 10
-66.4157
 20
295.514
 30
-6.56238e-14
  70
    32
  0
VERTEX
  8
0
  5
6CC4
 10
-66.4157
 20
295.505
 30
-6.56224e-14
  70
    32
  0
VERTEX
  8
0
  5
6CC5
 10
-66.4157
 20
295.496
 30
-6.56210e-14
  70
    32
  0
VERTEX
  8
0
  5
6CC6
 10
-66.4158
 20
295.486
 30
-6.56196e-14
  70
    32
  0
VERTEX
  8
0
  5
6CC7
 10
-66.4158
 20
295.477
 30
-6.56183e-14
  70
    32
  0
VERTEX
  8
0
  5
6CC8
 10
-66.4158
 20
295.467
 30
-6.56169e-14
  70
    32
  0
VERTEX
  8
0
  5
6CC9
 10
-66.4158
 20
295.458
 30
-6.56156e-14
  70
    32
  0
VERTEX
  8
0
  5
6CCA
 10
-66.4159
 20
295.448
 30
-6.56144e-14
  70
    32
  0
VERTEX
  8
0
  5
6CCB
 10
-66.4159
 20
295.439
 30
-6.56131e-14
  70
    32
  0
VERTEX
  8
0
  5
6CCC
 10
-66.4159
 20
295.429
 30
-6.56119e-14
  70
    32
  0
VERTEX
  8
0
  5
6CCD
 10
-66.4160
 20
295.420
 30
-6.56107e-14
  70
    32
  0
VERTEX
  8
0
  5
6CCE
 10
-66.4160
 20
295.411
 30
-6.56095e-14
  70
    32
  0
VERTEX
  8
0
  5
6CCF
 10
-66.4160
 20
295.401
 30
-6.56084e-14
  70
    32
  0
VERTEX
  8
0
  5
6CD0
 10
-66.4161
 20
295.392
 30
-6.56072e-14
  70
    32
  0
VERTEX
  8
0
  5
6CD1
 10
-66.4161
 20
295.382
 30
-6.56061e-14
  70
    32
  0
VERTEX
  8
0
  5
6CD2
 10
-66.4162
 20
295.373
 30
-6.56050e-14
  70
    32
  0
VERTEX
  8
0
  5
6CD3
 10
-66.4162
 20
295.363
 30
-6.56038e-14
  70
    32
  0
VERTEX
  8
0
  5
6CD4
 10
-66.4162
 20
295.354
 30
-6.56027e-14
  70
    32
  0
VERTEX
  8
0
  5
6CD5
 10
-66.4163
 20
295.344
 30
-6.56016e-14
  70
    32
  0
VERTEX
  8
0
  5
6CD6
 10
-66.4163
 20
295.335
 30
-6.56005e-14
  70
    32
  0
VERTEX
  8
0
  5
6CD7
 10
-66.4164
 20
295.325
 30
-6.55994e-14
  70
    32
  0
VERTEX
  8
0
  5
6CD8
 10
-66.4164
 20
295.316
 30
-6.55983e-14
  70
    32
  0
VERTEX
  8
0
  5
6CD9
 10
-66.4165
 20
295.306
 30
-6.55972e-14
  70
    32
  0
VERTEX
  8
0
  5
6CDA
 10
-66.4165
 20
295.297
 30
-6.55961e-14
  70
    32
  0
VERTEX
  8
0
  5
6CDB
 10
-66.4166
 20
295.287
 30
-6.55950e-14
  70
    32
  0
VERTEX
  8
0
  5
6CDC
 10
-66.4166
 20
295.277
 30
-6.55938e-14
  70
    32
  0
VERTEX
  8
0
  5
6CDD
 10
-66.4167
 20
295.268
 30
-6.55927e-14
  70
    32
  0
VERTEX
  8
0
  5
6CDE
 10
-66.4167
 20
295.258
 30
-6.55915e-14
  70
    32
  0
VERTEX
  8
0
  5
6CDF
 10
-66.4168
 20
295.249
 30
-6.55904e-14
  70
    32
  0
VERTEX
  8
0
  5
6CE0
 10
-66.4168
 20
295.239
 30
-6.55892e-14
  70
    32
  0
VERTEX
  8
0
  5
6CE1
 10
-66.4169
 20
295.230
 30
-6.55880e-14
  70
    32
  0
VERTEX
  8
0
  5
6CE2
 10
-66.4170
 20
295.220
 30
-6.55868e-14
  70
    32
  0
VERTEX
  8
0
  5
6CE3
 10
-66.4170
 20
295.211
 30
-6.55855e-14
  70
    32
  0
VERTEX
  8
0
  5
6CE4
 10
-66.4171
 20
295.201
 30
-6.55843e-14
  70
    32
  0
VERTEX
  8
0
  5
6CE5
 10
-66.4172
 20
295.192
 30
-6.55830e-14
  70
    32
  0
VERTEX
  8
0
  5
6CE6
 10
-66.4172
 20
295.182
 30
-6.55817e-14
  70
    32
  0
VERTEX
  8
0
  5
6CE7
 10
-66.4173
 20
295.172
 30
-6.55803e-14
  70
    32
  0
VERTEX
  8
0
  5
6CE8
 10
-66.4174
 20
295.163
 30
-6.55789e-14
  70
    32
  0
VERTEX
  8
0
  5
6CE9
 10
-66.4174
 20
295.153
 30
-6.55775e-14
  70
    32
  0
VERTEX
  8
0
  5
6CEA
 10
-66.4175
 20
295.144
 30
-6.55761e-14
  70
    32
  0
VERTEX
  8
0
  5
6CEB
 10
-66.4176
 20
295.134
 30
-6.55746e-14
  70
    32
  0
VERTEX
  8
0
  5
6CEC
 10
-66.4176
 20
295.125
 30
-6.55730e-14
  70
    32
  0
VERTEX
  8
0
  5
6CED
 10
-66.4177
 20
295.115
 30
-6.55715e-14
  70
    32
  0
VERTEX
  8
0
  5
6CEE
 10
-66.4178
 20
295.106
 30
-6.55699e-14
  70
    32
  0
VERTEX
  8
0
  5
6CEF
 10
-66.4179
 20
295.096
 30
-6.55682e-14
  70
    32
  0
VERTEX
  8
0
  5
6CF0
 10
-66.4180
 20
295.086
 30
-6.55665e-14
  70
    32
  0
VERTEX
  8
0
  5
6CF1
 10
-66.4180
 20
295.077
 30
-6.55648e-14
  70
    32
  0
VERTEX
  8
0
  5
6CF2
 10
-66.4181
 20
295.067
 30
-6.55630e-14
  70
    32
  0
VERTEX
  8
0
  5
6CF3
 10
-66.4182
 20
295.058
 30
-6.55611e-14
  70
    32
  0
VERTEX
  8
0
  5
6CF4
 10
-66.4183
 20
295.048
 30
-6.55592e-14
  70
    32
  0
VERTEX
  8
0
  5
6CF5
 10
-66.4184
 20
295.039
 30
-6.55572e-14
  70
    32
  0
VERTEX
  8
0
  5
6CF6
 10
-66.4185
 20
295.029
 30
-6.55552e-14
  70
    32
  0
VERTEX
  8
0
  5
6CF7
 10
-66.4186
 20
295.020
 30
-6.55531e-14
  70
    32
  0
VERTEX
  8
0
  5
6CF8
 10
-66.4187
 20
295.010
 30
-6.55510e-14
  70
    32
  0
VERTEX
  8
0
  5
6CF9
 10
-66.4187
 20
295.000
 30
-6.55487e-14
  70
    32
  0
VERTEX
  8
0
  5
6CFA
 10
-66.4188
 20
294.991
 30
-6.55465e-14
  70
    32
  0
VERTEX
  8
0
  5
6CFB
 10
-66.4189
 20
294.981
 30
-6.55441e-14
  70
    32
  0
VERTEX
  8
0
  5
6CFC
 10
-66.4190
 20
294.972
 30
-6.55417e-14
  70
    32
  0
VERTEX
  8
0
  5
6CFD
 10
-66.4191
 20
294.962
 30
-6.55393e-14
  70
    32
  0
VERTEX
  8
0
  5
6CFE
 10
-66.4192
 20
294.953
 30
-6.55368e-14
  70
    32
  0
VERTEX
  8
0
  5
6CFF
 10
-66.4193
 20
294.943
 30
-6.55342e-14
  70
    32
  0
VERTEX
  8
0
  5
6D00
 10
-66.4194
 20
294.934
 30
-6.55316e-14
  70
    32
  0
VERTEX
  8
0
  5
6D01
 10
-66.4195
 20
294.924
 30
-6.55289e-14
  70
    32
  0
VERTEX
  8
0
  5
6D02
 10
-66.4196
 20
294.915
 30
-6.55262e-14
  70
    32
  0
VERTEX
  8
0
  5
6D03
 10
-66.4197
 20
294.905
 30
-6.55234e-14
  70
    32
  0
VERTEX
  8
0
  5
6D04
 10
-66.4199
 20
294.895
 30
-6.55206e-14
  70
    32
  0
VERTEX
  8
0
  5
6D05
 10
-66.4200
 20
294.886
 30
-6.55178e-14
  70
    32
  0
VERTEX
  8
0
  5
6D06
 10
-66.4201
 20
294.876
 30
-6.55149e-14
  70
    32
  0
VERTEX
  8
0
  5
6D07
 10
-66.4202
 20
294.867
 30
-6.55119e-14
  70
    32
  0
VERTEX
  8
0
  5
6D08
 10
-66.4203
 20
294.857
 30
-6.55090e-14
  70
    32
  0
VERTEX
  8
0
  5
6D09
 10
-66.4204
 20
294.848
 30
-6.55060e-14
  70
    32
  0
VERTEX
  8
0
  5
6D0A
 10
-66.4205
 20
294.838
 30
-6.55029e-14
  70
    32
  0
VERTEX
  8
0
  5
6D0B
 10
-66.4206
 20
294.829
 30
-6.54999e-14
  70
    32
  0
VERTEX
  8
0
  5
6D0C
 10
-66.4208
 20
294.819
 30
-6.54968e-14
  70
    32
  0
VERTEX
  8
0
  5
6D0D
 10
-66.4209
 20
294.810
 30
-6.54936e-14
  70
    32
  0
VERTEX
  8
0
  5
6D0E
 10
-66.4210
 20
294.800
 30
-6.54905e-14
  70
    32
  0
VERTEX
  8
0
  5
6D0F
 10
-66.4211
 20
294.791
 30
-6.54873e-14
  70
    32
  0
VERTEX
  8
0
  5
6D10
 10
-66.4212
 20
294.781
 30
-6.54841e-14
  70
    32
  0
VERTEX
  8
0
  5
6D11
 10
-66.4214
 20
294.772
 30
-6.54809e-14
  70
    32
  0
VERTEX
  8
0
  5
6D12
 10
-66.4215
 20
294.762
 30
-6.54777e-14
  70
    32
  0
VERTEX
  8
0
  5
6D13
 10
-66.4216
 20
294.753
 30
-6.54744e-14
  70
    32
  0
VERTEX
  8
0
  5
6D14
 10
-66.4218
 20
294.744
 30
-6.54711e-14
  70
    32
  0
VERTEX
  8
0
  5
6D15
 10
-66.4219
 20
294.734
 30
-6.54679e-14
  70
    32
  0
VERTEX
  8
0
  5
6D16
 10
-66.4220
 20
294.725
 30
-6.54646e-14
  70
    32
  0
VERTEX
  8
0
  5
6D17
 10
-66.4221
 20
294.715
 30
-6.54613e-14
  70
    32
  0
VERTEX
  8
0
  5
6D18
 10
-66.4223
 20
294.706
 30
-6.54580e-14
  70
    32
  0
VERTEX
  8
0
  5
6D19
 10
-66.4224
 20
294.696
 30
-6.54547e-14
  70
    32
  0
VERTEX
  8
0
  5
6D1A
 10
-66.4226
 20
294.687
 30
-6.54513e-14
  70
    32
  0
VERTEX
  8
0
  5
6D1B
 10
-66.4227
 20
294.677
 30
-6.54480e-14
  70
    32
  0
VERTEX
  8
0
  5
6D1C
 10
-66.4228
 20
294.668
 30
-6.54447e-14
  70
    32
  0
VERTEX
  8
0
  5
6D1D
 10
-66.4230
 20
294.659
 30
-6.54414e-14
  70
    32
  0
VERTEX
  8
0
  5
6D1E
 10
-66.4231
 20
294.649
 30
-6.54381e-14
  70
    32
  0
VERTEX
  8
0
  5
6D1F
 10
-66.4233
 20
294.640
 30
-6.54348e-14
  70
    32
  0
VERTEX
  8
0
  5
6D20
 10
-66.4234
 20
294.631
 30
-6.54315e-14
  70
    32
  0
VERTEX
  8
0
  5
6D21
 10
-66.4235
 20
294.621
 30
-6.54283e-14
  70
    32
  0
VERTEX
  8
0
  5
6D22
 10
-66.4237
 20
294.612
 30
-6.54250e-14
  70
    32
  0
VERTEX
  8
0
  5
6D23
 10
-66.4238
 20
294.602
 30
-6.54217e-14
  70
    32
  0
VERTEX
  8
0
  5
6D24
 10
-66.4240
 20
294.593
 30
-6.54185e-14
  70
    32
  0
VERTEX
  8
0
  5
6D25
 10
-66.4241
 20
294.584
 30
-6.54153e-14
  70
    32
  0
VERTEX
  8
0
  5
6D26
 10
-66.4243
 20
294.574
 30
-6.54121e-14
  70
    32
  0
VERTEX
  8
0
  5
6D27
 10
-66.4244
 20
294.565
 30
-6.54089e-14
  70
    32
  0
VERTEX
  8
0
  5
6D28
 10
-66.4246
 20
294.556
 30
-6.54058e-14
  70
    32
  0
VERTEX
  8
0
  5
6D29
 10
-66.4247
 20
294.546
 30
-6.54027e-14
  70
    32
  0
VERTEX
  8
0
  5
6D2A
 10
-66.4249
 20
294.537
 30
-6.53996e-14
  70
    32
  0
VERTEX
  8
0
  5
6D2B
 10
-66.4250
 20
294.528
 30
-6.53965e-14
  70
    32
  0
VERTEX
  8
0
  5
6D2C
 10
-66.4252
 20
294.519
 30
-6.53935e-14
  70
    32
  0
VERTEX
  8
0
  5
6D2D
 10
-66.4254
 20
294.509
 30
-6.53905e-14
  70
    32
  0
VERTEX
  8
0
  5
6D2E
 10
-66.4255
 20
294.500
 30
-6.53875e-14
  70
    32
  0
VERTEX
  8
0
  5
6D2F
 10
-66.4257
 20
294.491
 30
-6.53846e-14
  70
    32
  0
VERTEX
  8
0
  5
6D30
 10
-66.4258
 20
294.481
 30
-6.53817e-14
  70
    32
  0
VERTEX
  8
0
  5
6D31
 10
-66.4260
 20
294.472
 30
-6.53789e-14
  70
    32
  0
VERTEX
  8
0
  5
6D32
 10
-66.4262
 20
294.463
 30
-6.53760e-14
  70
    32
  0
VERTEX
  8
0
  5
6D33
 10
-66.4263
 20
294.454
 30
-6.53733e-14
  70
    32
  0
VERTEX
  8
0
  5
6D34
 10
-66.4265
 20
294.445
 30
-6.53706e-14
  70
    32
  0
VERTEX
  8
0
  5
6D35
 10
-66.4267
 20
294.435
 30
-6.53679e-14
  70
    32
  0
VERTEX
  8
0
  5
6D36
 10
-66.4268
 20
294.426
 30
-6.53653e-14
  70
    32
  0
VERTEX
  8
0
  5
6D37
 10
-66.4270
 20
294.417
 30
-6.53628e-14
  70
    32
  0
VERTEX
  8
0
  5
6D38
 10
-66.4272
 20
294.408
 30
-6.53603e-14
  70
    32
  0
VERTEX
  8
0
  5
6D39
 10
-66.4274
 20
294.399
 30
-6.53578e-14
  70
    32
  0
VERTEX
  8
0
  5
6D3A
 10
-66.4275
 20
294.390
 30
-6.53554e-14
  70
    32
  0
VERTEX
  8
0
  5
6D3B
 10
-66.4277
 20
294.380
 30
-6.53531e-14
  70
    32
  0
VERTEX
  8
0
  5
6D3C
 10
-66.4279
 20
294.371
 30
-6.53508e-14
  70
    32
  0
VERTEX
  8
0
  5
6D3D
 10
-66.4281
 20
294.362
 30
-6.53486e-14
  70
    32
  0
VERTEX
  8
0
  5
6D3E
 10
-66.4282
 20
294.353
 30
-6.53465e-14
  70
    32
  0
VERTEX
  8
0
  5
6D3F
 10
-66.4284
 20
294.344
 30
-6.53444e-14
  70
    32
  0
VERTEX
  8
0
  5
6D40
 10
-66.4286
 20
294.335
 30
-6.53424e-14
  70
    32
  0
VERTEX
  8
0
  5
6D41
 10
-66.4288
 20
294.326
 30
-6.53405e-14
  70
    32
  0
VERTEX
  8
0
  5
6D42
 10
-66.4289
 20
294.317
 30
-6.53386e-14
  70
    32
  0
VERTEX
  8
0
  5
6D43
 10
-66.4291
 20
294.308
 30
-6.53367e-14
  70
    32
  0
VERTEX
  8
0
  5
6D44
 10
-66.4293
 20
294.299
 30
-6.53349e-14
  70
    32
  0
VERTEX
  8
0
  5
6D45
 10
-66.4295
 20
294.290
 30
-6.53332e-14
  70
    32
  0
VERTEX
  8
0
  5
6D46
 10
-66.4297
 20
294.281
 30
-6.53315e-14
  70
    32
  0
VERTEX
  8
0
  5
6D47
 10
-66.4299
 20
294.272
 30
-6.53298e-14
  70
    32
  0
VERTEX
  8
0
  5
6D48
 10
-66.4301
 20
294.263
 30
-6.53282e-14
  70
    32
  0
VERTEX
  8
0
  5
6D49
 10
-66.4302
 20
294.254
 30
-6.53267e-14
  70
    32
  0
VERTEX
  8
0
  5
6D4A
 10
-66.4304
 20
294.245
 30
-6.53251e-14
  70
    32
  0
VERTEX
  8
0
  5
6D4B
 10
-66.4306
 20
294.236
 30
-6.53237e-14
  70
    32
  0
VERTEX
  8
0
  5
6D4C
 10
-66.4308
 20
294.227
 30
-6.53222e-14
  70
    32
  0
VERTEX
  8
0
  5
6D4D
 10
-66.4310
 20
294.218
 30
-6.53208e-14
  70
    32
  0
VERTEX
  8
0
  5
6D4E
 10
-66.4312
 20
294.209
 30
-6.53194e-14
  70
    32
  0
VERTEX
  8
0
  5
6D4F
 10
-66.4314
 20
294.200
 30
-6.53181e-14
  70
    32
  0
VERTEX
  8
0
  5
6D50
 10
-66.4316
 20
294.191
 30
-6.53168e-14
  70
    32
  0
VERTEX
  8
0
  5
6D51
 10
-66.4318
 20
294.183
 30
-6.53155e-14
  70
    32
  0
VERTEX
  8
0
  5
6D52
 10
-66.4320
 20
294.174
 30
-6.53142e-14
  70
    32
  0
VERTEX
  8
0
  5
6D53
 10
-66.4322
 20
294.165
 30
-6.53130e-14
  70
    32
  0
VERTEX
  8
0
  5
6D54
 10
-66.4324
 20
294.156
 30
-6.53118e-14
  70
    32
  0
VERTEX
  8
0
  5
6D55
 10
-66.4326
 20
294.147
 30
-6.53106e-14
  70
    32
  0
VERTEX
  8
0
  5
6D56
 10
-66.4328
 20
294.138
 30
-6.53094e-14
  70
    32
  0
VERTEX
  8
0
  5
6D57
 10
-66.4330
 20
294.130
 30
-6.53082e-14
  70
    32
  0
VERTEX
  8
0
  5
6D58
 10
-66.4332
 20
294.121
 30
-6.53071e-14
  70
    32
  0
VERTEX
  8
0
  5
6D59
 10
-66.4334
 20
294.112
 30
-6.53059e-14
  70
    32
  0
VERTEX
  8
0
  5
6D5A
 10
-66.4336
 20
294.103
 30
-6.53048e-14
  70
    32
  0
VERTEX
  8
0
  5
6D5B
 10
-66.4338
 20
294.095
 30
-6.53037e-14
  70
    32
  0
VERTEX
  8
0
  5
6D5C
 10
-66.4340
 20
294.086
 30
-6.53026e-14
  70
    32
  0
VERTEX
  8
0
  5
6D5D
 10
-66.4342
 20
294.077
 30
-6.53015e-14
  70
    32
  0
VERTEX
  8
0
  5
6D5E
 10
-66.4344
 20
294.069
 30
-6.53004e-14
  70
    32
  0
VERTEX
  8
0
  5
6D5F
 10
-66.4346
 20
294.060
 30
-6.52993e-14
  70
    32
  0
VERTEX
  8
0
  5
6D60
 10
-66.4348
 20
294.051
 30
-6.52982e-14
  70
    32
  0
VERTEX
  8
0
  5
6D61
 10
-66.4350
 20
294.043
 30
-6.52971e-14
  70
    32
  0
VERTEX
  8
0
  5
6D62
 10
-66.4352
 20
294.034
 30
-6.52959e-14
  70
    32
  0
VERTEX
  8
0
  5
6D63
 10
-66.4354
 20
294.025
 30
-6.52948e-14
  70
    32
  0
VERTEX
  8
0
  5
6D64
 10
-66.4356
 20
294.017
 30
-6.52937e-14
  70
    32
  0
VERTEX
  8
0
  5
6D65
 10
-66.4359
 20
294.008
 30
-6.52926e-14
  70
    32
  0
VERTEX
  8
0
  5
6D66
 10
-66.4361
 20
294.000
 30
-6.52914e-14
  70
    32
  0
VERTEX
  8
0
  5
6D67
 10
-66.4363
 20
293.991
 30
-6.52902e-14
  70
    32
  0
VERTEX
  8
0
  5
6D68
 10
-66.4365
 20
293.983
 30
-6.52891e-14
  70
    32
  0
VERTEX
  8
0
  5
6D69
 10
-66.4367
 20
293.974
 30
-6.52879e-14
  70
    32
  0
VERTEX
  8
0
  5
6D6A
 10
-66.4369
 20
293.966
 30
-6.52866e-14
  70
    32
  0
VERTEX
  8
0
  5
6D6B
 10
-66.4371
 20
293.957
 30
-6.52854e-14
  70
    32
  0
VERTEX
  8
0
  5
6D6C
 10
-66.4374
 20
293.949
 30
-6.52841e-14
  70
    32
  0
VERTEX
  8
0
  5
6D6D
 10
-66.4376
 20
293.940
 30
-6.52828e-14
  70
    32
  0
VERTEX
  8
0
  5
6D6E
 10
-66.4378
 20
293.932
 30
-6.52815e-14
  70
    32
  0
VERTEX
  8
0
  5
6D6F
 10
-66.4380
 20
293.923
 30
-6.52801e-14
  70
    32
  0
VERTEX
  8
0
  5
6D70
 10
-66.4382
 20
293.915
 30
-6.52788e-14
  70
    32
  0
VERTEX
  8
0
  5
6D71
 10
-66.4384
 20
293.907
 30
-6.52773e-14
  70
    32
  0
VERTEX
  8
0
  5
6D72
 10
-66.4387
 20
293.898
 30
-6.52759e-14
  70
    32
  0
VERTEX
  8
0
  5
6D73
 10
-66.4389
 20
293.890
 30
-6.52744e-14
  70
    32
  0
VERTEX
  8
0
  5
6D74
 10
-66.4391
 20
293.882
 30
-6.52729e-14
  70
    32
  0
VERTEX
  8
0
  5
6D75
 10
-66.4393
 20
293.873
 30
-6.52713e-14
  70
    32
  0
VERTEX
  8
0
  5
6D76
 10
-66.4395
 20
293.865
 30
-6.52697e-14
  70
    32
  0
VERTEX
  8
0
  5
6D77
 10
-66.4398
 20
293.857
 30
-6.52680e-14
  70
    32
  0
VERTEX
  8
0
  5
6D78
 10
-66.4400
 20
293.849
 30
-6.52663e-14
  70
    32
  0
VERTEX
  8
0
  5
6D79
 10
-66.4402
 20
293.840
 30
-6.52645e-14
  70
    32
  0
VERTEX
  8
0
  5
6D7A
 10
-66.4404
 20
293.832
 30
-6.52627e-14
  70
    32
  0
VERTEX
  8
0
  5
6D7B
 10
-66.4407
 20
293.824
 30
-6.52609e-14
  70
    32
  0
VERTEX
  8
0
  5
6D7C
 10
-66.4409
 20
293.816
 30
-6.52589e-14
  70
    32
  0
VERTEX
  8
0
  5
6D7D
 10
-66.4411
 20
293.808
 30
-6.52570e-14
  70
    32
  0
VERTEX
  8
0
  5
6D7E
 10
-66.4413
 20
293.800
 30
-6.52549e-14
  70
    32
  0
VERTEX
  8
0
  5
6D7F
 10
-66.4416
 20
293.791
 30
-6.52528e-14
  70
    32
  0
VERTEX
  8
0
  5
6D80
 10
-66.4418
 20
293.783
 30
-6.52507e-14
  70
    32
  0
VERTEX
  8
0
  5
6D81
 10
-66.4420
 20
293.775
 30
-6.52485e-14
  70
    32
  0
VERTEX
  8
0
  5
6D82
 10
-66.4422
 20
293.767
 30
-6.52464e-14
  70
    32
  0
VERTEX
  8
0
  5
6D83
 10
-66.4425
 20
293.759
 30
-6.52443e-14
  70
    32
  0
VERTEX
  8
0
  5
6D84
 10
-66.4427
 20
293.751
 30
-6.52423e-14
  70
    32
  0
VERTEX
  8
0
  5
6D85
 10
-66.4429
 20
293.743
 30
-6.52403e-14
  70
    32
  0
VERTEX
  8
0
  5
6D86
 10
-66.4432
 20
293.735
 30
-6.52384e-14
  70
    32
  0
VERTEX
  8
0
  5
6D87
 10
-66.4434
 20
293.727
 30
-6.52366e-14
  70
    32
  0
VERTEX
  8
0
  5
6D88
 10
-66.4436
 20
293.719
 30
-6.52348e-14
  70
    32
  0
VERTEX
  8
0
  5
6D89
 10
-66.4439
 20
293.711
 30
-6.52331e-14
  70
    32
  0
VERTEX
  8
0
  5
6D8A
 10
-66.4441
 20
293.703
 30
-6.52314e-14
  70
    32
  0
VERTEX
  8
0
  5
6D8B
 10
-66.4443
 20
293.696
 30
-6.52297e-14
  70
    32
  0
VERTEX
  8
0
  5
6D8C
 10
-66.4445
 20
293.688
 30
-6.52281e-14
  70
    32
  0
VERTEX
  8
0
  5
6D8D
 10
-66.4448
 20
293.680
 30
-6.52266e-14
  70
    32
  0
VERTEX
  8
0
  5
6D8E
 10
-66.4450
 20
293.672
 30
-6.52251e-14
  70
    32
  0
VERTEX
  8
0
  5
6D8F
 10
-66.4452
 20
293.664
 30
-6.52236e-14
  70
    32
  0
VERTEX
  8
0
  5
6D90
 10
-66.4455
 20
293.657
 30
-6.52221e-14
  70
    32
  0
VERTEX
  8
0
  5
6D91
 10
-66.4457
 20
293.649
 30
-6.52207e-14
  70
    32
  0
VERTEX
  8
0
  5
6D92
 10
-66.4459
 20
293.641
 30
-6.52194e-14
  70
    32
  0
VERTEX
  8
0
  5
6D93
 10
-66.4462
 20
293.633
 30
-6.52180e-14
  70
    32
  0
VERTEX
  8
0
  5
6D94
 10
-66.4464
 20
293.626
 30
-6.52167e-14
  70
    32
  0
VERTEX
  8
0
  5
6D95
 10
-66.4466
 20
293.618
 30
-6.52154e-14
  70
    32
  0
VERTEX
  8
0
  5
6D96
 10
-66.4469
 20
293.610
 30
-6.52141e-14
  70
    32
  0
VERTEX
  8
0
  5
6D97
 10
-66.4471
 20
293.603
 30
-6.52129e-14
  70
    32
  0
VERTEX
  8
0
  5
6D98
 10
-66.4473
 20
293.595
 30
-6.52117e-14
  70
    32
  0
VERTEX
  8
0
  5
6D99
 10
-66.4476
 20
293.588
 30
-6.52105e-14
  70
    32
  0
VERTEX
  8
0
  5
6D9A
 10
-66.4478
 20
293.580
 30
-6.52093e-14
  70
    32
  0
VERTEX
  8
0
  5
6D9B
 10
-66.4481
 20
293.572
 30
-6.52082e-14
  70
    32
  0
VERTEX
  8
0
  5
6D9C
 10
-66.4483
 20
293.565
 30
-6.52070e-14
  70
    32
  0
VERTEX
  8
0
  5
6D9D
 10
-66.4485
 20
293.557
 30
-6.52059e-14
  70
    32
  0
VERTEX
  8
0
  5
6D9E
 10
-66.4488
 20
293.550
 30
-6.52048e-14
  70
    32
  0
VERTEX
  8
0
  5
6D9F
 10
-66.4490
 20
293.542
 30
-6.52036e-14
  70
    32
  0
VERTEX
  8
0
  5
6DA0
 10
-66.4492
 20
293.535
 30
-6.52025e-14
  70
    32
  0
VERTEX
  8
0
  5
6DA1
 10
-66.4495
 20
293.528
 30
-6.52014e-14
  70
    32
  0
VERTEX
  8
0
  5
6DA2
 10
-66.4497
 20
293.520
 30
-6.52003e-14
  70
    32
  0
VERTEX
  8
0
  5
6DA3
 10
-66.4499
 20
293.513
 30
-6.51992e-14
  70
    32
  0
VERTEX
  8
0
  5
6DA4
 10
-66.4502
 20
293.506
 30
-6.51981e-14
  70
    32
  0
VERTEX
  8
0
  5
6DA5
 10
-66.4504
 20
293.498
 30
-6.51970e-14
  70
    32
  0
VERTEX
  8
0
  5
6DA6
 10
-66.4507
 20
293.491
 30
-6.51959e-14
  70
    32
  0
VERTEX
  8
0
  5
6DA7
 10
-66.4509
 20
293.484
 30
-6.51948e-14
  70
    32
  0
VERTEX
  8
0
  5
6DA8
 10
-66.4511
 20
293.476
 30
-6.51936e-14
  70
    32
  0
VERTEX
  8
0
  5
6DA9
 10
-66.4514
 20
293.469
 30
-6.51925e-14
  70
    32
  0
VERTEX
  8
0
  5
6DAA
 10
-66.4516
 20
293.462
 30
-6.51913e-14
  70
    32
  0
VERTEX
  8
0
  5
6DAB
 10
-66.4518
 20
293.455
 30
-6.51902e-14
  70
    32
  0
VERTEX
  8
0
  5
6DAC
 10
-66.4521
 20
293.448
 30
-6.51890e-14
  70
    32
  0
VERTEX
  8
0
  5
6DAD
 10
-66.4523
 20
293.440
 30
-6.51878e-14
  70
    32
  0
VERTEX
  8
0
  5
6DAE
 10
-66.4525
 20
293.433
 30
-6.51865e-14
  70
    32
  0
VERTEX
  8
0
  5
6DAF
 10
-66.4528
 20
293.426
 30
-6.51853e-14
  70
    32
  0
VERTEX
  8
0
  5
6DB0
 10
-66.4530
 20
293.419
 30
-6.51840e-14
  70
    32
  0
VERTEX
  8
0
  5
6DB1
 10
-66.4533
 20
293.412
 30
-6.51827e-14
  70
    32
  0
VERTEX
  8
0
  5
6DB2
 10
-66.4535
 20
293.405
 30
-6.51814e-14
  70
    32
  0
VERTEX
  8
0
  5
6DB3
 10
-66.4537
 20
293.398
 30
-6.51801e-14
  70
    32
  0
VERTEX
  8
0
  5
6DB4
 10
-66.4540
 20
293.391
 30
-6.51787e-14
  70
    32
  0
VERTEX
  8
0
  5
6DB5
 10
-66.4542
 20
293.384
 30
-6.51772e-14
  70
    32
  0
VERTEX
  8
0
  5
6DB6
 10
-66.4544
 20
293.377
 30
-6.51758e-14
  70
    32
  0
VERTEX
  8
0
  5
6DB7
 10
-66.4547
 20
293.370
 30
-6.51743e-14
  70
    32
  0
VERTEX
  8
0
  5
6DB8
 10
-66.4549
 20
293.363
 30
-6.51728e-14
  70
    32
  0
VERTEX
  8
0
  5
6DB9
 10
-66.4552
 20
293.357
 30
-6.51712e-14
  70
    32
  0
VERTEX
  8
0
  5
6DBA
 10
-66.4554
 20
293.350
 30
-6.51696e-14
  70
    32
  0
VERTEX
  8
0
  5
6DBB
 10
-66.4556
 20
293.343
 30
-6.51679e-14
  70
    32
  0
VERTEX
  8
0
  5
6DBC
 10
-66.4559
 20
293.336
 30
-6.51662e-14
  70
    32
  0
VERTEX
  8
0
  5
6DBD
 10
-66.4561
 20
293.329
 30
-6.51644e-14
  70
    32
  0
VERTEX
  8
0
  5
6DBE
 10
-66.4563
 20
293.323
 30
-6.51626e-14
  70
    32
  0
VERTEX
  8
0
  5
6DBF
 10
-66.4566
 20
293.316
 30
-6.51607e-14
  70
    32
  0
VERTEX
  8
0
  5
6DC0
 10
-66.4568
 20
293.309
 30
-6.51588e-14
  70
    32
  0
VERTEX
  8
0
  5
6DC1
 10
-66.4570
 20
293.303
 30
-6.51568e-14
  70
    32
  0
VERTEX
  8
0
  5
6DC2
 10
-66.4573
 20
293.296
 30
-6.51548e-14
  70
    32
  0
VERTEX
  8
0
  5
6DC3
 10
-66.4575
 20
293.289
 30
-6.51527e-14
  70
    32
  0
VERTEX
  8
0
  5
6DC4
 10
-66.4577
 20
293.283
 30
-6.51506e-14
  70
    32
  0
VERTEX
  8
0
  5
6DC5
 10
-66.4580
 20
293.276
 30
-6.51484e-14
  70
    32
  0
VERTEX
  8
0
  5
6DC6
 10
-66.4582
 20
293.270
 30
-6.51462e-14
  70
    32
  0
VERTEX
  8
0
  5
6DC7
 10
-66.4584
 20
293.263
 30
-6.51442e-14
  70
    32
  0
VERTEX
  8
0
  5
6DC8
 10
-66.4587
 20
293.257
 30
-6.51422e-14
  70
    32
  0
VERTEX
  8
0
  5
6DC9
 10
-66.4589
 20
293.250
 30
-6.51402e-14
  70
    32
  0
VERTEX
  8
0
  5
6DCA
 10
-66.4591
 20
293.244
 30
-6.51383e-14
  70
    32
  0
VERTEX
  8
0
  5
6DCB
 10
-66.4594
 20
293.237
 30
-6.51365e-14
  70
    32
  0
VERTEX
  8
0
  5
6DCC
 10
-66.4596
 20
293.231
 30
-6.51347e-14
  70
    32
  0
VERTEX
  8
0
  5
6DCD
 10
-66.4599
 20
293.224
 30
-6.51330e-14
  70
    32
  0
VERTEX
  8
0
  5
6DCE
 10
-66.4601
 20
293.218
 30
-6.51313e-14
  70
    32
  0
VERTEX
  8
0
  5
6DCF
 10
-66.4603
 20
293.211
 30
-6.51296e-14
  70
    32
  0
VERTEX
  8
0
  5
6DD0
 10
-66.4606
 20
293.205
 30
-6.51280e-14
  70
    32
  0
VERTEX
  8
0
  5
6DD1
 10
-66.4608
 20
293.198
 30
-6.51265e-14
  70
    32
  0
VERTEX
  8
0
  5
6DD2
 10
-66.4610
 20
293.192
 30
-6.51250e-14
  70
    32
  0
VERTEX
  8
0
  5
6DD3
 10
-66.4613
 20
293.186
 30
-6.51235e-14
  70
    32
  0
VERTEX
  8
0
  5
6DD4
 10
-66.4615
 20
293.179
 30
-6.51220e-14
  70
    32
  0
VERTEX
  8
0
  5
6DD5
 10
-66.4617
 20
293.173
 30
-6.51206e-14
  70
    32
  0
VERTEX
  8
0
  5
6DD6
 10
-66.4620
 20
293.167
 30
-6.51193e-14
  70
    32
  0
VERTEX
  8
0
  5
6DD7
 10
-66.4622
 20
293.160
 30
-6.51179e-14
  70
    32
  0
VERTEX
  8
0
  5
6DD8
 10
-66.4625
 20
293.154
 30
-6.51166e-14
  70
    32
  0
VERTEX
  8
0
  5
6DD9
 10
-66.4627
 20
293.148
 30
-6.51153e-14
  70
    32
  0
VERTEX
  8
0
  5
6DDA
 10
-66.4629
 20
293.141
 30
-6.51141e-14
  70
    32
  0
VERTEX
  8
0
  5
6DDB
 10
-66.4632
 20
293.135
 30
-6.51128e-14
  70
    32
  0
VERTEX
  8
0
  5
6DDC
 10
-66.4634
 20
293.129
 30
-6.51116e-14
  70
    32
  0
VERTEX
  8
0
  5
6DDD
 10
-66.4636
 20
293.123
 30
-6.51104e-14
  70
    32
  0
VERTEX
  8
0
  5
6DDE
 10
-66.4639
 20
293.116
 30
-6.51093e-14
  70
    32
  0
VERTEX
  8
0
  5
6DDF
 10
-66.4641
 20
293.110
 30
-6.51081e-14
  70
    32
  0
VERTEX
  8
0
  5
6DE0
 10
-66.4643
 20
293.104
 30
-6.51069e-14
  70
    32
  0
VERTEX
  8
0
  5
6DE1
 10
-66.4646
 20
293.098
 30
-6.51058e-14
  70
    32
  0
VERTEX
  8
0
  5
6DE2
 10
-66.4648
 20
293.092
 30
-6.51047e-14
  70
    32
  0
VERTEX
  8
0
  5
6DE3
 10
-66.4651
 20
293.086
 30
-6.51036e-14
  70
    32
  0
VERTEX
  8
0
  5
6DE4
 10
-66.4653
 20
293.079
 30
-6.51025e-14
  70
    32
  0
VERTEX
  8
0
  5
6DE5
 10
-66.4655
 20
293.073
 30
-6.51013e-14
  70
    32
  0
VERTEX
  8
0
  5
6DE6
 10
-66.4658
 20
293.067
 30
-6.51002e-14
  70
    32
  0
VERTEX
  8
0
  5
6DE7
 10
-66.4660
 20
293.061
 30
-6.50991e-14
  70
    32
  0
VERTEX
  8
0
  5
6DE8
 10
-66.4662
 20
293.055
 30
-6.50980e-14
  70
    32
  0
VERTEX
  8
0
  5
6DE9
 10
-66.4665
 20
293.049
 30
-6.50969e-14
  70
    32
  0
VERTEX
  8
0
  5
6DEA
 10
-66.4667
 20
293.043
 30
-6.50958e-14
  70
    32
  0
VERTEX
  8
0
  5
6DEB
 10
-66.4669
 20
293.037
 30
-6.50947e-14
  70
    32
  0
VERTEX
  8
0
  5
6DEC
 10
-66.4672
 20
293.031
 30
-6.50936e-14
  70
    32
  0
VERTEX
  8
0
  5
6DED
 10
-66.4674
 20
293.025
 30
-6.50924e-14
  70
    32
  0
VERTEX
  8
0
  5
6DEE
 10
-66.4677
 20
293.019
 30
-6.50913e-14
  70
    32
  0
VERTEX
  8
0
  5
6DEF
 10
-66.4679
 20
293.013
 30
-6.50901e-14
  70
    32
  0
VERTEX
  8
0
  5
6DF0
 10
-66.4681
 20
293.007
 30
-6.50889e-14
  70
    32
  0
VERTEX
  8
0
  5
6DF1
 10
-66.4684
 20
293.001
 30
-6.50877e-14
  70
    32
  0
VERTEX
  8
0
  5
6DF2
 10
-66.4686
 20
292.995
 30
-6.50865e-14
  70
    32
  0
VERTEX
  8
0
  5
6DF3
 10
-66.4688
 20
292.990
 30
-6.50852e-14
  70
    32
  0
VERTEX
  8
0
  5
6DF4
 10
-66.4691
 20
292.984
 30
-6.50840e-14
  70
    32
  0
VERTEX
  8
0
  5
6DF5
 10
-66.4693
 20
292.978
 30
-6.50827e-14
  70
    32
  0
VERTEX
  8
0
  5
6DF6
 10
-66.4695
 20
292.972
 30
-6.50813e-14
  70
    32
  0
VERTEX
  8
0
  5
6DF7
 10
-66.4698
 20
292.966
 30
-6.50800e-14
  70
    32
  0
VERTEX
  8
0
  5
6DF8
 10
-66.4700
 20
292.961
 30
-6.50786e-14
  70
    32
  0
VERTEX
  8
0
  5
6DF9
 10
-66.4702
 20
292.955
 30
-6.50772e-14
  70
    32
  0
VERTEX
  8
0
  5
6DFA
 10
-66.4705
 20
292.949
 30
-6.50757e-14
  70
    32
  0
VERTEX
  8
0
  5
6DFB
 10
-66.4707
 20
292.943
 30
-6.50742e-14
  70
    32
  0
VERTEX
  8
0
  5
6DFC
 10
-66.4709
 20
292.938
 30
-6.50727e-14
  70
    32
  0
VERTEX
  8
0
  5
6DFD
 10
-66.4712
 20
292.932
 30
-6.50711e-14
  70
    32
  0
VERTEX
  8
0
  5
6DFE
 10
-66.4714
 20
292.926
 30
-6.50695e-14
  70
    32
  0
VERTEX
  8
0
  5
6DFF
 10
-66.4716
 20
292.921
 30
-6.50678e-14
  70
    32
  0
VERTEX
  8
0
  5
6E00
 10
-66.4719
 20
292.915
 30
-6.50661e-14
  70
    32
  0
VERTEX
  8
0
  5
6E01
 10
-66.4721
 20
292.910
 30
-6.50643e-14
  70
    32
  0
VERTEX
  8
0
  5
6E02
 10
-66.4723
 20
292.904
 30
-6.50625e-14
  70
    32
  0
VERTEX
  8
0
  5
6E03
 10
-66.4725
 20
292.898
 30
-6.50606e-14
  70
    32
  0
VERTEX
  8
0
  5
6E04
 10
-66.4728
 20
292.893
 30
-6.50587e-14
  70
    32
  0
VERTEX
  8
0
  5
6E05
 10
-66.4730
 20
292.887
 30
-6.50567e-14
  70
    32
  0
VERTEX
  8
0
  5
6E06
 10
-66.4732
 20
292.882
 30
-6.50547e-14
  70
    32
  0
VERTEX
  8
0
  5
6E07
 10
-66.4735
 20
292.876
 30
-6.50526e-14
  70
    32
  0
VERTEX
  8
0
  5
6E08
 10
-66.4737
 20
292.871
 30
-6.50504e-14
  70
    32
  0
VERTEX
  8
0
  5
6E09
 10
-66.4739
 20
292.866
 30
-6.50482e-14
  70
    32
  0
VERTEX
  8
0
  5
6E0A
 10
-66.4741
 20
292.860
 30
-6.50461e-14
  70
    32
  0
VERTEX
  8
0
  5
6E0B
 10
-66.4744
 20
292.855
 30
-6.50440e-14
  70
    32
  0
VERTEX
  8
0
  5
6E0C
 10
-66.4746
 20
292.849
 30
-6.50420e-14
  70
    32
  0
VERTEX
  8
0
  5
6E0D
 10
-66.4748
 20
292.844
 30
-6.50401e-14
  70
    32
  0
VERTEX
  8
0
  5
6E0E
 10
-66.4750
 20
292.839
 30
-6.50382e-14
  70
    32
  0
VERTEX
  8
0
  5
6E0F
 10
-66.4753
 20
292.833
 30
-6.50364e-14
  70
    32
  0
VERTEX
  8
0
  5
6E10
 10
-66.4755
 20
292.828
 30
-6.50346e-14
  70
    32
  0
VERTEX
  8
0
  5
6E11
 10
-66.4757
 20
292.823
 30
-6.50328e-14
  70
    32
  0
VERTEX
  8
0
  5
6E12
 10
-66.4759
 20
292.818
 30
-6.50312e-14
  70
    32
  0
VERTEX
  8
0
  5
6E13
 10
-66.4762
 20
292.813
 30
-6.50295e-14
  70
    32
  0
VERTEX
  8
0
  5
6E14
 10
-66.4764
 20
292.807
 30
-6.50279e-14
  70
    32
  0
VERTEX
  8
0
  5
6E15
 10
-66.4766
 20
292.802
 30
-6.50264e-14
  70
    32
  0
VERTEX
  8
0
  5
6E16
 10
-66.4768
 20
292.797
 30
-6.50249e-14
  70
    32
  0
VERTEX
  8
0
  5
6E17
 10
-66.4770
 20
292.792
 30
-6.50234e-14
  70
    32
  0
VERTEX
  8
0
  5
6E18
 10
-66.4773
 20
292.787
 30
-6.50220e-14
  70
    32
  0
VERTEX
  8
0
  5
6E19
 10
-66.4775
 20
292.782
 30
-6.50206e-14
  70
    32
  0
VERTEX
  8
0
  5
6E1A
 10
-66.4777
 20
292.777
 30
-6.50192e-14
  70
    32
  0
VERTEX
  8
0
  5
6E1B
 10
-66.4779
 20
292.772
 30
-6.50178e-14
  70
    32
  0
VERTEX
  8
0
  5
6E1C
 10
-66.4781
 20
292.767
 30
-6.50165e-14
  70
    32
  0
VERTEX
  8
0
  5
6E1D
 10
-66.4783
 20
292.762
 30
-6.50153e-14
  70
    32
  0
VERTEX
  8
0
  5
6E1E
 10
-66.4786
 20
292.757
 30
-6.50140e-14
  70
    32
  0
VERTEX
  8
0
  5
6E1F
 10
-66.4788
 20
292.752
 30
-6.50128e-14
  70
    32
  0
VERTEX
  8
0
  5
6E20
 10
-66.4790
 20
292.747
 30
-6.50115e-14
  70
    32
  0
VERTEX
  8
0
  5
6E21
 10
-66.4792
 20
292.742
 30
-6.50104e-14
  70
    32
  0
VERTEX
  8
0
  5
6E22
 10
-66.4794
 20
292.737
 30
-6.50092e-14
  70
    32
  0
VERTEX
  8
0
  5
6E23
 10
-66.4796
 20
292.732
 30
-6.50080e-14
  70
    32
  0
VERTEX
  8
0
  5
6E24
 10
-66.4798
 20
292.728
 30
-6.50069e-14
  70
    32
  0
VERTEX
  8
0
  5
6E25
 10
-66.4800
 20
292.723
 30
-6.50057e-14
  70
    32
  0
VERTEX
  8
0
  5
6E26
 10
-66.4803
 20
292.718
 30
-6.50046e-14
  70
    32
  0
VERTEX
  8
0
  5
6E27
 10
-66.4805
 20
292.713
 30
-6.50035e-14
  70
    32
  0
VERTEX
  8
0
  5
6E28
 10
-66.4807
 20
292.709
 30
-6.50024e-14
  70
    32
  0
VERTEX
  8
0
  5
6E29
 10
-66.4809
 20
292.704
 30
-6.50013e-14
  70
    32
  0
VERTEX
  8
0
  5
6E2A
 10
-66.4811
 20
292.699
 30
-6.50002e-14
  70
    32
  0
VERTEX
  8
0
  5
6E2B
 10
-66.4813
 20
292.695
 30
-6.49991e-14
  70
    32
  0
VERTEX
  8
0
  5
6E2C
 10
-66.4815
 20
292.690
 30
-6.49980e-14
  70
    32
  0
VERTEX
  8
0
  5
6E2D
 10
-66.4817
 20
292.685
 30
-6.49969e-14
  70
    32
  0
VERTEX
  8
0
  5
6E2E
 10
-66.4819
 20
292.681
 30
-6.49957e-14
  70
    32
  0
VERTEX
  8
0
  5
6E2F
 10
-66.4821
 20
292.676
 30
-6.49946e-14
  70
    32
  0
VERTEX
  8
0
  5
6E30
 10
-66.4823
 20
292.672
 30
-6.49935e-14
  70
    32
  0
VERTEX
  8
0
  5
6E31
 10
-66.4825
 20
292.667
 30
-6.49923e-14
  70
    32
  0
VERTEX
  8
0
  5
6E32
 10
-66.4827
 20
292.663
 30
-6.49912e-14
  70
    32
  0
VERTEX
  8
0
  5
6E33
 10
-66.4829
 20
292.658
 30
-6.49900e-14
  70
    32
  0
VERTEX
  8
0
  5
6E34
 10
-66.4831
 20
292.654
 30
-6.49888e-14
  70
    32
  0
VERTEX
  8
0
  5
6E35
 10
-66.4833
 20
292.649
 30
-6.49876e-14
  70
    32
  0
VERTEX
  8
0
  5
6E36
 10
-66.4835
 20
292.645
 30
-6.49864e-14
  70
    32
  0
VERTEX
  8
0
  5
6E37
 10
-66.4837
 20
292.641
 30
-6.49851e-14
  70
    32
  0
VERTEX
  8
0
  5
6E38
 10
-66.4839
 20
292.636
 30
-6.49839e-14
  70
    32
  0
VERTEX
  8
0
  5
6E39
 10
-66.4841
 20
292.632
 30
-6.49826e-14
  70
    32
  0
VERTEX
  8
0
  5
6E3A
 10
-66.4843
 20
292.628
 30
-6.49812e-14
  70
    32
  0
VERTEX
  8
0
  5
6E3B
 10
-66.4845
 20
292.624
 30
-6.49799e-14
  70
    32
  0
VERTEX
  8
0
  5
6E3C
 10
-66.4847
 20
292.619
 30
-6.49785e-14
  70
    32
  0
VERTEX
  8
0
  5
6E3D
 10
-66.4849
 20
292.615
 30
-6.49771e-14
  70
    32
  0
VERTEX
  8
0
  5
6E3E
 10
-66.4851
 20
292.611
 30
-6.49756e-14
  70
    32
  0
VERTEX
  8
0
  5
6E3F
 10
-66.4852
 20
292.607
 30
-6.49741e-14
  70
    32
  0
VERTEX
  8
0
  5
6E40
 10
-66.4854
 20
292.603
 30
-6.49726e-14
  70
    32
  0
VERTEX
  8
0
  5
6E41
 10
-66.4856
 20
292.599
 30
-6.49710e-14
  70
    32
  0
VERTEX
  8
0
  5
6E42
 10
-66.4858
 20
292.595
 30
-6.49694e-14
  70
    32
  0
VERTEX
  8
0
  5
6E43
 10
-66.4860
 20
292.591
 30
-6.49677e-14
  70
    32
  0
VERTEX
  8
0
  5
6E44
 10
-66.4862
 20
292.587
 30
-6.49660e-14
  70
    32
  0
VERTEX
  8
0
  5
6E45
 10
-66.4864
 20
292.583
 30
-6.49642e-14
  70
    32
  0
VERTEX
  8
0
  5
6E46
 10
-66.4865
 20
292.579
 30
-6.49624e-14
  70
    32
  0
VERTEX
  8
0
  5
6E47
 10
-66.4867
 20
292.575
 30
-6.49605e-14
  70
    32
  0
VERTEX
  8
0
  5
6E48
 10
-66.4869
 20
292.571
 30
-6.49586e-14
  70
    32
  0
VERTEX
  8
0
  5
6E49
 10
-66.4871
 20
292.567
 30
-6.49566e-14
  70
    32
  0
VERTEX
  8
0
  5
6E4A
 10
-66.4873
 20
292.563
 30
-6.49545e-14
  70
    32
  0
VERTEX
  8
0
  5
6E4B
 10
-66.4874
 20
292.559
 30
-6.49524e-14
  70
    32
  0
VERTEX
  8
0
  5
6E4C
 10
-66.4876
 20
292.556
 30
-6.49503e-14
  70
    32
  0
VERTEX
  8
0
  5
6E4D
 10
-66.4878
 20
292.552
 30
-6.49481e-14
  70
    32
  0
VERTEX
  8
0
  5
6E4E
 10
-66.4880
 20
292.548
 30
-6.49460e-14
  70
    32
  0
VERTEX
  8
0
  5
6E4F
 10
-66.4881
 20
292.544
 30
-6.49439e-14
  70
    32
  0
VERTEX
  8
0
  5
6E50
 10
-66.4883
 20
292.541
 30
-6.49419e-14
  70
    32
  0
VERTEX
  8
0
  5
6E51
 10
-66.4885
 20
292.537
 30
-6.49400e-14
  70
    32
  0
VERTEX
  8
0
  5
6E52
 10
-66.4887
 20
292.533
 30
-6.49381e-14
  70
    32
  0
VERTEX
  8
0
  5
6E53
 10
-66.4888
 20
292.530
 30
-6.49363e-14
  70
    32
  0
VERTEX
  8
0
  5
6E54
 10
-66.4890
 20
292.526
 30
-6.49346e-14
  70
    32
  0
VERTEX
  8
0
  5
6E55
 10
-66.4892
 20
292.523
 30
-6.49329e-14
  70
    32
  0
VERTEX
  8
0
  5
6E56
 10
-66.4893
 20
292.519
 30
-6.49312e-14
  70
    32
  0
VERTEX
  8
0
  5
6E57
 10
-66.4895
 20
292.516
 30
-6.49296e-14
  70
    32
  0
VERTEX
  8
0
  5
6E58
 10
-66.4897
 20
292.512
 30
-6.49281e-14
  70
    32
  0
VERTEX
  8
0
  5
6E59
 10
-66.4898
 20
292.509
 30
-6.49266e-14
  70
    32
  0
VERTEX
  8
0
  5
6E5A
 10
-66.4900
 20
292.505
 30
-6.49252e-14
  70
    32
  0
VERTEX
  8
0
  5
6E5B
 10
-66.4901
 20
292.502
 30
-6.49238e-14
  70
    32
  0
VERTEX
  8
0
  5
6E5C
 10
-66.4903
 20
292.499
 30
-6.49225e-14
  70
    32
  0
VERTEX
  8
0
  5
6E5D
 10
-66.4905
 20
292.495
 30
-6.49212e-14
  70
    32
  0
VERTEX
  8
0
  5
6E5E
 10
-66.4906
 20
292.492
 30
-6.49200e-14
  70
    32
  0
VERTEX
  8
0
  5
6E5F
 10
-66.4908
 20
292.489
 30
-6.49188e-14
  70
    32
  0
VERTEX
  8
0
  5
6E60
 10
-66.4909
 20
292.485
 30
-6.49177e-14
  70
    32
  0
VERTEX
  8
0
  5
6E61
 10
-66.4911
 20
292.482
 30
-6.49166e-14
  70
    32
  0
VERTEX
  8
0
  5
6E62
 10
-66.4912
 20
292.479
 30
-6.49156e-14
  70
    32
  0
VERTEX
  8
0
  5
6E63
 10
-66.4914
 20
292.476
 30
-6.49146e-14
  70
    32
  0
VERTEX
  8
0
  5
6E64
 10
-66.4915
 20
292.473
 30
-6.49136e-14
  70
    32
  0
VERTEX
  8
0
  5
6E65
 10
-66.4917
 20
292.470
 30
-6.49127e-14
  70
    32
  0
VERTEX
  8
0
  5
6E66
 10
-66.4918
 20
292.467
 30
-6.49119e-14
  70
    32
  0
VERTEX
  8
0
  5
6E67
 10
-66.4920
 20
292.463
 30
-6.49110e-14
  70
    32
  0
VERTEX
  8
0
  5
6E68
 10
-66.4921
 20
292.460
 30
-6.49103e-14
  70
    32
  0
VERTEX
  8
0
  5
6E69
 10
-66.4923
 20
292.457
 30
-6.49095e-14
  70
    32
  0
VERTEX
  8
0
  5
6E6A
 10
-66.4924
 20
292.454
 30
-6.49088e-14
  70
    32
  0
VERTEX
  8
0
  5
6E6B
 10
-66.4925
 20
292.452
 30
-6.49081e-14
  70
    32
  0
VERTEX
  8
0
  5
6E6C
 10
-66.4927
 20
292.449
 30
-6.49075e-14
  70
    32
  0
VERTEX
  8
0
  5
6E6D
 10
-66.4928
 20
292.446
 30
-6.49069e-14
  70
    32
  0
VERTEX
  8
0
  5
6E6E
 10
-66.4930
 20
292.443
 30
-6.49063e-14
  70
    32
  0
VERTEX
  8
0
  5
6E6F
 10
-66.4931
 20
292.440
 30
-6.49058e-14
  70
    32
  0
VERTEX
  8
0
  5
6E70
 10
-66.4932
 20
292.437
 30
-6.49053e-14
  70
    32
  0
VERTEX
  8
0
  5
6E71
 10
-66.4934
 20
292.435
 30
-6.49048e-14
  70
    32
  0
VERTEX
  8
0
  5
6E72
 10
-66.4935
 20
292.432
 30
-6.49043e-14
  70
    32
  0
VERTEX
  8
0
  5
6E73
 10
-66.4936
 20
292.429
 30
-6.49039e-14
  70
    32
  0
VERTEX
  8
0
  5
6E74
 10
-66.4938
 20
292.426
 30
-6.49035e-14
  70
    32
  0
VERTEX
  8
0
  5
6E75
 10
-66.4939
 20
292.424
 30
-6.49032e-14
  70
    32
  0
VERTEX
  8
0
  5
6E76
 10
-66.4940
 20
292.421
 30
-6.49028e-14
  70
    32
  0
VERTEX
  8
0
  5
6E77
 10
-66.4941
 20
292.418
 30
-6.49025e-14
  70
    32
  0
VERTEX
  8
0
  5
6E78
 10
-66.4943
 20
292.416
 30
-6.49022e-14
  70
    32
  0
VERTEX
  8
0
  5
6E79
 10
-66.4944
 20
292.413
 30
-6.49020e-14
  70
    32
  0
VERTEX
  8
0
  5
6E7A
 10
-66.4945
 20
292.411
 30
-6.49017e-14
  70
    32
  0
VERTEX
  8
0
  5
6E7B
 10
-66.4946
 20
292.408
 30
-6.49015e-14
  70
    32
  0
VERTEX
  8
0
  5
6E7C
 10
-66.4947
 20
292.406
 30
-6.49013e-14
  70
    32
  0
VERTEX
  8
0
  5
6E7D
 10
-66.4949
 20
292.403
 30
-6.49011e-14
  70
    32
  0
VERTEX
  8
0
  5
6E7E
 10
-66.4950
 20
292.401
 30
-6.49009e-14
  70
    32
  0
VERTEX
  8
0
  5
6E7F
 10
-66.4951
 20
292.399
 30
-6.49008e-14
  70
    32
  0
VERTEX
  8
0
  5
6E80
 10
-66.4952
 20
292.396
 30
-6.49007e-14
  70
    32
  0
VERTEX
  8
0
  5
6E81
 10
-66.4953
 20
292.394
 30
-6.49005e-14
  70
    32
  0
VERTEX
  8
0
  5
6E82
 10
-66.4954
 20
292.392
 30
-6.49004e-14
  70
    32
  0
VERTEX
  8
0
  5
6E83
 10
-66.4956
 20
292.389
 30
-6.49004e-14
  70
    32
  0
VERTEX
  8
0
  5
6E84
 10
-66.4957
 20
292.387
 30
-6.49003e-14
  70
    32
  0
VERTEX
  8
0
  5
6E85
 10
-66.4958
 20
292.385
 30
-6.49002e-14
  70
    32
  0
VERTEX
  8
0
  5
6E86
 10
-66.4959
 20
292.383
 30
-6.49002e-14
  70
    32
  0
VERTEX
  8
0
  5
6E87
 10
-66.4960
 20
292.381
 30
-6.49001e-14
  70
    32
  0
VERTEX
  8
0
  5
6E88
 10
-66.4961
 20
292.379
 30
-6.49001e-14
  70
    32
  0
VERTEX
  8
0
  5
6E89
 10
-66.4962
 20
292.376
 30
-6.49001e-14
  70
    32
  0
VERTEX
  8
0
  5
6E8A
 10
-66.4963
 20
292.374
 30
-6.49000e-14
  70
    32
  0
VERTEX
  8
0
  5
6E8B
 10
-66.4964
 20
292.372
 30
-6.49000e-14
  70
    32
  0
VERTEX
  8
0
  5
6E8C
 10
-66.4965
 20
292.370
 30
-6.49000e-14
  70
    32
  0
VERTEX
  8
0
  5
6E8D
 10
-66.4966
 20
292.368
 30
-6.49000e-14
  70
    32
  0
VERTEX
  8
0
  5
6E8E
 10
-66.4967
 20
292.366
 30
-6.49000e-14
  70
    32
  0
VERTEX
  8
0
  5
6E8F
 10
-66.4968
 20
292.365
 30
-6.49000e-14
  70
    32
  0
VERTEX
  8
0
  5
6E90
 10
-66.4969
 20
292.363
 30
-6.49000e-14
  70
    32
  0
VERTEX
  8
0
  5
6E91
 10
-66.4970
 20
292.361
 30
-6.49000e-14
  70
    32
  0
VERTEX
  8
0
  5
6E92
 10
-66.4971
 20
292.359
 30
-6.49000e-14
  70
    32
  0
VERTEX
  8
0
  5
6E93
 10
-66.4971
 20
292.357
 30
-6.49000e-14
  70
    32
  0
VERTEX
  8
0
  5
6E94
 10
-66.4972
 20
292.355
 30
-6.49000e-14
  70
    32
  0
VERTEX
  8
0
  5
6E95
 10
-66.4973
 20
292.354
 30
-6.49000e-14
  70
    32
  0
VERTEX
  8
0
  5
6E96
 10
-66.4974
 20
292.352
 30
-6.49000e-14
  70
    32
  0
VERTEX
  8
0
  5
6E97
 10
-66.4975
 20
292.350
 30
-6.49000e-14
  70
    32
  0
VERTEX
  8
0
  5
6E98
 10
-66.4976
 20
292.349
 30
-6.49000e-14
  70
    32
  0
VERTEX
  8
0
  5
6E99
 10
-66.4977
 20
292.347
 30
-6.49000e-14
  70
    32
  0
VERTEX
  8
0
  5
6E9A
 10
-66.4977
 20
292.345
 30
-6.49000e-14
  70
    32
  0
VERTEX
  8
0
  5
6E9B
 10
-66.4978
 20
292.344
 30
-6.49000e-14
  70
    32
  0
VERTEX
  8
0
  5
6E9C
 10
-66.4979
 20
292.342
 30
-6.49000e-14
  70
    32
  0
VERTEX
  8
0
  5
6E9D
 10
-66.4980
 20
292.341
 30
-6.49000e-14
  70
    32
  0
VERTEX
  8
0
  5
6E9E
 10
-66.4980
 20
292.339
 30
-6.49000e-14
  70
    32
  0
VERTEX
  8
0
  5
6E9F
 10
-66.4981
 20
292.338
 30
-6.49000e-14
  70
    32
  0
VERTEX
  8
0
  5
6EA0
 10
-66.4982
 20
292.336
 30
-6.49000e-14
  70
    32
  0
VERTEX
  8
0
  5
6EA1
 10
-66.4982
 20
292.335
 30
-6.49000e-14
  70
    32
  0
VERTEX
  8
0
  5
6EA2
 10
-66.4983
 20
292.334
 30
-6.49000e-14
  70
    32
  0
VERTEX
  8
0
  5
6EA3
 10
-66.4984
 20
292.332
 30
-6.49000e-14
  70
    32
  0
VERTEX
  8
0
  5
6EA4
 10
-66.4984
 20
292.331
 30
-6.49000e-14
  70
    32
  0
VERTEX
  8
0
  5
6EA5
 10
-66.4985
 20
292.330
 30
-6.49000e-14
  70
    32
  0
VERTEX
  8
0
  5
6EA6
 10
-66.4986
 20
292.328
 30
-6.49000e-14
  70
    32
  0
VERTEX
  8
0
  5
6EA7
 10
-66.4986
 20
292.327
 30
-6.49000e-14
  70
    32
  0
VERTEX
  8
0
  5
6EA8
 10
-66.4987
 20
292.326
 30
-6.49000e-14
  70
    32
  0
VERTEX
  8
0
  5
6EA9
 10
-66.4988
 20
292.325
 30
-6.49000e-14
  70
    32
  0
VERTEX
  8
0
  5
6EAA
 10
-66.4988
 20
292.324
 30
-6.49000e-14
  70
    32
  0
VERTEX
  8
0
  5
6EAB
 10
-66.4989
 20
292.322
 30
-6.49000e-14
  70
    32
  0
VERTEX
  8
0
  5
6EAC
 10
-66.4989
 20
292.321
 30
-6.49000e-14
  70
    32
  0
VERTEX
  8
0
  5
6EAD
 10
-66.4990
 20
292.320
 30
-6.49000e-14
  70
    32
  0
VERTEX
  8
0
  5
6EAE
 10
-66.4990
 20
292.319
 30
-6.49000e-14
  70
    32
  0
VERTEX
  8
0
  5
6EAF
 10
-66.4991
 20
292.318
 30
-6.49000e-14
  70
    32
  0
VERTEX
  8
0
  5
6EB0
 10
-66.4991
 20
292.317
 30
-6.49000e-14
  70
    32
  0
VERTEX
  8
0
  5
6EB1
 10
-66.4992
 20
292.316
 30
-6.49000e-14
  70
    32
  0
VERTEX
  8
0
  5
6EB2
 10
-66.4992
 20
292.315
 30
-6.49000e-14
  70
    32
  0
VERTEX
  8
0
  5
6EB3
 10
-66.4993
 20
292.314
 30
-6.49000e-14
  70
    32
  0
VERTEX
  8
0
  5
6EB4
 10
-66.4993
 20
292.314
 30
-6.49000e-14
  70
    32
  0
VERTEX
  8
0
  5
6EB5
 10
-66.4994
 20
292.313
 30
-6.49000e-14
  70
    32
  0
VERTEX
  8
0
  5
6EB6
 10
-66.4994
 20
292.312
 30
-6.49000e-14
  70
    32
  0
VERTEX
  8
0
  5
6EB7
 10
-66.4994
 20
292.311
 30
-6.49000e-14
  70
    32
  0
VERTEX
  8
0
  5
6EB8
 10
-66.4995
 20
292.310
 30
-6.49000e-14
  70
    32
  0
VERTEX
  8
0
  5
6EB9
 10
-66.4995
 20
292.310
 30
-6.49000e-14
  70
    32
  0
VERTEX
  8
0
  5
6EBA
 10
-66.4995
 20
292.309
 30
-6.49000e-14
  70
    32
  0
VERTEX
  8
0
  5
6EBB
 10
-66.4996
 20
292.308
 30
-6.49000e-14
  70
    32
  0
VERTEX
  8
0
  5
6EBC
 10
-66.4996
 20
292.308
 30
-6.49000e-14
  70
    32
  0
VERTEX
  8
0
  5
6EBD
 10
-66.4996
 20
292.307
 30
-6.49000e-14
  70
    32
  0
VERTEX
  8
0
  5
6EBE
 10
-66.4997
 20
292.306
 30
-6.49000e-14
  70
    32
  0
VERTEX
  8
0
  5
6EBF
 10
-66.4997
 20
292.306
 30
-6.49000e-14
  70
    32
  0
VERTEX
  8
0
  5
6EC0
 10
-66.4997
 20
292.305
 30
-6.49000e-14
  70
    32
  0
VERTEX
  8
0
  5
6EC1
 10
-66.4998
 20
292.305
 30
-6.49000e-14
  70
    32
  0
VERTEX
  8
0
  5
6EC2
 10
-66.4998
 20
292.304
 30
-6.49000e-14
  70
    32
  0
VERTEX
  8
0
  5
6EC3
 10
-66.4998
 20
292.304
 30
-6.49000e-14
  70
    32
  0
VERTEX
  8
0
  5
6EC4
 10
-66.4998
 20
292.303
 30
-6.49000e-14
  70
    32
  0
VERTEX
  8
0
  5
6EC5
 10
-66.4998
 20
292.303
 30
-6.49000e-14
  70
    32
  0
VERTEX
  8
0
  5
6EC6
 10
-66.4999
 20
292.303
 30
-6.49000e-14
  70
    32
  0
VERTEX
  8
0
  5
6EC7
 10
-66.4999
 20
292.302
 30
-6.49000e-14
  70
    32
  0
VERTEX
  8
0
  5
6EC8
 10
-66.4999
 20
292.302
 30
-6.49000e-14
  70
    32
  0
VERTEX
  8
0
  5
6EC9
 10
-66.4999
 20
292.302
 30
-6.49000e-14
  70
    32
  0
VERTEX
  8
0
  5
6ECA
 10
-66.4999
 20
292.301
 30
-6.49000e-14
  70
    32
  0
VERTEX
  8
0
  5
6ECB
 10
-66.4999
 20
292.301
 30
-6.49000e-14
  70
    32
  0
VERTEX
  8
0
  5
6ECC
 10
-66.5000
 20
292.301
 30
-6.49000e-14
  70
    32
  0
VERTEX
  8
0
  5
6ECD
 10
-66.5000
 20
292.301
 30
-6.49000e-14
  70
    32
  0
VERTEX
  8
0
  5
6ECE
 10
-66.5000
 20
292.300
 30
-6.49000e-14
  70
    32
  0
VERTEX
  8
0
  5
6ECF
 10
-66.5000
 20
292.300
 30
-6.49000e-14
  70
    32
  0
VERTEX
  8
0
  5
6ED0
 10
-66.5000
 20
292.300
 30
-6.49000e-14
  70
    32
  0
VERTEX
  8
0
  5
6ED1
 10
-66.5000
 20
292.300
 30
-6.49000e-14
  70
    32
  0
VERTEX
  8
0
  5
6ED2
 10
-66.5000
 20
292.300
 30
-6.49000e-14
  70
    32
  0
VERTEX
  8
0
  5
6ED3
 10
-66.5000
 20
292.300
 30
-6.49000e-14
  70
    32
  0
VERTEX
  8
0
  5
6ED4
 10
-66.5000
 20
292.300
 30
-6.49000e-14
  70
    32
  0
SEQEND
  8
0
  5
6ED5
  0
LINE
  5
69C4
  8
0
  6
CONTINUOUS
 62
     3
 10
-66.4999999999997726
 20
139.9999999999974989
 30
-0.0000000000000311
 11
66.5000000000002274
 21
139.9999999999974989
 31
-0.0000000000000311
210
0.0
220
1.0
230
-0.0000000000000002
  0
LINE
  5
69C5
  8
0
  6
CONTINUOUS
 62
     3
 10
66.5000000000002274
 20
307.9999999999973284
 30
-0.0000000000000684
 11
66.5000000000002274
 21
236.2107412439384859
 31
-0.0000000000000524
210
0.0
220
1.0
230
-0.0000000000000002
  0
LINE
  5
69C6
  8
0
  6
CONTINUOUS
 62
     3
 10
66.5000000000002274
 20
229.9989384205071019
 30
-0.0000000000000511
 11
66.5000000000002274
 21
139.9999999999974989
 31
-0.0000000000000311
210
0.0
220
1.0
230
-0.0000000000000002
  0
LINE
  5
69C7
  8
0
  6
CONTINUOUS
 62
     3
 10
-66.4999999999997726
 20
307.9999999999973284
 30
-0.0000000000000684
 11
-66.4999999999997726
 21
298.9999999999981242
 31
-0.0000000000000664
210
0.0
220
1.0
230
-0.0000000000000002
  0
LINE
  5
69C8
  8
0
  6
CONTINUOUS
 62
     3
 10
-66.4999999999997726
 20
292.2999999999980218
 30
-0.0000000000000649
 11
-66.4999999999997726
 21
236.2107412439384859
 31
-0.0000000000000524
210
0.0
220
1.0
230
-0.0000000000000002
  0
LINE
  5
69C9
  8
0
  6
CONTINUOUS
 62
     3
 10
-66.4999999999997726
 20
229.9989384205071019
 30
-0.0000000000000511
 11
-66.4999999999997726
 21
139.9999999999974989
 31
-0.0000000000000311
210
0.0
220
1.0
230
-0.0000000000000002
  0
LINE
  5
69CA
  8
0
  6
CONTINUOUS
 62
     3
 10
-68.5608243782116915
 20
292.9999999969890041
 30
-0.0000000000000651
 11
-68.5608243782116915
 21
297.9999999969890041
 31
-0.0000000000000662
210
0.0
220
1.0
230
-0.0000000000000002
  0
LINE
  5
69CB
  8
0
  6
CONTINUOUS
 62
     3
 10
-67.5608243782116915
 20
290.7071067781752731
 30
-0.0000000000000645
 11
-67.5608243782116915
 21
300.2928932158026782
 31
-0.0000000000000667
210
0.0
220
1.0
230
-0.0000000000000002
  0
LINE
  5
69CC
  8
0
  6
CONTINUOUS
 62
     3
 10
-66.5608243782116915
 20
290.7071067781752731
 30
-0.0000000000000645
 11
-66.5608243782116915
 21
300.2928932158026782
 31
-0.0000000000000667
210
0.0
220
1.0
230
-0.0000000000000002
  0
ARC
  5
69CD
  8
0
  6
CONTINUOUS
 62
     3
 10
68.060824378211521
 20
292.9999999969891746
 30
0.0
 40
0.5000000000001706
210
0.0
220
-0.0000000000000002
230
-1.0
 50
270.0
 51
359.9999999999608917
  0
ARC
  5
69CE
  8
0
  6
CONTINUOUS
 62
     3
 10
68.060824378211521
 20
297.9999999969888904
 30
0.0
 40
0.5000000000001706
210
0.0
220
-0.0000000000000002
230
-1.0
 50
0.0000000000195413
 51
89.9999999999804601
  0
LINE
  5
69CF
  8
0
  6
CONTINUOUS
 62
     3
 10
-68.0608243782116915
 20
298.4999999969890041
 30
-0.0000000000000663
 11
-67.5608243782116915
 21
298.4999999969890041
 31
-0.0000000000000663
210
0.0
220
1.0
230
-0.0000000000000002
  0
LINE
  5
69D0
  8
0
  6
CONTINUOUS
 62
     3
 10
-68.0608243782116915
 20
292.4999999969890041
 30
-0.0000000000000649
 11
-67.5608243782116915
 21
292.4999999969890041
 31
-0.0000000000000649
210
0.0
220
1.0
230
-0.0000000000000002
  0
ARC
  5
69D1
  8
0
  6
CONTINUOUS
 62
     3
 10
67.0608243782116915
 20
290.7071067781752731
 30
0.0
 40
0.5
210
0.0
220
-0.0000000000000002
230
-1.0
 50
180.0
 51
0.0
  0
ARC
  5
69D2
  8
0
  6
CONTINUOUS
 62
     3
 10
67.0608243782116915
 20
300.2928932158026782
 30
0.0
 40
0.5
210
0.0
220
-0.0000000000000002
230
-1.0
 50
0.0
 51
180.0
  0
LINE
  5
69D3
  8
0
  6
CONTINUOUS
 62
     3
 10
-66.5608243782116915
 20
298.4999999969890041
 30
-0.0000000000000663
 11
-66.4766876429837339
 21
298.4999999969890041
 31
-0.0000000000000663
210
0.0
220
1.0
230
-0.0000000000000002
  0
LINE
  5
69D4
  8
0
  6
CONTINUOUS
 62
     3
 10
-66.5608243782116915
 20
292.4999999969890041
 30
-0.0000000000000649
 11
-66.4902248456037341
 21
292.4999999969890041
 31
-0.0000000000000649
210
0.0
220
1.0
230
-0.0000000000000002
  0
LINE
  5
69D5
  8
0
  6
CONTINUOUS
 62
     3
 10
66.4999999999997726
 20
307.9999999999973284
 30
-0.0000000000000684
 11
-66.4999999999997726
 21
307.9999999999973284
 31
-0.0000000000000684
210
0.0
220
1.0
230
-0.0000000000000002
  0
LINE
  5
69D6
  8
0
  6
CONTINUOUS
 62
     3
 10
66.4999999999997726
 20
312.0
 30
-0.0000000000000693
 11
-66.4999999999997726
 21
312.0
 31
-0.0000000000000693
210
0.0
220
1.0
230
-0.0000000000000002
  0
LINE
  5
69D7
  8
0
  6
CONTINUOUS
 62
     3
 10
-66.4999999999997726
 20
307.9999999999973284
 30
-0.0000000000000684
 11
-66.4999999999997726
 21
312.0
 31
-0.0000000000000693
210
0.0
220
1.0
230
-0.0000000000000002
  0
LINE
  5
69D8
  8
0
  6
CONTINUOUS
 62
     3
 10
66.4999999999997726
 20
307.9999999999973284
 30
-0.0000000000000684
 11
66.4999999999997726
 21
312.0
 31
-0.0000000000000693
210
0.0
220
1.0
230
-0.0000000000000002
  0
LINE
  5
69D9
  8
0
  6
CONTINUOUS
 62
     3
 10
35.8077303668797029
 20
0.0
 30
0.0
 11
-35.8077303668797029
 21
0.0
 31
0.0
210
0.0
220
1.0
230
-0.0000000000000002
  0
LINE
  5
69DA
  8
0
  6
CONTINUOUS
 62
     3
 10
39.7653973282756397
 20
1060.0
 30
-0.0000000000002354
 11
-39.7653973282756397
 21
1060.0
 31
-0.0000000000002354
210
0.0
220
1.0
230
-0.0000000000000002
  0
LINE
  5
69DB
  8
0
  6
CONTINUOUS
 62
     3
 10
-35.8077303668797029
 20
0.0
 30
0.0
 11
-36.5000000000004619
 21
7.912678114182655
 31
-0.0000000000000018
210
0.0
220
1.0
230
-0.0000000000000002
  0
LINE
  5
69DC
  8
0
  6
CONTINUOUS
 62
     3
 10
35.8077303668797029
 20
0.0
 30
0.0
 11
36.5000000000004619
 21
7.912678114182655
 31
-0.0000000000000018
210
0.0
220
1.0
230
-0.0000000000000002
  0
ARC
  5
69DD
  8
0
  6
CONTINUOUS
 62
     3
 10
-27.6000000000009003
 20
1010.3887264174179563
 30
0.0
 40
11.9999999999990408
210
0.0
220
-0.0000000000000002
230
-1.0
 50
179.9999999999988916
 51
212.3280641221629139
  0
ARC
  5
69DE
  8
0
  6
CONTINUOUS
 62
     3
 10
27.6000000000009003
 20
1010.3887264174179563
 30
0.0
 40
11.9999999999990496
210
0.0
220
-0.0000000000000002
230
-1.0
 50
327.6719358778369724
 51
0.0000000000010546
  0
LINE
  5
69DF
  8
0
  6
CONTINUOUS
 62
     3
 10
-39.5999999999999091
 20
1010.3887264174179563
 30
-0.0000000000002244
 11
-39.5999999999999091
 21
1027.0000000000009095
 31
-0.000000000000228
210
0.0
220
1.0
230
-0.0000000000000002
  0
LINE
  5
69E0
  8
0
  6
CONTINUOUS
 62
     3
 10
39.5999999999999091
 20
1010.3887264174179563
 30
-0.0000000000002244
 11
39.5999999999999091
 21
1027.0000000000009095
 31
-0.000000000000228
210
0.0
220
1.0
230
-0.0000000000000002
  0
ARC
  5
69E1
  8
0
  6
CONTINUOUS
 62
     3
 10
-51.6000000000005699
 20
1027.0000000000009095
 30
0.0
 40
12.0000000000006697
210
0.0
220
-0.0000000000000002
230
-1.0
 50
0.0000000000032569
 51
21.18315439303408
  0
ARC
  5
69E2
  8
0
  6
CONTINUOUS
 62
     3
 10
51.6000000000035612
 20
1027.0
 30
0.0
 40
12.0000000000036895
210
0.0
220
-0.0000000000000002
230
-1.0
 50
158.8168456069680019
 51
179.9999999999944862
  0
ARC
  5
69E3
  8
0
  6
CONTINUOUS
 62
     3
 10
-17.0999999999907715
 20
1040.3700000000030741
 30
0.0
 40
25.0000932431348808
210
0.0
220
-0.0000000000000002
230
-1.0
 50
179.8435140456491865
 51
201.183154393032197
  0
ARC
  5
69E4
  8
0
  6
CONTINUOUS
 62
     3
 10
17.0999999999933188
 20
1040.3700000000019372
 30
0.0
 40
25.0000932431322909
210
0.0
220
-0.0000000000000002
230
-1.0
 50
338.8168456069669787
 51
0.1564859543518279
  0
LINE
  5
69E5
  8
0
  6
CONTINUOUS
 62
     3
 10
-42.0999999999999091
 20
1040.4382800481930644
 30
-0.000000000000231
 11
-42.0999999999999091
 21
1049.4510775928820294
 31
-0.000000000000233
210
0.0
220
1.0
230
-0.0000000000000002
  0
LINE
  5
69E6
  8
0
  6
CONTINUOUS
 62
     3
 10
42.0999999999999091
 20
1040.4382800481930644
 30
-0.000000000000231
 11
42.0999999999999091
 21
1049.4510775928820294
 31
-0.000000000000233
210
0.0
220
1.0
230
-0.0000000000000002
  0
ARC
  5
69E7
  8
0
  6
CONTINUOUS
 62
     3
 10
-17.1000000000019909
 20
1049.4510775928829389
 30
0.0
 40
24.9999999999979607
210
0.0
220
-0.0000000000000002
230
-1.0
 50
155.0418036876858139
 51
180.0000000000005116
  0
ARC
  5
69E8
  8
0
  6
CONTINUOUS
 62
     3
 10
17.1000000000019909
 20
1049.4510775928829389
 30
0.0
 40
24.9999999999979217
210
0.0
220
-0.0000000000000002
230
-1.0
 50
359.9999999999994884
 51
24.9581963123141293
  0
ARC
  5
69E9
  8
0
  6
CONTINUOUS
 62
     3
 10
-44.5000000000020179
 20
999.6934003354322158
 30
0.0
 40
8.000000000002025
210
0.0
220
-0.0000000000000002
230
-1.0
 50
0.0000000000032569
 51
32.3280641221580183
  0
ARC
  5
69EA
  8
0
  6
CONTINUOUS
 62
     3
 10
44.5000000000018474
 20
999.6934003354322158
 30
0.0
 40
8.0000000000018812
210
0.0
220
-0.0000000000000002
230
-1.0
 50
147.6719358778412925
 51
179.9999999999967031
  0
LINE
  5
69EB
  8
0
  6
CONTINUOUS
 62
     3
 10
-36.5000000000002274
 20
7.912678114182655
 30
-0.0000000000000018
 11
-36.5000000000002274
 21
139.9999999999967883
 31
-0.0000000000000311
210
0.0
220
1.0
230
-0.0000000000000002
  0
LINE
  5
69EC
  8
0
  6
CONTINUOUS
 62
     3
 10
-36.5000000000002274
 20
312.0
 30
-0.0000000000000693
 11
-36.5000000000002274
 21
999.6934003354325569
 31
-0.000000000000222
210
0.0
220
1.0
230
-0.0000000000000002
  0
LINE
  5
69ED
  8
0
  6
CONTINUOUS
 62
     3
 10
36.5000000000002274
 20
7.912678114182655
 30
-0.0000000000000018
 11
36.5000000000002274
 21
139.9999999999967883
 31
-0.0000000000000311
210
0.0
220
1.0
230
-0.0000000000000002
  0
LINE
  5
69EE
  8
0
  6
CONTINUOUS
 62
     3
 10
36.5000000000002274
 20
312.0
 30
-0.0000000000000693
 11
36.5000000000002274
 21
999.6934003354325569
 31
-0.000000000000222
210
0.0
220
1.0
230
-0.0000000000000002
  0
LINE
  5
69EF
  8
0
  6
VERDECKT2
 62
     1
 10
-66.499999999998181
 20
233.5095108020894941
 30
-0.0000000000000518
 11
66.5000000000013642
 21
233.5095108020894941
 31
-0.0000000000000518
210
0.0
220
1.0
230
-0.0000000000000002
  0
LINE
  5
69F0
  8
0
  6
VERDECKT2
 62
     1
 10
-66.6377934417389497
 20
235.5047583976054
 30
-0.0000000000000523
 11
66.6377934417421329
 21
235.5047583976054
 31
-0.0000000000000523
210
0.0
220
1.0
230
-0.0000000000000002
  0
ARC
  5
69F1
  8
0
  6
VERDECKT2
 62
     1
 10
117.4054789838989024
 20
232.0989384204939086
 30
0.0
 40
2.099999999986891
210
0.0
220
-0.0000000000000002
230
-1.0
 50
266.0493790175946174
 51
270.0000000000089244
  0
ARC
  5
69F2
  8
0
  6
VERDECKT2
 62
     1
 10
-117.4054789839020998
 20
232.0989384204939086
 30
0.0
 40
2.099999999986891
210
0.0
220
-0.0000000000000002
230
-1.0
 50
270.0
 51
273.9506209824141933
  0
LINE
  5
69F3
  8
0
  6
VERDECKT2
 62
     1
 10
66.5000000000013642
 20
233.5095108020894941
 30
-0.0000000000000518
 11
117.2607958700709929
 21
230.0039284452151946
 31
-0.0000000000000511
210
0.0
220
1.0
230
-0.0000000000000002
  0
LINE
  5
69F4
  8
0
  6
VERDECKT2
 62
     1
 10
-66.499999999998181
 20
233.5095108020894941
 30
-0.0000000000000518
 11
-117.2607958700677955
 21
230.0039284452151946
 31
-0.0000000000000511
210
0.0
220
1.0
230
-0.0000000000000002
  0
LINE
  5
69F5
  8
0
  6
VERDECKT2
 62
     1
 10
-66.4999999999982947
 20
233.5095108020894941
 30
-0.0000000000000518
 11
-66.6377934417390634
 21
235.5047583976054
 31
-0.0000000000000523
210
0.0
220
1.0
230
-0.0000000000000002
  0
LINE
  5
69F6
  8
0
  6
VERDECKT2
 62
     1
 10
66.5000000000014637
 20
233.5095108020894941
 30
-0.0000000000000518
 11
66.6377934417422466
 21
235.5047583976054
 31
-0.0000000000000523
210
0.0
220
1.0
230
-0.0000000000000002
  0
LINE
  5
69F7
  8
0
  6
VERDECKT2
 62
     1
 10
66.6377934417421329
 20
235.5047583976054
 30
-0.0000000000000523
 11
117.3985893118159964
 21
231.9991760407309016
 31
-0.0000000000000515
210
0.0
220
1.0
230
-0.0000000000000002
  0
LINE
  5
69F8
  8
0
  6
VERDECKT2
 62
     1
 10
-66.6377934417389497
 20
235.5047583976054
 30
-0.0000000000000523
 11
-117.3985893118128985
 21
231.9991760407309016
 31
-0.0000000000000515
210
0.0
220
1.0
230
-0.0000000000000002
  0
ARC
  5
69F9
  8
0
  6
VERDECKT2
 62
     1
 10
117.4054789839009061
 20
232.0989384205315957
 30
0.0
 40
0.1000000000249204
210
0.0
220
-0.0000000000000002
230
-1.0
 50
266.0493790181308782
 51
269.9999999994299742
  0
ARC
  5
69FA
  8
0
  6
VERDECKT2
 62
     1
 10
117.4054789838998971
 20
232.0989384205074089
 30
0.0
 40
0.1000000000006764
210
0.0
220
-0.0000000000000002
230
-1.0
 50
269.9999999999837996
 51
320.1805385993908999
  0
ARC
  5
69FB
  8
0
  6
VERDECKT2
 62
     1
 10
-117.4054789839030946
 20
232.0989384205074089
 30
0.0
 40
0.1000000000006789
210
0.0
220
-0.0000000000000002
230
-1.0
 50
219.8194614006038989
 51
270.0000000000163141
  0
ARC
  5
69FC
  8
0
  6
VERDECKT2
 62
     1
 10
-117.4054789839040041
 20
232.098938420530601
 30
0.0
 40
0.100000000023897
210
0.0
220
-0.0000000000000002
230
-1.0
 50
270.0000000005537117
 51
273.9506209818852085
  0
LINE
  5
69FD
  8
0
  6
VERDECKT2
 62
     1
 10
-117.4054789838998971
 20
231.9989384205065903
 30
-0.0000000000000515
 11
117.4054789839030946
 21
231.998938420506704
 31
-0.0000000000000515
210
0.0
220
1.0
230
-0.0000000000000002
  0
LINE
  5
69FE
  8
0
  6
VERDECKT2
 62
     1
 10
-117.4822855895088054
 20
232.0349013583096109
 30
-0.0000000000000515
 11
-120.9638678878206974
 21
236.2107412439384859
 31
-0.0000000000000524
210
0.0
220
1.0
230
-0.0000000000000002
  0
LINE
  5
69FF
  8
0
  6
VERDECKT2
 62
     1
 10
117.4822855895120028
 20
232.0349013583096109
 30
-0.0000000000000515
 11
120.9638678878237954
 21
236.2107412439384859
 31
-0.0000000000000524
210
0.0
220
1.0
230
-0.0000000000000002
  0
POLYLINE
  8
0
  5
6ED6
  62
1
  66
     1
 10
0.000000
 20
0.000000
 30
0.000000
  70
     8
  0
VERTEX
  8
0
  5
6ED7
 10
-64.0000
 20
292.300
 30
-6.49000e-14
  70
    32
  0
VERTEX
  8
0
  5
6ED8
 10
-64.0000
 20
292.300
 30
-6.49000e-14
  70
    32
  0
VERTEX
  8
0
  5
6ED9
 10
-64.0000
 20
292.300
 30
-6.49000e-14
  70
    32
  0
VERTEX
  8
0
  5
6EDA
 10
-64.0000
 20
292.300
 30
-6.49000e-14
  70
    32
  0
VERTEX
  8
0
  5
6EDB
 10
-64.0000
 20
292.300
 30
-6.49000e-14
  70
    32
  0
VERTEX
  8
0
  5
6EDC
 10
-64.0000
 20
292.300
 30
-6.49000e-14
  70
    32
  0
VERTEX
  8
0
  5
6EDD
 10
-64.0000
 20
292.300
 30
-6.49000e-14
  70
    32
  0
VERTEX
  8
0
  5
6EDE
 10
-64.0000
 20
292.301
 30
-6.49000e-14
  70
    32
  0
VERTEX
  8
0
  5
6EDF
 10
-64.0000
 20
292.301
 30
-6.49000e-14
  70
    32
  0
VERTEX
  8
0
  5
6EE0
 10
-63.9999
 20
292.301
 30
-6.49000e-14
  70
    32
  0
VERTEX
  8
0
  5
6EE1
 10
-63.9999
 20
292.301
 30
-6.49000e-14
  70
    32
  0
VERTEX
  8
0
  5
6EE2
 10
-63.9999
 20
292.302
 30
-6.49000e-14
  70
    32
  0
VERTEX
  8
0
  5
6EE3
 10
-63.9999
 20
292.302
 30
-6.49000e-14
  70
    32
  0
VERTEX
  8
0
  5
6EE4
 10
-63.9999
 20
292.302
 30
-6.49000e-14
  70
    32
  0
VERTEX
  8
0
  5
6EE5
 10
-63.9999
 20
292.303
 30
-6.49000e-14
  70
    32
  0
VERTEX
  8
0
  5
6EE6
 10
-63.9998
 20
292.303
 30
-6.49000e-14
  70
    32
  0
VERTEX
  8
0
  5
6EE7
 10
-63.9998
 20
292.303
 30
-6.49000e-14
  70
    32
  0
VERTEX
  8
0
  5
6EE8
 10
-63.9998
 20
292.304
 30
-6.49000e-14
  70
    32
  0
VERTEX
  8
0
  5
6EE9
 10
-63.9998
 20
292.304
 30
-6.49000e-14
  70
    32
  0
VERTEX
  8
0
  5
6EEA
 10
-63.9997
 20
292.305
 30
-6.49000e-14
  70
    32
  0
VERTEX
  8
0
  5
6EEB
 10
-63.9997
 20
292.305
 30
-6.49000e-14
  70
    32
  0
VERTEX
  8
0
  5
6EEC
 10
-63.9997
 20
292.306
 30
-6.49000e-14
  70
    32
  0
VERTEX
  8
0
  5
6EED
 10
-63.9997
 20
292.306
 30
-6.49000e-14
  70
    32
  0
VERTEX
  8
0
  5
6EEE
 10
-63.9996
 20
292.307
 30
-6.49000e-14
  70
    32
  0
VERTEX
  8
0
  5
6EEF
 10
-63.9996
 20
292.308
 30
-6.49000e-14
  70
    32
  0
VERTEX
  8
0
  5
6EF0
 10
-63.9996
 20
292.308
 30
-6.49000e-14
  70
    32
  0
VERTEX
  8
0
  5
6EF1
 10
-63.9995
 20
292.309
 30
-6.49000e-14
  70
    32
  0
VERTEX
  8
0
  5
6EF2
 10
-63.9995
 20
292.310
 30
-6.49000e-14
  70
    32
  0
VERTEX
  8
0
  5
6EF3
 10
-63.9995
 20
292.310
 30
-6.49000e-14
  70
    32
  0
VERTEX
  8
0
  5
6EF4
 10
-63.9994
 20
292.311
 30
-6.49000e-14
  70
    32
  0
VERTEX
  8
0
  5
6EF5
 10
-63.9994
 20
292.312
 30
-6.49000e-14
  70
    32
  0
VERTEX
  8
0
  5
6EF6
 10
-63.9993
 20
292.313
 30
-6.49000e-14
  70
    32
  0
VERTEX
  8
0
  5
6EF7
 10
-63.9993
 20
292.314
 30
-6.49000e-14
  70
    32
  0
VERTEX
  8
0
  5
6EF8
 10
-63.9992
 20
292.314
 30
-6.49000e-14
  70
    32
  0
VERTEX
  8
0
  5
6EF9
 10
-63.9992
 20
292.315
 30
-6.49000e-14
  70
    32
  0
VERTEX
  8
0
  5
6EFA
 10
-63.9991
 20
292.316
 30
-6.49000e-14
  70
    32
  0
VERTEX
  8
0
  5
6EFB
 10
-63.9991
 20
292.317
 30
-6.49000e-14
  70
    32
  0
VERTEX
  8
0
  5
6EFC
 10
-63.9990
 20
292.318
 30
-6.49000e-14
  70
    32
  0
VERTEX
  8
0
  5
6EFD
 10
-63.9990
 20
292.319
 30
-6.49000e-14
  70
    32
  0
VERTEX
  8
0
  5
6EFE
 10
-63.9989
 20
292.320
 30
-6.49000e-14
  70
    32
  0
VERTEX
  8
0
  5
6EFF
 10
-63.9989
 20
292.321
 30
-6.49000e-14
  70
    32
  0
VERTEX
  8
0
  5
6F00
 10
-63.9988
 20
292.322
 30
-6.49000e-14
  70
    32
  0
VERTEX
  8
0
  5
6F01
 10
-63.9988
 20
292.324
 30
-6.49000e-14
  70
    32
  0
VERTEX
  8
0
  5
6F02
 10
-63.9987
 20
292.325
 30
-6.49000e-14
  70
    32
  0
VERTEX
  8
0
  5
6F03
 10
-63.9986
 20
292.326
 30
-6.49000e-14
  70
    32
  0
VERTEX
  8
0
  5
6F04
 10
-63.9986
 20
292.327
 30
-6.49000e-14
  70
    32
  0
VERTEX
  8
0
  5
6F05
 10
-63.9985
 20
292.328
 30
-6.49000e-14
  70
    32
  0
VERTEX
  8
0
  5
6F06
 10
-63.9985
 20
292.330
 30
-6.49000e-14
  70
    32
  0
VERTEX
  8
0
  5
6F07
 10
-63.9984
 20
292.331
 30
-6.49000e-14
  70
    32
  0
VERTEX
  8
0
  5
6F08
 10
-63.9983
 20
292.332
 30
-6.49000e-14
  70
    32
  0
VERTEX
  8
0
  5
6F09
 10
-63.9983
 20
292.334
 30
-6.49000e-14
  70
    32
  0
VERTEX
  8
0
  5
6F0A
 10
-63.9982
 20
292.335
 30
-6.49000e-14
  70
    32
  0
VERTEX
  8
0
  5
6F0B
 10
-63.9981
 20
292.336
 30
-6.49000e-14
  70
    32
  0
VERTEX
  8
0
  5
6F0C
 10
-63.9980
 20
292.338
 30
-6.49000e-14
  70
    32
  0
VERTEX
  8
0
  5
6F0D
 10
-63.9980
 20
292.339
 30
-6.49000e-14
  70
    32
  0
VERTEX
  8
0
  5
6F0E
 10
-63.9979
 20
292.341
 30
-6.49000e-14
  70
    32
  0
VERTEX
  8
0
  5
6F0F
 10
-63.9978
 20
292.342
 30
-6.49000e-14
  70
    32
  0
VERTEX
  8
0
  5
6F10
 10
-63.9977
 20
292.344
 30
-6.49000e-14
  70
    32
  0
VERTEX
  8
0
  5
6F11
 10
-63.9976
 20
292.345
 30
-6.49000e-14
  70
    32
  0
VERTEX
  8
0
  5
6F12
 10
-63.9976
 20
292.347
 30
-6.49000e-14
  70
    32
  0
VERTEX
  8
0
  5
6F13
 10
-63.9975
 20
292.349
 30
-6.49000e-14
  70
    32
  0
VERTEX
  8
0
  5
6F14
 10
-63.9974
 20
292.350
 30
-6.49000e-14
  70
    32
  0
VERTEX
  8
0
  5
6F15
 10
-63.9973
 20
292.352
 30
-6.49000e-14
  70
    32
  0
VERTEX
  8
0
  5
6F16
 10
-63.9972
 20
292.354
 30
-6.49000e-14
  70
    32
  0
VERTEX
  8
0
  5
6F17
 10
-63.9971
 20
292.355
 30
-6.49000e-14
  70
    32
  0
VERTEX
  8
0
  5
6F18
 10
-63.9970
 20
292.357
 30
-6.49000e-14
  70
    32
  0
VERTEX
  8
0
  5
6F19
 10
-63.9969
 20
292.359
 30
-6.49000e-14
  70
    32
  0
VERTEX
  8
0
  5
6F1A
 10
-63.9968
 20
292.361
 30
-6.49000e-14
  70
    32
  0
VERTEX
  8
0
  5
6F1B
 10
-63.9968
 20
292.363
 30
-6.49000e-14
  70
    32
  0
VERTEX
  8
0
  5
6F1C
 10
-63.9967
 20
292.365
 30
-6.49000e-14
  70
    32
  0
VERTEX
  8
0
  5
6F1D
 10
-63.9966
 20
292.366
 30
-6.49000e-14
  70
    32
  0
VERTEX
  8
0
  5
6F1E
 10
-63.9965
 20
292.368
 30
-6.49000e-14
  70
    32
  0
VERTEX
  8
0
  5
6F1F
 10
-63.9964
 20
292.370
 30
-6.49000e-14
  70
    32
  0
VERTEX
  8
0
  5
6F20
 10
-63.9963
 20
292.372
 30
-6.49000e-14
  70
    32
  0
VERTEX
  8
0
  5
6F21
 10
-63.9961
 20
292.374
 30
-6.49000e-14
  70
    32
  0
VERTEX
  8
0
  5
6F22
 10
-63.9960
 20
292.376
 30
-6.49001e-14
  70
    32
  0
VERTEX
  8
0
  5
6F23
 10
-63.9959
 20
292.379
 30
-6.49001e-14
  70
    32
  0
VERTEX
  8
0
  5
6F24
 10
-63.9958
 20
292.381
 30
-6.49001e-14
  70
    32
  0
VERTEX
  8
0
  5
6F25
 10
-63.9957
 20
292.383
 30
-6.49002e-14
  70
    32
  0
VERTEX
  8
0
  5
6F26
 10
-63.9956
 20
292.385
 30
-6.49002e-14
  70
    32
  0
VERTEX
  8
0
  5
6F27
 10
-63.9955
 20
292.387
 30
-6.49003e-14
  70
    32
  0
VERTEX
  8
0
  5
6F28
 10
-63.9954
 20
292.389
 30
-6.49004e-14
  70
    32
  0
VERTEX
  8
0
  5
6F29
 10
-63.9953
 20
292.392
 30
-6.49004e-14
  70
    32
  0
VERTEX
  8
0
  5
6F2A
 10
-63.9951
 20
292.394
 30
-6.49005e-14
  70
    32
  0
VERTEX
  8
0
  5
6F2B
 10
-63.9950
 20
292.396
 30
-6.49007e-14
  70
    32
  0
VERTEX
  8
0
  5
6F2C
 10
-63.9949
 20
292.399
 30
-6.49008e-14
  70
    32
  0
VERTEX
  8
0
  5
6F2D
 10
-63.9948
 20
292.401
 30
-6.49009e-14
  70
    32
  0
VERTEX
  8
0
  5
6F2E
 10
-63.9947
 20
292.403
 30
-6.49011e-14
  70
    32
  0
VERTEX
  8
0
  5
6F2F
 10
-63.9945
 20
292.406
 30
-6.49013e-14
  70
    32
  0
VERTEX
  8
0
  5
6F30
 10
-63.9944
 20
292.408
 30
-6.49015e-14
  70
    32
  0
VERTEX
  8
0
  5
6F31
 10
-63.9943
 20
292.411
 30
-6.49017e-14
  70
    32
  0
VERTEX
  8
0
  5
6F32
 10
-63.9942
 20
292.413
 30
-6.49020e-14
  70
    32
  0
VERTEX
  8
0
  5
6F33
 10
-63.9940
 20
292.416
 30
-6.49022e-14
  70
    32
  0
VERTEX
  8
0
  5
6F34
 10
-63.9939
 20
292.418
 30
-6.49025e-14
  70
    32
  0
VERTEX
  8
0
  5
6F35
 10
-63.9938
 20
292.421
 30
-6.49028e-14
  70
    32
  0
VERTEX
  8
0
  5
6F36
 10
-63.9936
 20
292.424
 30
-6.49032e-14
  70
    32
  0
VERTEX
  8
0
  5
6F37
 10
-63.9935
 20
292.426
 30
-6.49035e-14
  70
    32
  0
VERTEX
  8
0
  5
6F38
 10
-63.9934
 20
292.429
 30
-6.49039e-14
  70
    32
  0
VERTEX
  8
0
  5
6F39
 10
-63.9932
 20
292.432
 30
-6.49043e-14
  70
    32
  0
VERTEX
  8
0
  5
6F3A
 10
-63.9931
 20
292.435
 30
-6.49048e-14
  70
    32
  0
VERTEX
  8
0
  5
6F3B
 10
-63.9930
 20
292.437
 30
-6.49053e-14
  70
    32
  0
VERTEX
  8
0
  5
6F3C
 10
-63.9928
 20
292.440
 30
-6.49058e-14
  70
    32
  0
VERTEX
  8
0
  5
6F3D
 10
-63.9927
 20
292.443
 30
-6.49063e-14
  70
    32
  0
VERTEX
  8
0
  5
6F3E
 10
-63.9925
 20
292.446
 30
-6.49069e-14
  70
    32
  0
VERTEX
  8
0
  5
6F3F
 10
-63.9924
 20
292.449
 30
-6.49075e-14
  70
    32
  0
VERTEX
  8
0
  5
6F40
 10
-63.9922
 20
292.452
 30
-6.49081e-14
  70
    32
  0
VERTEX
  8
0
  5
6F41
 10
-63.9921
 20
292.454
 30
-6.49088e-14
  70
    32
  0
VERTEX
  8
0
  5
6F42
 10
-63.9919
 20
292.457
 30
-6.49095e-14
  70
    32
  0
VERTEX
  8
0
  5
6F43
 10
-63.9918
 20
292.460
 30
-6.49103e-14
  70
    32
  0
VERTEX
  8
0
  5
6F44
 10
-63.9916
 20
292.463
 30
-6.49110e-14
  70
    32
  0
VERTEX
  8
0
  5
6F45
 10
-63.9915
 20
292.467
 30
-6.49119e-14
  70
    32
  0
VERTEX
  8
0
  5
6F46
 10
-63.9913
 20
292.470
 30
-6.49127e-14
  70
    32
  0
VERTEX
  8
0
  5
6F47
 10
-63.9912
 20
292.473
 30
-6.49136e-14
  70
    32
  0
VERTEX
  8
0
  5
6F48
 10
-63.9910
 20
292.476
 30
-6.49146e-14
  70
    32
  0
VERTEX
  8
0
  5
6F49
 10
-63.9909
 20
292.479
 30
-6.49156e-14
  70
    32
  0
VERTEX
  8
0
  5
6F4A
 10
-63.9907
 20
292.482
 30
-6.49166e-14
  70
    32
  0
VERTEX
  8
0
  5
6F4B
 10
-63.9906
 20
292.485
 30
-6.49177e-14
  70
    32
  0
VERTEX
  8
0
  5
6F4C
 10
-63.9904
 20
292.489
 30
-6.49188e-14
  70
    32
  0
VERTEX
  8
0
  5
6F4D
 10
-63.9902
 20
292.492
 30
-6.49200e-14
  70
    32
  0
VERTEX
  8
0
  5
6F4E
 10
-63.9901
 20
292.495
 30
-6.49212e-14
  70
    32
  0
VERTEX
  8
0
  5
6F4F
 10
-63.9899
 20
292.499
 30
-6.49225e-14
  70
    32
  0
VERTEX
  8
0
  5
6F50
 10
-63.9897
 20
292.502
 30
-6.49238e-14
  70
    32
  0
VERTEX
  8
0
  5
6F51
 10
-63.9896
 20
292.505
 30
-6.49252e-14
  70
    32
  0
VERTEX
  8
0
  5
6F52
 10
-63.9894
 20
292.509
 30
-6.49266e-14
  70
    32
  0
VERTEX
  8
0
  5
6F53
 10
-63.9892
 20
292.512
 30
-6.49281e-14
  70
    32
  0
VERTEX
  8
0
  5
6F54
 10
-63.9891
 20
292.516
 30
-6.49296e-14
  70
    32
  0
VERTEX
  8
0
  5
6F55
 10
-63.9889
 20
292.519
 30
-6.49312e-14
  70
    32
  0
VERTEX
  8
0
  5
6F56
 10
-63.9887
 20
292.523
 30
-6.49329e-14
  70
    32
  0
VERTEX
  8
0
  5
6F57
 10
-63.9886
 20
292.526
 30
-6.49346e-14
  70
    32
  0
VERTEX
  8
0
  5
6F58
 10
-63.9884
 20
292.530
 30
-6.49363e-14
  70
    32
  0
VERTEX
  8
0
  5
6F59
 10
-63.9882
 20
292.533
 30
-6.49381e-14
  70
    32
  0
VERTEX
  8
0
  5
6F5A
 10
-63.9880
 20
292.537
 30
-6.49400e-14
  70
    32
  0
VERTEX
  8
0
  5
6F5B
 10
-63.9879
 20
292.541
 30
-6.49419e-14
  70
    32
  0
VERTEX
  8
0
  5
6F5C
 10
-63.9877
 20
292.544
 30
-6.49439e-14
  70
    32
  0
VERTEX
  8
0
  5
6F5D
 10
-63.9875
 20
292.548
 30
-6.49460e-14
  70
    32
  0
VERTEX
  8
0
  5
6F5E
 10
-63.9873
 20
292.552
 30
-6.49481e-14
  70
    32
  0
VERTEX
  8
0
  5
6F5F
 10
-63.9871
 20
292.556
 30
-6.49503e-14
  70
    32
  0
VERTEX
  8
0
  5
6F60
 10
-63.9870
 20
292.559
 30
-6.49524e-14
  70
    32
  0
VERTEX
  8
0
  5
6F61
 10
-63.9868
 20
292.563
 30
-6.49545e-14
  70
    32
  0
VERTEX
  8
0
  5
6F62
 10
-63.9866
 20
292.567
 30
-6.49566e-14
  70
    32
  0
VERTEX
  8
0
  5
6F63
 10
-63.9864
 20
292.571
 30
-6.49586e-14
  70
    32
  0
VERTEX
  8
0
  5
6F64
 10
-63.9862
 20
292.575
 30
-6.49605e-14
  70
    32
  0
VERTEX
  8
0
  5
6F65
 10
-63.9860
 20
292.579
 30
-6.49624e-14
  70
    32
  0
VERTEX
  8
0
  5
6F66
 10
-63.9858
 20
292.583
 30
-6.49642e-14
  70
    32
  0
VERTEX
  8
0
  5
6F67
 10
-63.9856
 20
292.587
 30
-6.49660e-14
  70
    32
  0
VERTEX
  8
0
  5
6F68
 10
-63.9854
 20
292.591
 30
-6.49677e-14
  70
    32
  0
VERTEX
  8
0
  5
6F69
 10
-63.9853
 20
292.595
 30
-6.49694e-14
  70
    32
  0
VERTEX
  8
0
  5
6F6A
 10
-63.9851
 20
292.599
 30
-6.49710e-14
  70
    32
  0
VERTEX
  8
0
  5
6F6B
 10
-63.9849
 20
292.603
 30
-6.49726e-14
  70
    32
  0
VERTEX
  8
0
  5
6F6C
 10
-63.9847
 20
292.607
 30
-6.49741e-14
  70
    32
  0
VERTEX
  8
0
  5
6F6D
 10
-63.9845
 20
292.611
 30
-6.49756e-14
  70
    32
  0
VERTEX
  8
0
  5
6F6E
 10
-63.9843
 20
292.615
 30
-6.49771e-14
  70
    32
  0
VERTEX
  8
0
  5
6F6F
 10
-63.9841
 20
292.619
 30
-6.49785e-14
  70
    32
  0
VERTEX
  8
0
  5
6F70
 10
-63.9839
 20
292.624
 30
-6.49799e-14
  70
    32
  0
VERTEX
  8
0
  5
6F71
 10
-63.9837
 20
292.628
 30
-6.49812e-14
  70
    32
  0
VERTEX
  8
0
  5
6F72
 10
-63.9835
 20
292.632
 30
-6.49826e-14
  70
    32
  0
VERTEX
  8
0
  5
6F73
 10
-63.9833
 20
292.636
 30
-6.49839e-14
  70
    32
  0
VERTEX
  8
0
  5
6F74
 10
-63.9831
 20
292.641
 30
-6.49851e-14
  70
    32
  0
VERTEX
  8
0
  5
6F75
 10
-63.9829
 20
292.645
 30
-6.49864e-14
  70
    32
  0
VERTEX
  8
0
  5
6F76
 10
-63.9827
 20
292.649
 30
-6.49876e-14
  70
    32
  0
VERTEX
  8
0
  5
6F77
 10
-63.9825
 20
292.654
 30
-6.49888e-14
  70
    32
  0
VERTEX
  8
0
  5
6F78
 10
-63.9822
 20
292.658
 30
-6.49900e-14
  70
    32
  0
VERTEX
  8
0
  5
6F79
 10
-63.9820
 20
292.663
 30
-6.49912e-14
  70
    32
  0
VERTEX
  8
0
  5
6F7A
 10
-63.9818
 20
292.667
 30
-6.49923e-14
  70
    32
  0
VERTEX
  8
0
  5
6F7B
 10
-63.9816
 20
292.672
 30
-6.49935e-14
  70
    32
  0
VERTEX
  8
0
  5
6F7C
 10
-63.9814
 20
292.676
 30
-6.49946e-14
  70
    32
  0
VERTEX
  8
0
  5
6F7D
 10
-63.9812
 20
292.681
 30
-6.49957e-14
  70
    32
  0
VERTEX
  8
0
  5
6F7E
 10
-63.9810
 20
292.685
 30
-6.49969e-14
  70
    32
  0
VERTEX
  8
0
  5
6F7F
 10
-63.9808
 20
292.690
 30
-6.49980e-14
  70
    32
  0
VERTEX
  8
0
  5
6F80
 10
-63.9806
 20
292.695
 30
-6.49991e-14
  70
    32
  0
VERTEX
  8
0
  5
6F81
 10
-63.9803
 20
292.699
 30
-6.50002e-14
  70
    32
  0
VERTEX
  8
0
  5
6F82
 10
-63.9801
 20
292.704
 30
-6.50013e-14
  70
    32
  0
VERTEX
  8
0
  5
6F83
 10
-63.9799
 20
292.709
 30
-6.50024e-14
  70
    32
  0
VERTEX
  8
0
  5
6F84
 10
-63.9797
 20
292.713
 30
-6.50035e-14
  70
    32
  0
VERTEX
  8
0
  5
6F85
 10
-63.9795
 20
292.718
 30
-6.50046e-14
  70
    32
  0
VERTEX
  8
0
  5
6F86
 10
-63.9793
 20
292.723
 30
-6.50057e-14
  70
    32
  0
VERTEX
  8
0
  5
6F87
 10
-63.9790
 20
292.728
 30
-6.50069e-14
  70
    32
  0
VERTEX
  8
0
  5
6F88
 10
-63.9788
 20
292.732
 30
-6.50080e-14
  70
    32
  0
VERTEX
  8
0
  5
6F89
 10
-63.9786
 20
292.737
 30
-6.50092e-14
  70
    32
  0
VERTEX
  8
0
  5
6F8A
 10
-63.9784
 20
292.742
 30
-6.50104e-14
  70
    32
  0
VERTEX
  8
0
  5
6F8B
 10
-63.9782
 20
292.747
 30
-6.50115e-14
  70
    32
  0
VERTEX
  8
0
  5
6F8C
 10
-63.9779
 20
292.752
 30
-6.50128e-14
  70
    32
  0
VERTEX
  8
0
  5
6F8D
 10
-63.9777
 20
292.757
 30
-6.50140e-14
  70
    32
  0
VERTEX
  8
0
  5
6F8E
 10
-63.9775
 20
292.762
 30
-6.50153e-14
  70
    32
  0
VERTEX
  8
0
  5
6F8F
 10
-63.9773
 20
292.767
 30
-6.50165e-14
  70
    32
  0
VERTEX
  8
0
  5
6F90
 10
-63.9770
 20
292.772
 30
-6.50178e-14
  70
    32
  0
VERTEX
  8
0
  5
6F91
 10
-63.9768
 20
292.777
 30
-6.50192e-14
  70
    32
  0
VERTEX
  8
0
  5
6F92
 10
-63.9766
 20
292.782
 30
-6.50206e-14
  70
    32
  0
VERTEX
  8
0
  5
6F93
 10
-63.9764
 20
292.787
 30
-6.50220e-14
  70
    32
  0
VERTEX
  8
0
  5
6F94
 10
-63.9761
 20
292.792
 30
-6.50234e-14
  70
    32
  0
VERTEX
  8
0
  5
6F95
 10
-63.9759
 20
292.797
 30
-6.50249e-14
  70
    32
  0
VERTEX
  8
0
  5
6F96
 10
-63.9757
 20
292.802
 30
-6.50264e-14
  70
    32
  0
VERTEX
  8
0
  5
6F97
 10
-63.9755
 20
292.807
 30
-6.50279e-14
  70
    32
  0
VERTEX
  8
0
  5
6F98
 10
-63.9752
 20
292.813
 30
-6.50295e-14
  70
    32
  0
VERTEX
  8
0
  5
6F99
 10
-63.9750
 20
292.818
 30
-6.50312e-14
  70
    32
  0
VERTEX
  8
0
  5
6F9A
 10
-63.9748
 20
292.823
 30
-6.50328e-14
  70
    32
  0
VERTEX
  8
0
  5
6F9B
 10
-63.9745
 20
292.828
 30
-6.50346e-14
  70
    32
  0
VERTEX
  8
0
  5
6F9C
 10
-63.9743
 20
292.833
 30
-6.50364e-14
  70
    32
  0
VERTEX
  8
0
  5
6F9D
 10
-63.9741
 20
292.839
 30
-6.50382e-14
  70
    32
  0
VERTEX
  8
0
  5
6F9E
 10
-63.9738
 20
292.844
 30
-6.50401e-14
  70
    32
  0
VERTEX
  8
0
  5
6F9F
 10
-63.9736
 20
292.849
 30
-6.50420e-14
  70
    32
  0
VERTEX
  8
0
  5
6FA0
 10
-63.9734
 20
292.855
 30
-6.50440e-14
  70
    32
  0
VERTEX
  8
0
  5
6FA1
 10
-63.9731
 20
292.860
 30
-6.50461e-14
  70
    32
  0
VERTEX
  8
0
  5
6FA2
 10
-63.9729
 20
292.866
 30
-6.50482e-14
  70
    32
  0
VERTEX
  8
0
  5
6FA3
 10
-63.9727
 20
292.871
 30
-6.50504e-14
  70
    32
  0
VERTEX
  8
0
  5
6FA4
 10
-63.9724
 20
292.876
 30
-6.50526e-14
  70
    32
  0
VERTEX
  8
0
  5
6FA5
 10
-63.9722
 20
292.882
 30
-6.50547e-14
  70
    32
  0
VERTEX
  8
0
  5
6FA6
 10
-63.9719
 20
292.887
 30
-6.50567e-14
  70
    32
  0
VERTEX
  8
0
  5
6FA7
 10
-63.9717
 20
292.893
 30
-6.50587e-14
  70
    32
  0
VERTEX
  8
0
  5
6FA8
 10
-63.9715
 20
292.898
 30
-6.50606e-14
  70
    32
  0
VERTEX
  8
0
  5
6FA9
 10
-63.9712
 20
292.904
 30
-6.50625e-14
  70
    32
  0
VERTEX
  8
0
  5
6FAA
 10
-63.9710
 20
292.910
 30
-6.50643e-14
  70
    32
  0
VERTEX
  8
0
  5
6FAB
 10
-63.9708
 20
292.915
 30
-6.50661e-14
  70
    32
  0
VERTEX
  8
0
  5
6FAC
 10
-63.9705
 20
292.921
 30
-6.50678e-14
  70
    32
  0
VERTEX
  8
0
  5
6FAD
 10
-63.9703
 20
292.926
 30
-6.50695e-14
  70
    32
  0
VERTEX
  8
0
  5
6FAE
 10
-63.9700
 20
292.932
 30
-6.50711e-14
  70
    32
  0
VERTEX
  8
0
  5
6FAF
 10
-63.9698
 20
292.938
 30
-6.50727e-14
  70
    32
  0
VERTEX
  8
0
  5
6FB0
 10
-63.9695
 20
292.943
 30
-6.50742e-14
  70
    32
  0
VERTEX
  8
0
  5
6FB1
 10
-63.9693
 20
292.949
 30
-6.50757e-14
  70
    32
  0
VERTEX
  8
0
  5
6FB2
 10
-63.9691
 20
292.955
 30
-6.50772e-14
  70
    32
  0
VERTEX
  8
0
  5
6FB3
 10
-63.9688
 20
292.961
 30
-6.50786e-14
  70
    32
  0
VERTEX
  8
0
  5
6FB4
 10
-63.9686
 20
292.966
 30
-6.50800e-14
  70
    32
  0
VERTEX
  8
0
  5
6FB5
 10
-63.9683
 20
292.972
 30
-6.50813e-14
  70
    32
  0
VERTEX
  8
0
  5
6FB6
 10
-63.9681
 20
292.978
 30
-6.50827e-14
  70
    32
  0
VERTEX
  8
0
  5
6FB7
 10
-63.9679
 20
292.984
 30
-6.50840e-14
  70
    32
  0
VERTEX
  8
0
  5
6FB8
 10
-63.9676
 20
292.990
 30
-6.50852e-14
  70
    32
  0
VERTEX
  8
0
  5
6FB9
 10
-63.9674
 20
292.995
 30
-6.50865e-14
  70
    32
  0
VERTEX
  8
0
  5
6FBA
 10
-63.9671
 20
293.001
 30
-6.50877e-14
  70
    32
  0
VERTEX
  8
0
  5
6FBB
 10
-63.9669
 20
293.007
 30
-6.50889e-14
  70
    32
  0
VERTEX
  8
0
  5
6FBC
 10
-63.9666
 20
293.013
 30
-6.50901e-14
  70
    32
  0
VERTEX
  8
0
  5
6FBD
 10
-63.9664
 20
293.019
 30
-6.50913e-14
  70
    32
  0
VERTEX
  8
0
  5
6FBE
 10
-63.9661
 20
293.025
 30
-6.50924e-14
  70
    32
  0
VERTEX
  8
0
  5
6FBF
 10
-63.9659
 20
293.031
 30
-6.50936e-14
  70
    32
  0
VERTEX
  8
0
  5
6FC0
 10
-63.9657
 20
293.037
 30
-6.50947e-14
  70
    32
  0
VERTEX
  8
0
  5
6FC1
 10
-63.9654
 20
293.043
 30
-6.50958e-14
  70
    32
  0
VERTEX
  8
0
  5
6FC2
 10
-63.9652
 20
293.049
 30
-6.50969e-14
  70
    32
  0
VERTEX
  8
0
  5
6FC3
 10
-63.9649
 20
293.055
 30
-6.50980e-14
  70
    32
  0
VERTEX
  8
0
  5
6FC4
 10
-63.9647
 20
293.061
 30
-6.50991e-14
  70
    32
  0
VERTEX
  8
0
  5
6FC5
 10
-63.9644
 20
293.067
 30
-6.51002e-14
  70
    32
  0
VERTEX
  8
0
  5
6FC6
 10
-63.9642
 20
293.073
 30
-6.51013e-14
  70
    32
  0
VERTEX
  8
0
  5
6FC7
 10
-63.9639
 20
293.079
 30
-6.51025e-14
  70
    32
  0
VERTEX
  8
0
  5
6FC8
 10
-63.9637
 20
293.086
 30
-6.51036e-14
  70
    32
  0
VERTEX
  8
0
  5
6FC9
 10
-63.9634
 20
293.092
 30
-6.51047e-14
  70
    32
  0
VERTEX
  8
0
  5
6FCA
 10
-63.9632
 20
293.098
 30
-6.51058e-14
  70
    32
  0
VERTEX
  8
0
  5
6FCB
 10
-63.9630
 20
293.104
 30
-6.51069e-14
  70
    32
  0
VERTEX
  8
0
  5
6FCC
 10
-63.9627
 20
293.110
 30
-6.51081e-14
  70
    32
  0
VERTEX
  8
0
  5
6FCD
 10
-63.9625
 20
293.116
 30
-6.51093e-14
  70
    32
  0
VERTEX
  8
0
  5
6FCE
 10
-63.9622
 20
293.123
 30
-6.51104e-14
  70
    32
  0
VERTEX
  8
0
  5
6FCF
 10
-63.9620
 20
293.129
 30
-6.51116e-14
  70
    32
  0
VERTEX
  8
0
  5
6FD0
 10
-63.9617
 20
293.135
 30
-6.51128e-14
  70
    32
  0
VERTEX
  8
0
  5
6FD1
 10
-63.9615
 20
293.141
 30
-6.51141e-14
  70
    32
  0
VERTEX
  8
0
  5
6FD2
 10
-63.9612
 20
293.148
 30
-6.51153e-14
  70
    32
  0
VERTEX
  8
0
  5
6FD3
 10
-63.9610
 20
293.154
 30
-6.51166e-14
  70
    32
  0
VERTEX
  8
0
  5
6FD4
 10
-63.9607
 20
293.160
 30
-6.51179e-14
  70
    32
  0
VERTEX
  8
0
  5
6FD5
 10
-63.9605
 20
293.167
 30
-6.51193e-14
  70
    32
  0
VERTEX
  8
0
  5
6FD6
 10
-63.9602
 20
293.173
 30
-6.51206e-14
  70
    32
  0
VERTEX
  8
0
  5
6FD7
 10
-63.9600
 20
293.179
 30
-6.51220e-14
  70
    32
  0
VERTEX
  8
0
  5
6FD8
 10
-63.9598
 20
293.186
 30
-6.51235e-14
  70
    32
  0
VERTEX
  8
0
  5
6FD9
 10
-63.9595
 20
293.192
 30
-6.51250e-14
  70
    32
  0
VERTEX
  8
0
  5
6FDA
 10
-63.9593
 20
293.198
 30
-6.51265e-14
  70
    32
  0
VERTEX
  8
0
  5
6FDB
 10
-63.9590
 20
293.205
 30
-6.51280e-14
  70
    32
  0
VERTEX
  8
0
  5
6FDC
 10
-63.9588
 20
293.211
 30
-6.51296e-14
  70
    32
  0
VERTEX
  8
0
  5
6FDD
 10
-63.9585
 20
293.218
 30
-6.51313e-14
  70
    32
  0
VERTEX
  8
0
  5
6FDE
 10
-63.9583
 20
293.224
 30
-6.51330e-14
  70
    32
  0
VERTEX
  8
0
  5
6FDF
 10
-63.9580
 20
293.231
 30
-6.51347e-14
  70
    32
  0
VERTEX
  8
0
  5
6FE0
 10
-63.9578
 20
293.237
 30
-6.51365e-14
  70
    32
  0
VERTEX
  8
0
  5
6FE1
 10
-63.9575
 20
293.244
 30
-6.51383e-14
  70
    32
  0
VERTEX
  8
0
  5
6FE2
 10
-63.9573
 20
293.250
 30
-6.51402e-14
  70
    32
  0
VERTEX
  8
0
  5
6FE3
 10
-63.9571
 20
293.257
 30
-6.51422e-14
  70
    32
  0
VERTEX
  8
0
  5
6FE4
 10
-63.9568
 20
293.263
 30
-6.51442e-14
  70
    32
  0
VERTEX
  8
0
  5
6FE5
 10
-63.9566
 20
293.270
 30
-6.51462e-14
  70
    32
  0
VERTEX
  8
0
  5
6FE6
 10
-63.9563
 20
293.276
 30
-6.51484e-14
  70
    32
  0
VERTEX
  8
0
  5
6FE7
 10
-63.9561
 20
293.283
 30
-6.51506e-14
  70
    32
  0
VERTEX
  8
0
  5
6FE8
 10
-63.9558
 20
293.289
 30
-6.51527e-14
  70
    32
  0
VERTEX
  8
0
  5
6FE9
 10
-63.9556
 20
293.296
 30
-6.51548e-14
  70
    32
  0
VERTEX
  8
0
  5
6FEA
 10
-63.9554
 20
293.303
 30
-6.51568e-14
  70
    32
  0
VERTEX
  8
0
  5
6FEB
 10
-63.9551
 20
293.309
 30
-6.51588e-14
  70
    32
  0
VERTEX
  8
0
  5
6FEC
 10
-63.9549
 20
293.316
 30
-6.51607e-14
  70
    32
  0
VERTEX
  8
0
  5
6FED
 10
-63.9546
 20
293.323
 30
-6.51626e-14
  70
    32
  0
VERTEX
  8
0
  5
6FEE
 10
-63.9544
 20
293.329
 30
-6.51644e-14
  70
    32
  0
VERTEX
  8
0
  5
6FEF
 10
-63.9541
 20
293.336
 30
-6.51662e-14
  70
    32
  0
VERTEX
  8
0
  5
6FF0
 10
-63.9539
 20
293.343
 30
-6.51679e-14
  70
    32
  0
VERTEX
  8
0
  5
6FF1
 10
-63.9536
 20
293.350
 30
-6.51696e-14
  70
    32
  0
VERTEX
  8
0
  5
6FF2
 10
-63.9534
 20
293.357
 30
-6.51712e-14
  70
    32
  0
VERTEX
  8
0
  5
6FF3
 10
-63.9532
 20
293.363
 30
-6.51728e-14
  70
    32
  0
VERTEX
  8
0
  5
6FF4
 10
-63.9529
 20
293.370
 30
-6.51743e-14
  70
    32
  0
VERTEX
  8
0
  5
6FF5
 10
-63.9527
 20
293.377
 30
-6.51758e-14
  70
    32
  0
VERTEX
  8
0
  5
6FF6
 10
-63.9524
 20
293.384
 30
-6.51772e-14
  70
    32
  0
VERTEX
  8
0
  5
6FF7
 10
-63.9522
 20
293.391
 30
-6.51787e-14
  70
    32
  0
VERTEX
  8
0
  5
6FF8
 10
-63.9519
 20
293.398
 30
-6.51801e-14
  70
    32
  0
VERTEX
  8
0
  5
6FF9
 10
-63.9517
 20
293.405
 30
-6.51814e-14
  70
    32
  0
VERTEX
  8
0
  5
6FFA
 10
-63.9514
 20
293.412
 30
-6.51827e-14
  70
    32
  0
VERTEX
  8
0
  5
6FFB
 10
-63.9512
 20
293.419
 30
-6.51840e-14
  70
    32
  0
VERTEX
  8
0
  5
6FFC
 10
-63.9509
 20
293.426
 30
-6.51853e-14
  70
    32
  0
VERTEX
  8
0
  5
6FFD
 10
-63.9507
 20
293.433
 30
-6.51865e-14
  70
    32
  0
VERTEX
  8
0
  5
6FFE
 10
-63.9504
 20
293.440
 30
-6.51878e-14
  70
    32
  0
VERTEX
  8
0
  5
6FFF
 10
-63.9502
 20
293.448
 30
-6.51890e-14
  70
    32
  0
VERTEX
  8
0
  5
7000
 10
-63.9500
 20
293.455
 30
-6.51902e-14
  70
    32
  0
VERTEX
  8
0
  5
7001
 10
-63.9497
 20
293.462
 30
-6.51913e-14
  70
    32
  0
VERTEX
  8
0
  5
7002
 10
-63.9495
 20
293.469
 30
-6.51925e-14
  70
    32
  0
VERTEX
  8
0
  5
7003
 10
-63.9492
 20
293.476
 30
-6.51936e-14
  70
    32
  0
VERTEX
  8
0
  5
7004
 10
-63.9490
 20
293.484
 30
-6.51948e-14
  70
    32
  0
VERTEX
  8
0
  5
7005
 10
-63.9487
 20
293.491
 30
-6.51959e-14
  70
    32
  0
VERTEX
  8
0
  5
7006
 10
-63.9485
 20
293.498
 30
-6.51970e-14
  70
    32
  0
VERTEX
  8
0
  5
7007
 10
-63.9482
 20
293.506
 30
-6.51981e-14
  70
    32
  0
VERTEX
  8
0
  5
7008
 10
-63.9480
 20
293.513
 30
-6.51992e-14
  70
    32
  0
VERTEX
  8
0
  5
7009
 10
-63.9477
 20
293.520
 30
-6.52003e-14
  70
    32
  0
VERTEX
  8
0
  5
700A
 10
-63.9475
 20
293.528
 30
-6.52014e-14
  70
    32
  0
VERTEX
  8
0
  5
700B
 10
-63.9472
 20
293.535
 30
-6.52025e-14
  70
    32
  0
VERTEX
  8
0
  5
700C
 10
-63.9470
 20
293.542
 30
-6.52036e-14
  70
    32
  0
VERTEX
  8
0
  5
700D
 10
-63.9468
 20
293.550
 30
-6.52048e-14
  70
    32
  0
VERTEX
  8
0
  5
700E
 10
-63.9465
 20
293.557
 30
-6.52059e-14
  70
    32
  0
VERTEX
  8
0
  5
700F
 10
-63.9463
 20
293.565
 30
-6.52070e-14
  70
    32
  0
VERTEX
  8
0
  5
7010
 10
-63.9460
 20
293.572
 30
-6.52082e-14
  70
    32
  0
VERTEX
  8
0
  5
7011
 10
-63.9458
 20
293.580
 30
-6.52093e-14
  70
    32
  0
VERTEX
  8
0
  5
7012
 10
-63.9455
 20
293.588
 30
-6.52105e-14
  70
    32
  0
VERTEX
  8
0
  5
7013
 10
-63.9453
 20
293.595
 30
-6.52117e-14
  70
    32
  0
VERTEX
  8
0
  5
7014
 10
-63.9450
 20
293.603
 30
-6.52129e-14
  70
    32
  0
VERTEX
  8
0
  5
7015
 10
-63.9448
 20
293.610
 30
-6.52141e-14
  70
    32
  0
VERTEX
  8
0
  5
7016
 10
-63.9446
 20
293.618
 30
-6.52154e-14
  70
    32
  0
VERTEX
  8
0
  5
7017
 10
-63.9443
 20
293.626
 30
-6.52167e-14
  70
    32
  0
VERTEX
  8
0
  5
7018
 10
-63.9441
 20
293.633
 30
-6.52180e-14
  70
    32
  0
VERTEX
  8
0
  5
7019
 10
-63.9438
 20
293.641
 30
-6.52194e-14
  70
    32
  0
VERTEX
  8
0
  5
701A
 10
-63.9436
 20
293.649
 30
-6.52207e-14
  70
    32
  0
VERTEX
  8
0
  5
701B
 10
-63.9433
 20
293.657
 30
-6.52221e-14
  70
    32
  0
VERTEX
  8
0
  5
701C
 10
-63.9431
 20
293.664
 30
-6.52236e-14
  70
    32
  0
VERTEX
  8
0
  5
701D
 10
-63.9429
 20
293.672
 30
-6.52251e-14
  70
    32
  0
VERTEX
  8
0
  5
701E
 10
-63.9426
 20
293.680
 30
-6.52266e-14
  70
    32
  0
VERTEX
  8
0
  5
701F
 10
-63.9424
 20
293.688
 30
-6.52281e-14
  70
    32
  0
VERTEX
  8
0
  5
7020
 10
-63.9421
 20
293.696
 30
-6.52297e-14
  70
    32
  0
VERTEX
  8
0
  5
7021
 10
-63.9419
 20
293.703
 30
-6.52314e-14
  70
    32
  0
VERTEX
  8
0
  5
7022
 10
-63.9417
 20
293.711
 30
-6.52331e-14
  70
    32
  0
VERTEX
  8
0
  5
7023
 10
-63.9414
 20
293.719
 30
-6.52348e-14
  70
    32
  0
VERTEX
  8
0
  5
7024
 10
-63.9412
 20
293.727
 30
-6.52366e-14
  70
    32
  0
VERTEX
  8
0
  5
7025
 10
-63.9409
 20
293.735
 30
-6.52384e-14
  70
    32
  0
VERTEX
  8
0
  5
7026
 10
-63.9407
 20
293.743
 30
-6.52403e-14
  70
    32
  0
VERTEX
  8
0
  5
7027
 10
-63.9405
 20
293.751
 30
-6.52423e-14
  70
    32
  0
VERTEX
  8
0
  5
7028
 10
-63.9402
 20
293.759
 30
-6.52443e-14
  70
    32
  0
VERTEX
  8
0
  5
7029
 10
-63.9400
 20
293.767
 30
-6.52464e-14
  70
    32
  0
VERTEX
  8
0
  5
702A
 10
-63.9398
 20
293.775
 30
-6.52485e-14
  70
    32
  0
VERTEX
  8
0
  5
702B
 10
-63.9395
 20
293.783
 30
-6.52507e-14
  70
    32
  0
VERTEX
  8
0
  5
702C
 10
-63.9393
 20
293.791
 30
-6.52528e-14
  70
    32
  0
VERTEX
  8
0
  5
702D
 10
-63.9390
 20
293.800
 30
-6.52549e-14
  70
    32
  0
VERTEX
  8
0
  5
702E
 10
-63.9388
 20
293.808
 30
-6.52570e-14
  70
    32
  0
VERTEX
  8
0
  5
702F
 10
-63.9386
 20
293.816
 30
-6.52589e-14
  70
    32
  0
VERTEX
  8
0
  5
7030
 10
-63.9383
 20
293.824
 30
-6.52609e-14
  70
    32
  0
VERTEX
  8
0
  5
7031
 10
-63.9381
 20
293.832
 30
-6.52627e-14
  70
    32
  0
VERTEX
  8
0
  5
7032
 10
-63.9379
 20
293.840
 30
-6.52645e-14
  70
    32
  0
VERTEX
  8
0
  5
7033
 10
-63.9376
 20
293.849
 30
-6.52663e-14
  70
    32
  0
VERTEX
  8
0
  5
7034
 10
-63.9374
 20
293.857
 30
-6.52680e-14
  70
    32
  0
VERTEX
  8
0
  5
7035
 10
-63.9372
 20
293.865
 30
-6.52697e-14
  70
    32
  0
VERTEX
  8
0
  5
7036
 10
-63.9370
 20
293.873
 30
-6.52713e-14
  70
    32
  0
VERTEX
  8
0
  5
7037
 10
-63.9367
 20
293.882
 30
-6.52729e-14
  70
    32
  0
VERTEX
  8
0
  5
7038
 10
-63.9365
 20
293.890
 30
-6.52744e-14
  70
    32
  0
VERTEX
  8
0
  5
7039
 10
-63.9363
 20
293.898
 30
-6.52759e-14
  70
    32
  0
VERTEX
  8
0
  5
703A
 10
-63.9360
 20
293.907
 30
-6.52773e-14
  70
    32
  0
VERTEX
  8
0
  5
703B
 10
-63.9358
 20
293.915
 30
-6.52788e-14
  70
    32
  0
VERTEX
  8
0
  5
703C
 10
-63.9356
 20
293.923
 30
-6.52801e-14
  70
    32
  0
VERTEX
  8
0
  5
703D
 10
-63.9354
 20
293.932
 30
-6.52815e-14
  70
    32
  0
VERTEX
  8
0
  5
703E
 10
-63.9351
 20
293.940
 30
-6.52828e-14
  70
    32
  0
VERTEX
  8
0
  5
703F
 10
-63.9349
 20
293.949
 30
-6.52841e-14
  70
    32
  0
VERTEX
  8
0
  5
7040
 10
-63.9347
 20
293.957
 30
-6.52854e-14
  70
    32
  0
VERTEX
  8
0
  5
7041
 10
-63.9345
 20
293.966
 30
-6.52866e-14
  70
    32
  0
VERTEX
  8
0
  5
7042
 10
-63.9342
 20
293.974
 30
-6.52879e-14
  70
    32
  0
VERTEX
  8
0
  5
7043
 10
-63.9340
 20
293.983
 30
-6.52891e-14
  70
    32
  0
VERTEX
  8
0
  5
7044
 10
-63.9338
 20
293.991
 30
-6.52902e-14
  70
    32
  0
VERTEX
  8
0
  5
7045
 10
-63.9336
 20
294.000
 30
-6.52914e-14
  70
    32
  0
VERTEX
  8
0
  5
7046
 10
-63.9333
 20
294.008
 30
-6.52926e-14
  70
    32
  0
VERTEX
  8
0
  5
7047
 10
-63.9331
 20
294.017
 30
-6.52937e-14
  70
    32
  0
VERTEX
  8
0
  5
7048
 10
-63.9329
 20
294.025
 30
-6.52948e-14
  70
    32
  0
VERTEX
  8
0
  5
7049
 10
-63.9327
 20
294.034
 30
-6.52959e-14
  70
    32
  0
VERTEX
  8
0
  5
704A
 10
-63.9325
 20
294.043
 30
-6.52971e-14
  70
    32
  0
VERTEX
  8
0
  5
704B
 10
-63.9323
 20
294.051
 30
-6.52982e-14
  70
    32
  0
VERTEX
  8
0
  5
704C
 10
-63.9320
 20
294.060
 30
-6.52993e-14
  70
    32
  0
VERTEX
  8
0
  5
704D
 10
-63.9318
 20
294.069
 30
-6.53004e-14
  70
    32
  0
VERTEX
  8
0
  5
704E
 10
-63.9316
 20
294.077
 30
-6.53015e-14
  70
    32
  0
VERTEX
  8
0
  5
704F
 10
-63.9314
 20
294.086
 30
-6.53026e-14
  70
    32
  0
VERTEX
  8
0
  5
7050
 10
-63.9312
 20
294.095
 30
-6.53037e-14
  70
    32
  0
VERTEX
  8
0
  5
7051
 10
-63.9310
 20
294.103
 30
-6.53048e-14
  70
    32
  0
VERTEX
  8
0
  5
7052
 10
-63.9308
 20
294.112
 30
-6.53059e-14
  70
    32
  0
VERTEX
  8
0
  5
7053
 10
-63.9306
 20
294.121
 30
-6.53071e-14
  70
    32
  0
VERTEX
  8
0
  5
7054
 10
-63.9303
 20
294.130
 30
-6.53082e-14
  70
    32
  0
VERTEX
  8
0
  5
7055
 10
-63.9301
 20
294.138
 30
-6.53094e-14
  70
    32
  0
VERTEX
  8
0
  5
7056
 10
-63.9299
 20
294.147
 30
-6.53106e-14
  70
    32
  0
VERTEX
  8
0
  5
7057
 10
-63.9297
 20
294.156
 30
-6.53118e-14
  70
    32
  0
VERTEX
  8
0
  5
7058
 10
-63.9295
 20
294.165
 30
-6.53130e-14
  70
    32
  0
VERTEX
  8
0
  5
7059
 10
-63.9293
 20
294.174
 30
-6.53142e-14
  70
    32
  0
VERTEX
  8
0
  5
705A
 10
-63.9291
 20
294.183
 30
-6.53155e-14
  70
    32
  0
VERTEX
  8
0
  5
705B
 10
-63.9289
 20
294.191
 30
-6.53168e-14
  70
    32
  0
VERTEX
  8
0
  5
705C
 10
-63.9287
 20
294.200
 30
-6.53181e-14
  70
    32
  0
VERTEX
  8
0
  5
705D
 10
-63.9285
 20
294.209
 30
-6.53194e-14
  70
    32
  0
VERTEX
  8
0
  5
705E
 10
-63.9283
 20
294.218
 30
-6.53208e-14
  70
    32
  0
VERTEX
  8
0
  5
705F
 10
-63.9281
 20
294.227
 30
-6.53222e-14
  70
    32
  0
VERTEX
  8
0
  5
7060
 10
-63.9279
 20
294.236
 30
-6.53237e-14
  70
    32
  0
VERTEX
  8
0
  5
7061
 10
-63.9277
 20
294.245
 30
-6.53251e-14
  70
    32
  0
VERTEX
  8
0
  5
7062
 10
-63.9275
 20
294.254
 30
-6.53267e-14
  70
    32
  0
VERTEX
  8
0
  5
7063
 10
-63.9273
 20
294.263
 30
-6.53282e-14
  70
    32
  0
VERTEX
  8
0
  5
7064
 10
-63.9271
 20
294.272
 30
-6.53298e-14
  70
    32
  0
VERTEX
  8
0
  5
7065
 10
-63.9269
 20
294.281
 30
-6.53315e-14
  70
    32
  0
VERTEX
  8
0
  5
7066
 10
-63.9267
 20
294.290
 30
-6.53332e-14
  70
    32
  0
VERTEX
  8
0
  5
7067
 10
-63.9265
 20
294.299
 30
-6.53349e-14
  70
    32
  0
VERTEX
  8
0
  5
7068
 10
-63.9264
 20
294.308
 30
-6.53367e-14
  70
    32
  0
VERTEX
  8
0
  5
7069
 10
-63.9262
 20
294.317
 30
-6.53386e-14
  70
    32
  0
VERTEX
  8
0
  5
706A
 10
-63.9260
 20
294.326
 30
-6.53405e-14
  70
    32
  0
VERTEX
  8
0
  5
706B
 10
-63.9258
 20
294.335
 30
-6.53424e-14
  70
    32
  0
VERTEX
  8
0
  5
706C
 10
-63.9256
 20
294.344
 30
-6.53444e-14
  70
    32
  0
VERTEX
  8
0
  5
706D
 10
-63.9254
 20
294.353
 30
-6.53465e-14
  70
    32
  0
VERTEX
  8
0
  5
706E
 10
-63.9252
 20
294.362
 30
-6.53486e-14
  70
    32
  0
VERTEX
  8
0
  5
706F
 10
-63.9251
 20
294.371
 30
-6.53508e-14
  70
    32
  0
VERTEX
  8
0
  5
7070
 10
-63.9249
 20
294.380
 30
-6.53531e-14
  70
    32
  0
VERTEX
  8
0
  5
7071
 10
-63.9247
 20
294.390
 30
-6.53554e-14
  70
    32
  0
VERTEX
  8
0
  5
7072
 10
-63.9245
 20
294.399
 30
-6.53578e-14
  70
    32
  0
VERTEX
  8
0
  5
7073
 10
-63.9243
 20
294.408
 30
-6.53603e-14
  70
    32
  0
VERTEX
  8
0
  5
7074
 10
-63.9242
 20
294.417
 30
-6.53628e-14
  70
    32
  0
VERTEX
  8
0
  5
7075
 10
-63.9240
 20
294.426
 30
-6.53653e-14
  70
    32
  0
VERTEX
  8
0
  5
7076
 10
-63.9238
 20
294.435
 30
-6.53679e-14
  70
    32
  0
VERTEX
  8
0
  5
7077
 10
-63.9236
 20
294.445
 30
-6.53706e-14
  70
    32
  0
VERTEX
  8
0
  5
7078
 10
-63.9235
 20
294.454
 30
-6.53733e-14
  70
    32
  0
VERTEX
  8
0
  5
7079
 10
-63.9233
 20
294.463
 30
-6.53760e-14
  70
    32
  0
VERTEX
  8
0
  5
707A
 10
-63.9231
 20
294.472
 30
-6.53789e-14
  70
    32
  0
VERTEX
  8
0
  5
707B
 10
-63.9229
 20
294.481
 30
-6.53817e-14
  70
    32
  0
VERTEX
  8
0
  5
707C
 10
-63.9228
 20
294.491
 30
-6.53846e-14
  70
    32
  0
VERTEX
  8
0
  5
707D
 10
-63.9226
 20
294.500
 30
-6.53875e-14
  70
    32
  0
VERTEX
  8
0
  5
707E
 10
-63.9224
 20
294.509
 30
-6.53905e-14
  70
    32
  0
VERTEX
  8
0
  5
707F
 10
-63.9223
 20
294.519
 30
-6.53935e-14
  70
    32
  0
VERTEX
  8
0
  5
7080
 10
-63.9221
 20
294.528
 30
-6.53965e-14
  70
    32
  0
VERTEX
  8
0
  5
7081
 10
-63.9220
 20
294.537
 30
-6.53996e-14
  70
    32
  0
VERTEX
  8
0
  5
7082
 10
-63.9218
 20
294.546
 30
-6.54027e-14
  70
    32
  0
VERTEX
  8
0
  5
7083
 10
-63.9216
 20
294.556
 30
-6.54058e-14
  70
    32
  0
VERTEX
  8
0
  5
7084
 10
-63.9215
 20
294.565
 30
-6.54089e-14
  70
    32
  0
VERTEX
  8
0
  5
7085
 10
-63.9213
 20
294.574
 30
-6.54121e-14
  70
    32
  0
VERTEX
  8
0
  5
7086
 10
-63.9212
 20
294.584
 30
-6.54153e-14
  70
    32
  0
VERTEX
  8
0
  5
7087
 10
-63.9210
 20
294.593
 30
-6.54185e-14
  70
    32
  0
VERTEX
  8
0
  5
7088
 10
-63.9209
 20
294.602
 30
-6.54217e-14
  70
    32
  0
VERTEX
  8
0
  5
7089
 10
-63.9207
 20
294.612
 30
-6.54250e-14
  70
    32
  0
VERTEX
  8
0
  5
708A
 10
-63.9205
 20
294.621
 30
-6.54283e-14
  70
    32
  0
VERTEX
  8
0
  5
708B
 10
-63.9204
 20
294.631
 30
-6.54315e-14
  70
    32
  0
VERTEX
  8
0
  5
708C
 10
-63.9203
 20
294.640
 30
-6.54348e-14
  70
    32
  0
VERTEX
  8
0
  5
708D
 10
-63.9201
 20
294.649
 30
-6.54381e-14
  70
    32
  0
VERTEX
  8
0
  5
708E
 10
-63.9200
 20
294.659
 30
-6.54414e-14
  70
    32
  0
VERTEX
  8
0
  5
708F
 10
-63.9198
 20
294.668
 30
-6.54447e-14
  70
    32
  0
VERTEX
  8
0
  5
7090
 10
-63.9197
 20
294.677
 30
-6.54480e-14
  70
    32
  0
VERTEX
  8
0
  5
7091
 10
-63.9195
 20
294.687
 30
-6.54513e-14
  70
    32
  0
VERTEX
  8
0
  5
7092
 10
-63.9194
 20
294.696
 30
-6.54547e-14
  70
    32
  0
VERTEX
  8
0
  5
7093
 10
-63.9192
 20
294.706
 30
-6.54580e-14
  70
    32
  0
VERTEX
  8
0
  5
7094
 10
-63.9191
 20
294.715
 30
-6.54613e-14
  70
    32
  0
VERTEX
  8
0
  5
7095
 10
-63.9190
 20
294.725
 30
-6.54646e-14
  70
    32
  0
VERTEX
  8
0
  5
7096
 10
-63.9188
 20
294.734
 30
-6.54679e-14
  70
    32
  0
VERTEX
  8
0
  5
7097
 10
-63.9187
 20
294.744
 30
-6.54711e-14
  70
    32
  0
VERTEX
  8
0
  5
7098
 10
-63.9186
 20
294.753
 30
-6.54744e-14
  70
    32
  0
VERTEX
  8
0
  5
7099
 10
-63.9184
 20
294.762
 30
-6.54777e-14
  70
    32
  0
VERTEX
  8
0
  5
709A
 10
-63.9183
 20
294.772
 30
-6.54809e-14
  70
    32
  0
VERTEX
  8
0
  5
709B
 10
-63.9182
 20
294.781
 30
-6.54841e-14
  70
    32
  0
VERTEX
  8
0
  5
709C
 10
-63.9180
 20
294.791
 30
-6.54873e-14
  70
    32
  0
VERTEX
  8
0
  5
709D
 10
-63.9179
 20
294.800
 30
-6.54905e-14
  70
    32
  0
VERTEX
  8
0
  5
709E
 10
-63.9178
 20
294.810
 30
-6.54936e-14
  70
    32
  0
VERTEX
  8
0
  5
709F
 10
-63.9177
 20
294.819
 30
-6.54968e-14
  70
    32
  0
VERTEX
  8
0
  5
70A0
 10
-63.9175
 20
294.829
 30
-6.54999e-14
  70
    32
  0
VERTEX
  8
0
  5
70A1
 10
-63.9174
 20
294.838
 30
-6.55029e-14
  70
    32
  0
VERTEX
  8
0
  5
70A2
 10
-63.9173
 20
294.848
 30
-6.55060e-14
  70
    32
  0
VERTEX
  8
0
  5
70A3
 10
-63.9172
 20
294.857
 30
-6.55090e-14
  70
    32
  0
VERTEX
  8
0
  5
70A4
 10
-63.9171
 20
294.867
 30
-6.55119e-14
  70
    32
  0
VERTEX
  8
0
  5
70A5
 10
-63.9169
 20
294.876
 30
-6.55149e-14
  70
    32
  0
VERTEX
  8
0
  5
70A6
 10
-63.9168
 20
294.886
 30
-6.55178e-14
  70
    32
  0
VERTEX
  8
0
  5
70A7
 10
-63.9167
 20
294.895
 30
-6.55206e-14
  70
    32
  0
VERTEX
  8
0
  5
70A8
 10
-63.9166
 20
294.905
 30
-6.55234e-14
  70
    32
  0
VERTEX
  8
0
  5
70A9
 10
-63.9165
 20
294.914
 30
-6.55262e-14
  70
    32
  0
VERTEX
  8
0
  5
70AA
 10
-63.9164
 20
294.924
 30
-6.55289e-14
  70
    32
  0
VERTEX
  8
0
  5
70AB
 10
-63.9163
 20
294.934
 30
-6.55316e-14
  70
    32
  0
VERTEX
  8
0
  5
70AC
 10
-63.9162
 20
294.943
 30
-6.55342e-14
  70
    32
  0
VERTEX
  8
0
  5
70AD
 10
-63.9161
 20
294.953
 30
-6.55368e-14
  70
    32
  0
VERTEX
  8
0
  5
70AE
 10
-63.9160
 20
294.962
 30
-6.55393e-14
  70
    32
  0
VERTEX
  8
0
  5
70AF
 10
-63.9159
 20
294.972
 30
-6.55417e-14
  70
    32
  0
VERTEX
  8
0
  5
70B0
 10
-63.9158
 20
294.981
 30
-6.55441e-14
  70
    32
  0
VERTEX
  8
0
  5
70B1
 10
-63.9157
 20
294.991
 30
-6.55465e-14
  70
    32
  0
VERTEX
  8
0
  5
70B2
 10
-63.9156
 20
295.000
 30
-6.55487e-14
  70
    32
  0
VERTEX
  8
0
  5
70B3
 10
-63.9155
 20
295.010
 30
-6.55510e-14
  70
    32
  0
VERTEX
  8
0
  5
70B4
 10
-63.9154
 20
295.019
 30
-6.55531e-14
  70
    32
  0
VERTEX
  8
0
  5
70B5
 10
-63.9153
 20
295.029
 30
-6.55552e-14
  70
    32
  0
VERTEX
  8
0
  5
70B6
 10
-63.9152
 20
295.039
 30
-6.55572e-14
  70
    32
  0
VERTEX
  8
0
  5
70B7
 10
-63.9151
 20
295.048
 30
-6.55592e-14
  70
    32
  0
VERTEX
  8
0
  5
70B8
 10
-63.9150
 20
295.058
 30
-6.55611e-14
  70
    32
  0
VERTEX
  8
0
  5
70B9
 10
-63.9149
 20
295.067
 30
-6.55630e-14
  70
    32
  0
VERTEX
  8
0
  5
70BA
 10
-63.9148
 20
295.077
 30
-6.55648e-14
  70
    32
  0
VERTEX
  8
0
  5
70BB
 10
-63.9147
 20
295.086
 30
-6.55665e-14
  70
    32
  0
VERTEX
  8
0
  5
70BC
 10
-63.9147
 20
295.096
 30
-6.55682e-14
  70
    32
  0
VERTEX
  8
0
  5
70BD
 10
-63.9146
 20
295.106
 30
-6.55699e-14
  70
    32
  0
VERTEX
  8
0
  5
70BE
 10
-63.9145
 20
295.115
 30
-6.55715e-14
  70
    32
  0
VERTEX
  8
0
  5
70BF
 10
-63.9144
 20
295.125
 30
-6.55730e-14
  70
    32
  0
VERTEX
  8
0
  5
70C0
 10
-63.9143
 20
295.134
 30
-6.55746e-14
  70
    32
  0
VERTEX
  8
0
  5
70C1
 10
-63.9143
 20
295.144
 30
-6.55761e-14
  70
    32
  0
VERTEX
  8
0
  5
70C2
 10
-63.9142
 20
295.153
 30
-6.55775e-14
  70
    32
  0
VERTEX
  8
0
  5
70C3
 10
-63.9141
 20
295.163
 30
-6.55789e-14
  70
    32
  0
VERTEX
  8
0
  5
70C4
 10
-63.9141
 20
295.172
 30
-6.55803e-14
  70
    32
  0
VERTEX
  8
0
  5
70C5
 10
-63.9140
 20
295.182
 30
-6.55817e-14
  70
    32
  0
VERTEX
  8
0
  5
70C6
 10
-63.9139
 20
295.192
 30
-6.55830e-14
  70
    32
  0
VERTEX
  8
0
  5
70C7
 10
-63.9138
 20
295.201
 30
-6.55843e-14
  70
    32
  0
VERTEX
  8
0
  5
70C8
 10
-63.9138
 20
295.211
 30
-6.55855e-14
  70
    32
  0
VERTEX
  8
0
  5
70C9
 10
-63.9137
 20
295.220
 30
-6.55868e-14
  70
    32
  0
VERTEX
  8
0
  5
70CA
 10
-63.9136
 20
295.230
 30
-6.55880e-14
  70
    32
  0
VERTEX
  8
0
  5
70CB
 10
-63.9136
 20
295.239
 30
-6.55892e-14
  70
    32
  0
VERTEX
  8
0
  5
70CC
 10
-63.9135
 20
295.249
 30
-6.55904e-14
  70
    32
  0
VERTEX
  8
0
  5
70CD
 10
-63.9135
 20
295.258
 30
-6.55915e-14
  70
    32
  0
VERTEX
  8
0
  5
70CE
 10
-63.9134
 20
295.268
 30
-6.55927e-14
  70
    32
  0
VERTEX
  8
0
  5
70CF
 10
-63.9134
 20
295.277
 30
-6.55938e-14
  70
    32
  0
VERTEX
  8
0
  5
70D0
 10
-63.9133
 20
295.287
 30
-6.55950e-14
  70
    32
  0
VERTEX
  8
0
  5
70D1
 10
-63.9132
 20
295.297
 30
-6.55961e-14
  70
    32
  0
VERTEX
  8
0
  5
70D2
 10
-63.9132
 20
295.306
 30
-6.55972e-14
  70
    32
  0
VERTEX
  8
0
  5
70D3
 10
-63.9131
 20
295.316
 30
-6.55983e-14
  70
    32
  0
VERTEX
  8
0
  5
70D4
 10
-63.9131
 20
295.325
 30
-6.55994e-14
  70
    32
  0
VERTEX
  8
0
  5
70D5
 10
-63.9130
 20
295.335
 30
-6.56005e-14
  70
    32
  0
VERTEX
  8
0
  5
70D6
 10
-63.9130
 20
295.344
 30
-6.56016e-14
  70
    32
  0
VERTEX
  8
0
  5
70D7
 10
-63.9130
 20
295.354
 30
-6.56027e-14
  70
    32
  0
VERTEX
  8
0
  5
70D8
 10
-63.9129
 20
295.363
 30
-6.56038e-14
  70
    32
  0
VERTEX
  8
0
  5
70D9
 10
-63.9129
 20
295.373
 30
-6.56050e-14
  70
    32
  0
VERTEX
  8
0
  5
70DA
 10
-63.9128
 20
295.382
 30
-6.56061e-14
  70
    32
  0
VERTEX
  8
0
  5
70DB
 10
-63.9128
 20
295.392
 30
-6.56072e-14
  70
    32
  0
VERTEX
  8
0
  5
70DC
 10
-63.9128
 20
295.401
 30
-6.56084e-14
  70
    32
  0
VERTEX
  8
0
  5
70DD
 10
-63.9127
 20
295.411
 30
-6.56095e-14
  70
    32
  0
VERTEX
  8
0
  5
70DE
 10
-63.9127
 20
295.420
 30
-6.56107e-14
  70
    32
  0
VERTEX
  8
0
  5
70DF
 10
-63.9126
 20
295.429
 30
-6.56119e-14
  70
    32
  0
VERTEX
  8
0
  5
70E0
 10
-63.9126
 20
295.439
 30
-6.56131e-14
  70
    32
  0
VERTEX
  8
0
  5
70E1
 10
-63.9126
 20
295.448
 30
-6.56144e-14
  70
    32
  0
VERTEX
  8
0
  5
70E2
 10
-63.9126
 20
295.458
 30
-6.56156e-14
  70
    32
  0
VERTEX
  8
0
  5
70E3
 10
-63.9125
 20
295.467
 30
-6.56169e-14
  70
    32
  0
VERTEX
  8
0
  5
70E4
 10
-63.9125
 20
295.477
 30
-6.56183e-14
  70
    32
  0
VERTEX
  8
0
  5
70E5
 10
-63.9125
 20
295.486
 30
-6.56196e-14
  70
    32
  0
VERTEX
  8
0
  5
70E6
 10
-63.9125
 20
295.496
 30
-6.56210e-14
  70
    32
  0
VERTEX
  8
0
  5
70E7
 10
-63.9124
 20
295.505
 30
-6.56224e-14
  70
    32
  0
VERTEX
  8
0
  5
70E8
 10
-63.9124
 20
295.514
 30
-6.56238e-14
  70
    32
  0
VERTEX
  8
0
  5
70E9
 10
-63.9124
 20
295.524
 30
-6.56253e-14
  70
    32
  0
VERTEX
  8
0
  5
70EA
 10
-63.9124
 20
295.533
 30
-6.56269e-14
  70
    32
  0
VERTEX
  8
0
  5
70EB
 10
-63.9124
 20
295.543
 30
-6.56284e-14
  70
    32
  0
VERTEX
  8
0
  5
70EC
 10
-63.9123
 20
295.552
 30
-6.56300e-14
  70
    32
  0
VERTEX
  8
0
  5
70ED
 10
-63.9123
 20
295.561
 30
-6.56317e-14
  70
    32
  0
VERTEX
  8
0
  5
70EE
 10
-63.9123
 20
295.571
 30
-6.56334e-14
  70
    32
  0
VERTEX
  8
0
  5
70EF
 10
-63.9123
 20
295.580
 30
-6.56351e-14
  70
    32
  0
VERTEX
  8
0
  5
70F0
 10
-63.9123
 20
295.589
 30
-6.56369e-14
  70
    32
  0
VERTEX
  8
0
  5
70F1
 10
-63.9123
 20
295.599
 30
-6.56388e-14
  70
    32
  0
VERTEX
  8
0
  5
70F2
 10
-63.9123
 20
295.608
 30
-6.56407e-14
  70
    32
  0
VERTEX
  8
0
  5
70F3
 10
-63.9123
 20
295.617
 30
-6.56427e-14
  70
    32
  0
VERTEX
  8
0
  5
70F4
 10
-63.9123
 20
295.627
 30
-6.56447e-14
  70
    32
  0
VERTEX
  8
0
  5
70F5
 10
-63.9123
 20
295.636
 30
-6.56468e-14
  70
    32
  0
VERTEX
  8
0
  5
70F6
 10
-63.9123
 20
295.645
 30
-6.56489e-14
  70
    32
  0
VERTEX
  8
0
  5
70F7
 10
-63.9123
 20
295.655
 30
-6.56511e-14
  70
    32
  0
VERTEX
  8
0
  5
70F8
 10
-63.9123
 20
295.664
 30
-6.56532e-14
  70
    32
  0
VERTEX
  8
0
  5
70F9
 10
-63.9123
 20
295.673
 30
-6.56553e-14
  70
    32
  0
VERTEX
  8
0
  5
70FA
 10
-63.9123
 20
295.683
 30
-6.56573e-14
  70
    32
  0
VERTEX
  8
0
  5
70FB
 10
-63.9123
 20
295.692
 30
-6.56593e-14
  70
    32
  0
VERTEX
  8
0
  5
70FC
 10
-63.9123
 20
295.701
 30
-6.56612e-14
  70
    32
  0
VERTEX
  8
0
  5
70FD
 10
-63.9123
 20
295.711
 30
-6.56631e-14
  70
    32
  0
VERTEX
  8
0
  5
70FE
 10
-63.9123
 20
295.720
 30
-6.56649e-14
  70
    32
  0
VERTEX
  8
0
  5
70FF
 10
-63.9123
 20
295.729
 30
-6.56666e-14
  70
    32
  0
VERTEX
  8
0
  5
7100
 10
-63.9123
 20
295.739
 30
-6.56683e-14
  70
    32
  0
VERTEX
  8
0
  5
7101
 10
-63.9123
 20
295.748
 30
-6.56700e-14
  70
    32
  0
VERTEX
  8
0
  5
7102
 10
-63.9124
 20
295.757
 30
-6.56716e-14
  70
    32
  0
VERTEX
  8
0
  5
7103
 10
-63.9124
 20
295.767
 30
-6.56731e-14
  70
    32
  0
VERTEX
  8
0
  5
7104
 10
-63.9124
 20
295.776
 30
-6.56747e-14
  70
    32
  0
VERTEX
  8
0
  5
7105
 10
-63.9124
 20
295.786
 30
-6.56762e-14
  70
    32
  0
VERTEX
  8
0
  5
7106
 10
-63.9124
 20
295.795
 30
-6.56776e-14
  70
    32
  0
VERTEX
  8
0
  5
7107
 10
-63.9125
 20
295.804
 30
-6.56790e-14
  70
    32
  0
VERTEX
  8
0
  5
7108
 10
-63.9125
 20
295.814
 30
-6.56804e-14
  70
    32
  0
VERTEX
  8
0
  5
7109
 10
-63.9125
 20
295.823
 30
-6.56817e-14
  70
    32
  0
VERTEX
  8
0
  5
710A
 10
-63.9125
 20
295.833
 30
-6.56831e-14
  70
    32
  0
VERTEX
  8
0
  5
710B
 10
-63.9126
 20
295.842
 30
-6.56844e-14
  70
    32
  0
VERTEX
  8
0
  5
710C
 10
-63.9126
 20
295.852
 30
-6.56856e-14
  70
    32
  0
VERTEX
  8
0
  5
710D
 10
-63.9126
 20
295.861
 30
-6.56869e-14
  70
    32
  0
VERTEX
  8
0
  5
710E
 10
-63.9126
 20
295.871
 30
-6.56881e-14
  70
    32
  0
VERTEX
  8
0
  5
710F
 10
-63.9127
 20
295.880
 30
-6.56893e-14
  70
    32
  0
VERTEX
  8
0
  5
7110
 10
-63.9127
 20
295.889
 30
-6.56905e-14
  70
    32
  0
VERTEX
  8
0
  5
7111
 10
-63.9128
 20
295.899
 30
-6.56916e-14
  70
    32
  0
VERTEX
  8
0
  5
7112
 10
-63.9128
 20
295.908
 30
-6.56928e-14
  70
    32
  0
VERTEX
  8
0
  5
7113
 10
-63.9128
 20
295.918
 30
-6.56939e-14
  70
    32
  0
VERTEX
  8
0
  5
7114
 10
-63.9129
 20
295.927
 30
-6.56950e-14
  70
    32
  0
VERTEX
  8
0
  5
7115
 10
-63.9129
 20
295.937
 30
-6.56962e-14
  70
    32
  0
VERTEX
  8
0
  5
7116
 10
-63.9130
 20
295.946
 30
-6.56973e-14
  70
    32
  0
VERTEX
  8
0
  5
7117
 10
-63.9130
 20
295.956
 30
-6.56984e-14
  70
    32
  0
VERTEX
  8
0
  5
7118
 10
-63.9130
 20
295.965
 30
-6.56995e-14
  70
    32
  0
VERTEX
  8
0
  5
7119
 10
-63.9131
 20
295.975
 30
-6.57006e-14
  70
    32
  0
VERTEX
  8
0
  5
711A
 10
-63.9131
 20
295.984
 30
-6.57017e-14
  70
    32
  0
VERTEX
  8
0
  5
711B
 10
-63.9132
 20
295.994
 30
-6.57028e-14
  70
    32
  0
VERTEX
  8
0
  5
711C
 10
-63.9132
 20
296.003
 30
-6.57039e-14
  70
    32
  0
VERTEX
  8
0
  5
711D
 10
-63.9133
 20
296.013
 30
-6.57050e-14
  70
    32
  0
VERTEX
  8
0
  5
711E
 10
-63.9134
 20
296.023
 30
-6.57062e-14
  70
    32
  0
VERTEX
  8
0
  5
711F
 10
-63.9134
 20
296.032
 30
-6.57073e-14
  70
    32
  0
VERTEX
  8
0
  5
7120
 10
-63.9135
 20
296.042
 30
-6.57085e-14
  70
    32
  0
VERTEX
  8
0
  5
7121
 10
-63.9135
 20
296.051
 30
-6.57096e-14
  70
    32
  0
VERTEX
  8
0
  5
7122
 10
-63.9136
 20
296.061
 30
-6.57108e-14
  70
    32
  0
VERTEX
  8
0
  5
7123
 10
-63.9136
 20
296.070
 30
-6.57120e-14
  70
    32
  0
VERTEX
  8
0
  5
7124
 10
-63.9137
 20
296.080
 30
-6.57132e-14
  70
    32
  0
VERTEX
  8
0
  5
7125
 10
-63.9138
 20
296.089
 30
-6.57145e-14
  70
    32
  0
VERTEX
  8
0
  5
7126
 10
-63.9138
 20
296.099
 30
-6.57157e-14
  70
    32
  0
VERTEX
  8
0
  5
7127
 10
-63.9139
 20
296.108
 30
-6.57170e-14
  70
    32
  0
VERTEX
  8
0
  5
7128
 10
-63.9140
 20
296.118
 30
-6.57183e-14
  70
    32
  0
VERTEX
  8
0
  5
7129
 10
-63.9141
 20
296.128
 30
-6.57197e-14
  70
    32
  0
VERTEX
  8
0
  5
712A
 10
-63.9141
 20
296.137
 30
-6.57211e-14
  70
    32
  0
VERTEX
  8
0
  5
712B
 10
-63.9142
 20
296.147
 30
-6.57225e-14
  70
    32
  0
VERTEX
  8
0
  5
712C
 10
-63.9143
 20
296.156
 30
-6.57239e-14
  70
    32
  0
VERTEX
  8
0
  5
712D
 10
-63.9143
 20
296.166
 30
-6.57254e-14
  70
    32
  0
VERTEX
  8
0
  5
712E
 10
-63.9144
 20
296.175
 30
-6.57270e-14
  70
    32
  0
VERTEX
  8
0
  5
712F
 10
-63.9145
 20
296.185
 30
-6.57285e-14
  70
    32
  0
VERTEX
  8
0
  5
7130
 10
-63.9146
 20
296.194
 30
-6.57301e-14
  70
    32
  0
VERTEX
  8
0
  5
7131
 10
-63.9147
 20
296.204
 30
-6.57318e-14
  70
    32
  0
VERTEX
  8
0
  5
7132
 10
-63.9147
 20
296.214
 30
-6.57335e-14
  70
    32
  0
VERTEX
  8
0
  5
7133
 10
-63.9148
 20
296.223
 30
-6.57352e-14
  70
    32
  0
VERTEX
  8
0
  5
7134
 10
-63.9149
 20
296.233
 30
-6.57370e-14
  70
    32
  0
VERTEX
  8
0
  5
7135
 10
-63.9150
 20
296.242
 30
-6.57389e-14
  70
    32
  0
VERTEX
  8
0
  5
7136
 10
-63.9151
 20
296.252
 30
-6.57408e-14
  70
    32
  0
VERTEX
  8
0
  5
7137
 10
-63.9152
 20
296.261
 30
-6.57428e-14
  70
    32
  0
VERTEX
  8
0
  5
7138
 10
-63.9153
 20
296.271
 30
-6.57448e-14
  70
    32
  0
VERTEX
  8
0
  5
7139
 10
-63.9154
 20
296.281
 30
-6.57469e-14
  70
    32
  0
VERTEX
  8
0
  5
713A
 10
-63.9155
 20
296.290
 30
-6.57490e-14
  70
    32
  0
VERTEX
  8
0
  5
713B
 10
-63.9156
 20
296.300
 30
-6.57513e-14
  70
    32
  0
VERTEX
  8
0
  5
713C
 10
-63.9157
 20
296.309
 30
-6.57535e-14
  70
    32
  0
VERTEX
  8
0
  5
713D
 10
-63.9158
 20
296.319
 30
-6.57559e-14
  70
    32
  0
VERTEX
  8
0
  5
713E
 10
-63.9159
 20
296.328
 30
-6.57583e-14
  70
    32
  0
VERTEX
  8
0
  5
713F
 10
-63.9160
 20
296.338
 30
-6.57607e-14
  70
    32
  0
VERTEX
  8
0
  5
7140
 10
-63.9161
 20
296.347
 30
-6.57632e-14
  70
    32
  0
VERTEX
  8
0
  5
7141
 10
-63.9162
 20
296.357
 30
-6.57658e-14
  70
    32
  0
VERTEX
  8
0
  5
7142
 10
-63.9163
 20
296.366
 30
-6.57684e-14
  70
    32
  0
VERTEX
  8
0
  5
7143
 10
-63.9164
 20
296.376
 30
-6.57711e-14
  70
    32
  0
VERTEX
  8
0
  5
7144
 10
-63.9165
 20
296.386
 30
-6.57738e-14
  70
    32
  0
VERTEX
  8
0
  5
7145
 10
-63.9166
 20
296.395
 30
-6.57766e-14
  70
    32
  0
VERTEX
  8
0
  5
7146
 10
-63.9167
 20
296.405
 30
-6.57794e-14
  70
    32
  0
VERTEX
  8
0
  5
7147
 10
-63.9168
 20
296.414
 30
-6.57822e-14
  70
    32
  0
VERTEX
  8
0
  5
7148
 10
-63.9169
 20
296.424
 30
-6.57851e-14
  70
    32
  0
VERTEX
  8
0
  5
7149
 10
-63.9171
 20
296.433
 30
-6.57881e-14
  70
    32
  0
VERTEX
  8
0
  5
714A
 10
-63.9172
 20
296.443
 30
-6.57910e-14
  70
    32
  0
VERTEX
  8
0
  5
714B
 10
-63.9173
 20
296.452
 30
-6.57940e-14
  70
    32
  0
VERTEX
  8
0
  5
714C
 10
-63.9174
 20
296.462
 30
-6.57971e-14
  70
    32
  0
VERTEX
  8
0
  5
714D
 10
-63.9175
 20
296.471
 30
-6.58001e-14
  70
    32
  0
VERTEX
  8
0
  5
714E
 10
-63.9177
 20
296.481
 30
-6.58032e-14
  70
    32
  0
VERTEX
  8
0
  5
714F
 10
-63.9178
 20
296.490
 30
-6.58064e-14
  70
    32
  0
VERTEX
  8
0
  5
7150
 10
-63.9179
 20
296.500
 30
-6.58095e-14
  70
    32
  0
VERTEX
  8
0
  5
7151
 10
-63.9180
 20
296.509
 30
-6.58127e-14
  70
    32
  0
VERTEX
  8
0
  5
7152
 10
-63.9182
 20
296.519
 30
-6.58159e-14
  70
    32
  0
VERTEX
  8
0
  5
7153
 10
-63.9183
 20
296.528
 30
-6.58191e-14
  70
    32
  0
VERTEX
  8
0
  5
7154
 10
-63.9184
 20
296.538
 30
-6.58223e-14
  70
    32
  0
VERTEX
  8
0
  5
7155
 10
-63.9186
 20
296.547
 30
-6.58256e-14
  70
    32
  0
VERTEX
  8
0
  5
7156
 10
-63.9187
 20
296.556
 30
-6.58289e-14
  70
    32
  0
VERTEX
  8
0
  5
7157
 10
-63.9188
 20
296.566
 30
-6.58321e-14
  70
    32
  0
VERTEX
  8
0
  5
7158
 10
-63.9190
 20
296.575
 30
-6.58354e-14
  70
    32
  0
VERTEX
  8
0
  5
7159
 10
-63.9191
 20
296.585
 30
-6.58387e-14
  70
    32
  0
VERTEX
  8
0
  5
715A
 10
-63.9192
 20
296.594
 30
-6.58420e-14
  70
    32
  0
VERTEX
  8
0
  5
715B
 10
-63.9194
 20
296.604
 30
-6.58453e-14
  70
    32
  0
VERTEX
  8
0
  5
715C
 10
-63.9195
 20
296.613
 30
-6.58487e-14
  70
    32
  0
VERTEX
  8
0
  5
715D
 10
-63.9197
 20
296.623
 30
-6.58520e-14
  70
    32
  0
VERTEX
  8
0
  5
715E
 10
-63.9198
 20
296.632
 30
-6.58553e-14
  70
    32
  0
VERTEX
  8
0
  5
715F
 10
-63.9200
 20
296.641
 30
-6.58586e-14
  70
    32
  0
VERTEX
  8
0
  5
7160
 10
-63.9201
 20
296.651
 30
-6.58619e-14
  70
    32
  0
VERTEX
  8
0
  5
7161
 10
-63.9203
 20
296.660
 30
-6.58652e-14
  70
    32
  0
VERTEX
  8
0
  5
7162
 10
-63.9204
 20
296.669
 30
-6.58685e-14
  70
    32
  0
VERTEX
  8
0
  5
7163
 10
-63.9205
 20
296.679
 30
-6.58717e-14
  70
    32
  0
VERTEX
  8
0
  5
7164
 10
-63.9207
 20
296.688
 30
-6.58750e-14
  70
    32
  0
VERTEX
  8
0
  5
7165
 10
-63.9209
 20
296.698
 30
-6.58783e-14
  70
    32
  0
VERTEX
  8
0
  5
7166
 10
-63.9210
 20
296.707
 30
-6.58815e-14
  70
    32
  0
VERTEX
  8
0
  5
7167
 10
-63.9212
 20
296.716
 30
-6.58847e-14
  70
    32
  0
VERTEX
  8
0
  5
7168
 10
-63.9213
 20
296.726
 30
-6.58879e-14
  70
    32
  0
VERTEX
  8
0
  5
7169
 10
-63.9215
 20
296.735
 30
-6.58911e-14
  70
    32
  0
VERTEX
  8
0
  5
716A
 10
-63.9216
 20
296.744
 30
-6.58942e-14
  70
    32
  0
VERTEX
  8
0
  5
716B
 10
-63.9218
 20
296.754
 30
-6.58973e-14
  70
    32
  0
VERTEX
  8
0
  5
716C
 10
-63.9220
 20
296.763
 30
-6.59004e-14
  70
    32
  0
VERTEX
  8
0
  5
716D
 10
-63.9221
 20
296.772
 30
-6.59035e-14
  70
    32
  0
VERTEX
  8
0
  5
716E
 10
-63.9223
 20
296.781
 30
-6.59065e-14
  70
    32
  0
VERTEX
  8
0
  5
716F
 10
-63.9224
 20
296.791
 30
-6.59095e-14
  70
    32
  0
VERTEX
  8
0
  5
7170
 10
-63.9226
 20
296.800
 30
-6.59125e-14
  70
    32
  0
VERTEX
  8
0
  5
7171
 10
-63.9228
 20
296.809
 30
-6.59154e-14
  70
    32
  0
VERTEX
  8
0
  5
7172
 10
-63.9229
 20
296.819
 30
-6.59183e-14
  70
    32
  0
VERTEX
  8
0
  5
7173
 10
-63.9231
 20
296.828
 30
-6.59211e-14
  70
    32
  0
VERTEX
  8
0
  5
7174
 10
-63.9233
 20
296.837
 30
-6.59240e-14
  70
    32
  0
VERTEX
  8
0
  5
7175
 10
-63.9235
 20
296.846
 30
-6.59267e-14
  70
    32
  0
VERTEX
  8
0
  5
7176
 10
-63.9236
 20
296.855
 30
-6.59294e-14
  70
    32
  0
VERTEX
  8
0
  5
7177
 10
-63.9238
 20
296.865
 30
-6.59321e-14
  70
    32
  0
VERTEX
  8
0
  5
7178
 10
-63.9240
 20
296.874
 30
-6.59347e-14
  70
    32
  0
VERTEX
  8
0
  5
7179
 10
-63.9242
 20
296.883
 30
-6.59372e-14
  70
    32
  0
VERTEX
  8
0
  5
717A
 10
-63.9243
 20
296.892
 30
-6.59397e-14
  70
    32
  0
VERTEX
  8
0
  5
717B
 10
-63.9245
 20
296.901
 30
-6.59422e-14
  70
    32
  0
VERTEX
  8
0
  5
717C
 10
-63.9247
 20
296.910
 30
-6.59446e-14
  70
    32
  0
VERTEX
  8
0
  5
717D
 10
-63.9249
 20
296.920
 30
-6.59469e-14
  70
    32
  0
VERTEX
  8
0
  5
717E
 10
-63.9251
 20
296.929
 30
-6.59492e-14
  70
    32
  0
VERTEX
  8
0
  5
717F
 10
-63.9252
 20
296.938
 30
-6.59514e-14
  70
    32
  0
VERTEX
  8
0
  5
7180
 10
-63.9254
 20
296.947
 30
-6.59535e-14
  70
    32
  0
VERTEX
  8
0
  5
7181
 10
-63.9256
 20
296.956
 30
-6.59556e-14
  70
    32
  0
VERTEX
  8
0
  5
7182
 10
-63.9258
 20
296.965
 30
-6.59576e-14
  70
    32
  0
VERTEX
  8
0
  5
7183
 10
-63.9260
 20
296.974
 30
-6.59595e-14
  70
    32
  0
VERTEX
  8
0
  5
7184
 10
-63.9262
 20
296.983
 30
-6.59614e-14
  70
    32
  0
VERTEX
  8
0
  5
7185
 10
-63.9264
 20
296.992
 30
-6.59633e-14
  70
    32
  0
VERTEX
  8
0
  5
7186
 10
-63.9265
 20
297.001
 30
-6.59651e-14
  70
    32
  0
VERTEX
  8
0
  5
7187
 10
-63.9267
 20
297.010
 30
-6.59668e-14
  70
    32
  0
VERTEX
  8
0
  5
7188
 10
-63.9269
 20
297.019
 30
-6.59685e-14
  70
    32
  0
VERTEX
  8
0
  5
7189
 10
-63.9271
 20
297.028
 30
-6.59702e-14
  70
    32
  0
VERTEX
  8
0
  5
718A
 10
-63.9273
 20
297.037
 30
-6.59718e-14
  70
    32
  0
VERTEX
  8
0
  5
718B
 10
-63.9275
 20
297.046
 30
-6.59733e-14
  70
    32
  0
VERTEX
  8
0
  5
718C
 10
-63.9277
 20
297.055
 30
-6.59749e-14
  70
    32
  0
VERTEX
  8
0
  5
718D
 10
-63.9279
 20
297.064
 30
-6.59763e-14
  70
    32
  0
VERTEX
  8
0
  5
718E
 10
-63.9281
 20
297.073
 30
-6.59778e-14
  70
    32
  0
VERTEX
  8
0
  5
718F
 10
-63.9283
 20
297.082
 30
-6.59792e-14
  70
    32
  0
VERTEX
  8
0
  5
7190
 10
-63.9285
 20
297.091
 30
-6.59806e-14
  70
    32
  0
VERTEX
  8
0
  5
7191
 10
-63.9287
 20
297.100
 30
-6.59819e-14
  70
    32
  0
VERTEX
  8
0
  5
7192
 10
-63.9289
 20
297.109
 30
-6.59832e-14
  70
    32
  0
VERTEX
  8
0
  5
7193
 10
-63.9291
 20
297.117
 30
-6.59845e-14
  70
    32
  0
VERTEX
  8
0
  5
7194
 10
-63.9293
 20
297.126
 30
-6.59858e-14
  70
    32
  0
VERTEX
  8
0
  5
7195
 10
-63.9295
 20
297.135
 30
-6.59870e-14
  70
    32
  0
VERTEX
  8
0
  5
7196
 10
-63.9297
 20
297.144
 30
-6.59882e-14
  70
    32
  0
VERTEX
  8
0
  5
7197
 10
-63.9299
 20
297.153
 30
-6.59894e-14
  70
    32
  0
VERTEX
  8
0
  5
7198
 10
-63.9301
 20
297.162
 30
-6.59906e-14
  70
    32
  0
VERTEX
  8
0
  5
7199
 10
-63.9303
 20
297.170
 30
-6.59918e-14
  70
    32
  0
VERTEX
  8
0
  5
719A
 10
-63.9306
 20
297.179
 30
-6.59929e-14
  70
    32
  0
VERTEX
  8
0
  5
719B
 10
-63.9308
 20
297.188
 30
-6.59941e-14
  70
    32
  0
VERTEX
  8
0
  5
719C
 10
-63.9310
 20
297.197
 30
-6.59952e-14
  70
    32
  0
VERTEX
  8
0
  5
719D
 10
-63.9312
 20
297.205
 30
-6.59963e-14
  70
    32
  0
VERTEX
  8
0
  5
719E
 10
-63.9314
 20
297.214
 30
-6.59974e-14
  70
    32
  0
VERTEX
  8
0
  5
719F
 10
-63.9316
 20
297.223
 30
-6.59985e-14
  70
    32
  0
VERTEX
  8
0
  5
71A0
 10
-63.9318
 20
297.231
 30
-6.59996e-14
  70
    32
  0
VERTEX
  8
0
  5
71A1
 10
-63.9320
 20
297.240
 30
-6.60007e-14
  70
    32
  0
VERTEX
  8
0
  5
71A2
 10
-63.9323
 20
297.249
 30
-6.60018e-14
  70
    32
  0
VERTEX
  8
0
  5
71A3
 10
-63.9325
 20
297.257
 30
-6.60029e-14
  70
    32
  0
VERTEX
  8
0
  5
71A4
 10
-63.9327
 20
297.266
 30
-6.60041e-14
  70
    32
  0
VERTEX
  8
0
  5
71A5
 10
-63.9329
 20
297.275
 30
-6.60052e-14
  70
    32
  0
VERTEX
  8
0
  5
71A6
 10
-63.9331
 20
297.283
 30
-6.60063e-14
  70
    32
  0
VERTEX
  8
0
  5
71A7
 10
-63.9333
 20
297.292
 30
-6.60074e-14
  70
    32
  0
VERTEX
  8
0
  5
71A8
 10
-63.9336
 20
297.300
 30
-6.60086e-14
  70
    32
  0
VERTEX
  8
0
  5
71A9
 10
-63.9338
 20
297.309
 30
-6.60098e-14
  70
    32
  0
VERTEX
  8
0
  5
71AA
 10
-63.9340
 20
297.317
 30
-6.60109e-14
  70
    32
  0
VERTEX
  8
0
  5
71AB
 10
-63.9342
 20
297.326
 30
-6.60121e-14
  70
    32
  0
VERTEX
  8
0
  5
71AC
 10
-63.9345
 20
297.334
 30
-6.60134e-14
  70
    32
  0
VERTEX
  8
0
  5
71AD
 10
-63.9347
 20
297.343
 30
-6.60146e-14
  70
    32
  0
VERTEX
  8
0
  5
71AE
 10
-63.9349
 20
297.351
 30
-6.60159e-14
  70
    32
  0
VERTEX
  8
0
  5
71AF
 10
-63.9351
 20
297.360
 30
-6.60172e-14
  70
    32
  0
VERTEX
  8
0
  5
71B0
 10
-63.9354
 20
297.368
 30
-6.60185e-14
  70
    32
  0
VERTEX
  8
0
  5
71B1
 10
-63.9356
 20
297.377
 30
-6.60199e-14
  70
    32
  0
VERTEX
  8
0
  5
71B2
 10
-63.9358
 20
297.385
 30
-6.60212e-14
  70
    32
  0
VERTEX
  8
0
  5
71B3
 10
-63.9360
 20
297.393
 30
-6.60227e-14
  70
    32
  0
VERTEX
  8
0
  5
71B4
 10
-63.9363
 20
297.402
 30
-6.60241e-14
  70
    32
  0
VERTEX
  8
0
  5
71B5
 10
-63.9365
 20
297.410
 30
-6.60256e-14
  70
    32
  0
VERTEX
  8
0
  5
71B6
 10
-63.9367
 20
297.418
 30
-6.60271e-14
  70
    32
  0
VERTEX
  8
0
  5
71B7
 10
-63.9370
 20
297.427
 30
-6.60287e-14
  70
    32
  0
VERTEX
  8
0
  5
71B8
 10
-63.9372
 20
297.435
 30
-6.60303e-14
  70
    32
  0
VERTEX
  8
0
  5
71B9
 10
-63.9374
 20
297.443
 30
-6.60320e-14
  70
    32
  0
VERTEX
  8
0
  5
71BA
 10
-63.9376
 20
297.451
 30
-6.60337e-14
  70
    32
  0
VERTEX
  8
0
  5
71BB
 10
-63.9379
 20
297.460
 30
-6.60355e-14
  70
    32
  0
VERTEX
  8
0
  5
71BC
 10
-63.9381
 20
297.468
 30
-6.60373e-14
  70
    32
  0
VERTEX
  8
0
  5
71BD
 10
-63.9383
 20
297.476
 30
-6.60391e-14
  70
    32
  0
VERTEX
  8
0
  5
71BE
 10
-63.9386
 20
297.484
 30
-6.60411e-14
  70
    32
  0
VERTEX
  8
0
  5
71BF
 10
-63.9388
 20
297.492
 30
-6.60430e-14
  70
    32
  0
VERTEX
  8
0
  5
71C0
 10
-63.9390
 20
297.500
 30
-6.60451e-14
  70
    32
  0
VERTEX
  8
0
  5
71C1
 10
-63.9393
 20
297.509
 30
-6.60472e-14
  70
    32
  0
VERTEX
  8
0
  5
71C2
 10
-63.9395
 20
297.517
 30
-6.60493e-14
  70
    32
  0
VERTEX
  8
0
  5
71C3
 10
-63.9398
 20
297.525
 30
-6.60515e-14
  70
    32
  0
VERTEX
  8
0
  5
71C4
 10
-63.9400
 20
297.533
 30
-6.60536e-14
  70
    32
  0
VERTEX
  8
0
  5
71C5
 10
-63.9402
 20
297.541
 30
-6.60557e-14
  70
    32
  0
VERTEX
  8
0
  5
71C6
 10
-63.9405
 20
297.549
 30
-6.60577e-14
  70
    32
  0
VERTEX
  8
0
  5
71C7
 10
-63.9407
 20
297.557
 30
-6.60597e-14
  70
    32
  0
VERTEX
  8
0
  5
71C8
 10
-63.9409
 20
297.565
 30
-6.60616e-14
  70
    32
  0
VERTEX
  8
0
  5
71C9
 10
-63.9412
 20
297.573
 30
-6.60634e-14
  70
    32
  0
VERTEX
  8
0
  5
71CA
 10
-63.9414
 20
297.581
 30
-6.60652e-14
  70
    32
  0
VERTEX
  8
0
  5
71CB
 10
-63.9417
 20
297.589
 30
-6.60669e-14
  70
    32
  0
VERTEX
  8
0
  5
71CC
 10
-63.9419
 20
297.597
 30
-6.60686e-14
  70
    32
  0
VERTEX
  8
0
  5
71CD
 10
-63.9421
 20
297.604
 30
-6.60703e-14
  70
    32
  0
VERTEX
  8
0
  5
71CE
 10
-63.9424
 20
297.612
 30
-6.60719e-14
  70
    32
  0
VERTEX
  8
0
  5
71CF
 10
-63.9426
 20
297.620
 30
-6.60734e-14
  70
    32
  0
VERTEX
  8
0
  5
71D0
 10
-63.9429
 20
297.628
 30
-6.60749e-14
  70
    32
  0
VERTEX
  8
0
  5
71D1
 10
-63.9431
 20
297.636
 30
-6.60764e-14
  70
    32
  0
VERTEX
  8
0
  5
71D2
 10
-63.9433
 20
297.643
 30
-6.60779e-14
  70
    32
  0
VERTEX
  8
0
  5
71D3
 10
-63.9436
 20
297.651
 30
-6.60793e-14
  70
    32
  0
VERTEX
  8
0
  5
71D4
 10
-63.9438
 20
297.659
 30
-6.60806e-14
  70
    32
  0
VERTEX
  8
0
  5
71D5
 10
-63.9441
 20
297.667
 30
-6.60820e-14
  70
    32
  0
VERTEX
  8
0
  5
71D6
 10
-63.9443
 20
297.674
 30
-6.60833e-14
  70
    32
  0
VERTEX
  8
0
  5
71D7
 10
-63.9446
 20
297.682
 30
-6.60846e-14
  70
    32
  0
VERTEX
  8
0
  5
71D8
 10
-63.9448
 20
297.690
 30
-6.60859e-14
  70
    32
  0
VERTEX
  8
0
  5
71D9
 10
-63.9450
 20
297.697
 30
-6.60871e-14
  70
    32
  0
VERTEX
  8
0
  5
71DA
 10
-63.9453
 20
297.705
 30
-6.60883e-14
  70
    32
  0
VERTEX
  8
0
  5
71DB
 10
-63.9455
 20
297.712
 30
-6.60895e-14
  70
    32
  0
VERTEX
  8
0
  5
71DC
 10
-63.9458
 20
297.720
 30
-6.60907e-14
  70
    32
  0
VERTEX
  8
0
  5
71DD
 10
-63.9460
 20
297.728
 30
-6.60918e-14
  70
    32
  0
VERTEX
  8
0
  5
71DE
 10
-63.9463
 20
297.735
 30
-6.60930e-14
  70
    32
  0
VERTEX
  8
0
  5
71DF
 10
-63.9465
 20
297.743
 30
-6.60941e-14
  70
    32
  0
VERTEX
  8
0
  5
71E0
 10
-63.9468
 20
297.750
 30
-6.60952e-14
  70
    32
  0
VERTEX
  8
0
  5
71E1
 10
-63.9470
 20
297.758
 30
-6.60964e-14
  70
    32
  0
VERTEX
  8
0
  5
71E2
 10
-63.9472
 20
297.765
 30
-6.60975e-14
  70
    32
  0
VERTEX
  8
0
  5
71E3
 10
-63.9475
 20
297.772
 30
-6.60986e-14
  70
    32
  0
VERTEX
  8
0
  5
71E4
 10
-63.9477
 20
297.780
 30
-6.60997e-14
  70
    32
  0
VERTEX
  8
0
  5
71E5
 10
-63.9480
 20
297.787
 30
-6.61008e-14
  70
    32
  0
VERTEX
  8
0
  5
71E6
 10
-63.9482
 20
297.794
 30
-6.61019e-14
  70
    32
  0
VERTEX
  8
0
  5
71E7
 10
-63.9485
 20
297.802
 30
-6.61030e-14
  70
    32
  0
VERTEX
  8
0
  5
71E8
 10
-63.9487
 20
297.809
 30
-6.61041e-14
  70
    32
  0
VERTEX
  8
0
  5
71E9
 10
-63.9490
 20
297.816
 30
-6.61052e-14
  70
    32
  0
VERTEX
  8
0
  5
71EA
 10
-63.9492
 20
297.824
 30
-6.61064e-14
  70
    32
  0
VERTEX
  8
0
  5
71EB
 10
-63.9495
 20
297.831
 30
-6.61075e-14
  70
    32
  0
VERTEX
  8
0
  5
71EC
 10
-63.9497
 20
297.838
 30
-6.61087e-14
  70
    32
  0
VERTEX
  8
0
  5
71ED
 10
-63.9500
 20
297.845
 30
-6.61098e-14
  70
    32
  0
VERTEX
  8
0
  5
71EE
 10
-63.9502
 20
297.852
 30
-6.61110e-14
  70
    32
  0
VERTEX
  8
0
  5
71EF
 10
-63.9504
 20
297.860
 30
-6.61122e-14
  70
    32
  0
VERTEX
  8
0
  5
71F0
 10
-63.9507
 20
297.867
 30
-6.61135e-14
  70
    32
  0
VERTEX
  8
0
  5
71F1
 10
-63.9509
 20
297.874
 30
-6.61147e-14
  70
    32
  0
VERTEX
  8
0
  5
71F2
 10
-63.9512
 20
297.881
 30
-6.61160e-14
  70
    32
  0
VERTEX
  8
0
  5
71F3
 10
-63.9514
 20
297.888
 30
-6.61173e-14
  70
    32
  0
VERTEX
  8
0
  5
71F4
 10
-63.9517
 20
297.895
 30
-6.61186e-14
  70
    32
  0
VERTEX
  8
0
  5
71F5
 10
-63.9519
 20
297.902
 30
-6.61199e-14
  70
    32
  0
VERTEX
  8
0
  5
71F6
 10
-63.9522
 20
297.909
 30
-6.61213e-14
  70
    32
  0
VERTEX
  8
0
  5
71F7
 10
-63.9524
 20
297.916
 30
-6.61228e-14
  70
    32
  0
VERTEX
  8
0
  5
71F8
 10
-63.9527
 20
297.923
 30
-6.61242e-14
  70
    32
  0
VERTEX
  8
0
  5
71F9
 10
-63.9529
 20
297.930
 30
-6.61257e-14
  70
    32
  0
VERTEX
  8
0
  5
71FA
 10
-63.9532
 20
297.937
 30
-6.61272e-14
  70
    32
  0
VERTEX
  8
0
  5
71FB
 10
-63.9534
 20
297.943
 30
-6.61288e-14
  70
    32
  0
VERTEX
  8
0
  5
71FC
 10
-63.9536
 20
297.950
 30
-6.61304e-14
  70
    32
  0
VERTEX
  8
0
  5
71FD
 10
-63.9539
 20
297.957
 30
-6.61321e-14
  70
    32
  0
VERTEX
  8
0
  5
71FE
 10
-63.9541
 20
297.964
 30
-6.61338e-14
  70
    32
  0
VERTEX
  8
0
  5
71FF
 10
-63.9544
 20
297.971
 30
-6.61356e-14
  70
    32
  0
VERTEX
  8
0
  5
7200
 10
-63.9546
 20
297.977
 30
-6.61374e-14
  70
    32
  0
VERTEX
  8
0
  5
7201
 10
-63.9549
 20
297.984
 30
-6.61393e-14
  70
    32
  0
VERTEX
  8
0
  5
7202
 10
-63.9551
 20
297.991
 30
-6.61412e-14
  70
    32
  0
VERTEX
  8
0
  5
7203
 10
-63.9554
 20
297.997
 30
-6.61432e-14
  70
    32
  0
VERTEX
  8
0
  5
7204
 10
-63.9556
 20
298.004
 30
-6.61452e-14
  70
    32
  0
VERTEX
  8
0
  5
7205
 10
-63.9558
 20
298.011
 30
-6.61473e-14
  70
    32
  0
VERTEX
  8
0
  5
7206
 10
-63.9561
 20
298.017
 30
-6.61494e-14
  70
    32
  0
VERTEX
  8
0
  5
7207
 10
-63.9563
 20
298.024
 30
-6.61516e-14
  70
    32
  0
VERTEX
  8
0
  5
7208
 10
-63.9566
 20
298.030
 30
-6.61538e-14
  70
    32
  0
VERTEX
  8
0
  5
7209
 10
-63.9568
 20
298.037
 30
-6.61558e-14
  70
    32
  0
VERTEX
  8
0
  5
720A
 10
-63.9571
 20
298.043
 30
-6.61578e-14
  70
    32
  0
VERTEX
  8
0
  5
720B
 10
-63.9573
 20
298.050
 30
-6.61598e-14
  70
    32
  0
VERTEX
  8
0
  5
720C
 10
-63.9575
 20
298.056
 30
-6.61617e-14
  70
    32
  0
VERTEX
  8
0
  5
720D
 10
-63.9578
 20
298.063
 30
-6.61635e-14
  70
    32
  0
VERTEX
  8
0
  5
720E
 10
-63.9580
 20
298.069
 30
-6.61653e-14
  70
    32
  0
VERTEX
  8
0
  5
720F
 10
-63.9583
 20
298.076
 30
-6.61670e-14
  70
    32
  0
VERTEX
  8
0
  5
7210
 10
-63.9585
 20
298.082
 30
-6.61687e-14
  70
    32
  0
VERTEX
  8
0
  5
7211
 10
-63.9588
 20
298.089
 30
-6.61704e-14
  70
    32
  0
VERTEX
  8
0
  5
7212
 10
-63.9590
 20
298.095
 30
-6.61720e-14
  70
    32
  0
VERTEX
  8
0
  5
7213
 10
-63.9593
 20
298.102
 30
-6.61735e-14
  70
    32
  0
VERTEX
  8
0
  5
7214
 10
-63.9595
 20
298.108
 30
-6.61750e-14
  70
    32
  0
VERTEX
  8
0
  5
7215
 10
-63.9598
 20
298.114
 30
-6.61765e-14
  70
    32
  0
VERTEX
  8
0
  5
7216
 10
-63.9600
 20
298.121
 30
-6.61780e-14
  70
    32
  0
VERTEX
  8
0
  5
7217
 10
-63.9602
 20
298.127
 30
-6.61794e-14
  70
    32
  0
VERTEX
  8
0
  5
7218
 10
-63.9605
 20
298.133
 30
-6.61807e-14
  70
    32
  0
VERTEX
  8
0
  5
7219
 10
-63.9607
 20
298.140
 30
-6.61821e-14
  70
    32
  0
VERTEX
  8
0
  5
721A
 10
-63.9610
 20
298.146
 30
-6.61834e-14
  70
    32
  0
VERTEX
  8
0
  5
721B
 10
-63.9612
 20
298.152
 30
-6.61847e-14
  70
    32
  0
VERTEX
  8
0
  5
721C
 10
-63.9615
 20
298.159
 30
-6.61859e-14
  70
    32
  0
VERTEX
  8
0
  5
721D
 10
-63.9617
 20
298.165
 30
-6.61872e-14
  70
    32
  0
VERTEX
  8
0
  5
721E
 10
-63.9620
 20
298.171
 30
-6.61884e-14
  70
    32
  0
VERTEX
  8
0
  5
721F
 10
-63.9622
 20
298.177
 30
-6.61896e-14
  70
    32
  0
VERTEX
  8
0
  5
7220
 10
-63.9625
 20
298.184
 30
-6.61907e-14
  70
    32
  0
VERTEX
  8
0
  5
7221
 10
-63.9627
 20
298.190
 30
-6.61919e-14
  70
    32
  0
VERTEX
  8
0
  5
7222
 10
-63.9630
 20
298.196
 30
-6.61931e-14
  70
    32
  0
VERTEX
  8
0
  5
7223
 10
-63.9632
 20
298.202
 30
-6.61942e-14
  70
    32
  0
VERTEX
  8
0
  5
7224
 10
-63.9634
 20
298.208
 30
-6.61953e-14
  70
    32
  0
VERTEX
  8
0
  5
7225
 10
-63.9637
 20
298.214
 30
-6.61964e-14
  70
    32
  0
VERTEX
  8
0
  5
7226
 10
-63.9639
 20
298.221
 30
-6.61975e-14
  70
    32
  0
VERTEX
  8
0
  5
7227
 10
-63.9642
 20
298.227
 30
-6.61987e-14
  70
    32
  0
VERTEX
  8
0
  5
7228
 10
-63.9644
 20
298.233
 30
-6.61998e-14
  70
    32
  0
VERTEX
  8
0
  5
7229
 10
-63.9647
 20
298.239
 30
-6.62009e-14
  70
    32
  0
VERTEX
  8
0
  5
722A
 10
-63.9649
 20
298.245
 30
-6.62020e-14
  70
    32
  0
VERTEX
  8
0
  5
722B
 10
-63.9652
 20
298.251
 30
-6.62031e-14
  70
    32
  0
VERTEX
  8
0
  5
722C
 10
-63.9654
 20
298.257
 30
-6.62042e-14
  70
    32
  0
VERTEX
  8
0
  5
722D
 10
-63.9657
 20
298.263
 30
-6.62053e-14
  70
    32
  0
VERTEX
  8
0
  5
722E
 10
-63.9659
 20
298.269
 30
-6.62064e-14
  70
    32
  0
VERTEX
  8
0
  5
722F
 10
-63.9661
 20
298.275
 30
-6.62076e-14
  70
    32
  0
VERTEX
  8
0
  5
7230
 10
-63.9664
 20
298.281
 30
-6.62087e-14
  70
    32
  0
VERTEX
  8
0
  5
7231
 10
-63.9666
 20
298.287
 30
-6.62099e-14
  70
    32
  0
VERTEX
  8
0
  5
7232
 10
-63.9669
 20
298.293
 30
-6.62111e-14
  70
    32
  0
VERTEX
  8
0
  5
7233
 10
-63.9671
 20
298.299
 30
-6.62123e-14
  70
    32
  0
VERTEX
  8
0
  5
7234
 10
-63.9674
 20
298.305
 30
-6.62135e-14
  70
    32
  0
VERTEX
  8
0
  5
7235
 10
-63.9676
 20
298.310
 30
-6.62148e-14
  70
    32
  0
VERTEX
  8
0
  5
7236
 10
-63.9679
 20
298.316
 30
-6.62160e-14
  70
    32
  0
VERTEX
  8
0
  5
7237
 10
-63.9681
 20
298.322
 30
-6.62173e-14
  70
    32
  0
VERTEX
  8
0
  5
7238
 10
-63.9683
 20
298.328
 30
-6.62187e-14
  70
    32
  0
VERTEX
  8
0
  5
7239
 10
-63.9686
 20
298.334
 30
-6.62200e-14
  70
    32
  0
VERTEX
  8
0
  5
723A
 10
-63.9688
 20
298.339
 30
-6.62214e-14
  70
    32
  0
VERTEX
  8
0
  5
723B
 10
-63.9691
 20
298.345
 30
-6.62228e-14
  70
    32
  0
VERTEX
  8
0
  5
723C
 10
-63.9693
 20
298.351
 30
-6.62243e-14
  70
    32
  0
VERTEX
  8
0
  5
723D
 10
-63.9695
 20
298.357
 30
-6.62258e-14
  70
    32
  0
VERTEX
  8
0
  5
723E
 10
-63.9698
 20
298.362
 30
-6.62273e-14
  70
    32
  0
VERTEX
  8
0
  5
723F
 10
-63.9700
 20
298.368
 30
-6.62289e-14
  70
    32
  0
VERTEX
  8
0
  5
7240
 10
-63.9703
 20
298.374
 30
-6.62305e-14
  70
    32
  0
VERTEX
  8
0
  5
7241
 10
-63.9705
 20
298.379
 30
-6.62322e-14
  70
    32
  0
VERTEX
  8
0
  5
7242
 10
-63.9708
 20
298.385
 30
-6.62339e-14
  70
    32
  0
VERTEX
  8
0
  5
7243
 10
-63.9710
 20
298.390
 30
-6.62357e-14
  70
    32
  0
VERTEX
  8
0
  5
7244
 10
-63.9712
 20
298.396
 30
-6.62375e-14
  70
    32
  0
VERTEX
  8
0
  5
7245
 10
-63.9715
 20
298.402
 30
-6.62394e-14
  70
    32
  0
VERTEX
  8
0
  5
7246
 10
-63.9717
 20
298.407
 30
-6.62413e-14
  70
    32
  0
VERTEX
  8
0
  5
7247
 10
-63.9719
 20
298.413
 30
-6.62433e-14
  70
    32
  0
VERTEX
  8
0
  5
7248
 10
-63.9722
 20
298.418
 30
-6.62453e-14
  70
    32
  0
VERTEX
  8
0
  5
7249
 10
-63.9724
 20
298.424
 30
-6.62474e-14
  70
    32
  0
VERTEX
  8
0
  5
724A
 10
-63.9727
 20
298.429
 30
-6.62496e-14
  70
    32
  0
VERTEX
  8
0
  5
724B
 10
-63.9729
 20
298.434
 30
-6.62518e-14
  70
    32
  0
VERTEX
  8
0
  5
724C
 10
-63.9731
 20
298.440
 30
-6.62539e-14
  70
    32
  0
VERTEX
  8
0
  5
724D
 10
-63.9734
 20
298.445
 30
-6.62560e-14
  70
    32
  0
VERTEX
  8
0
  5
724E
 10
-63.9736
 20
298.451
 30
-6.62580e-14
  70
    32
  0
VERTEX
  8
0
  5
724F
 10
-63.9738
 20
298.456
 30
-6.62599e-14
  70
    32
  0
VERTEX
  8
0
  5
7250
 10
-63.9741
 20
298.461
 30
-6.62618e-14
  70
    32
  0
VERTEX
  8
0
  5
7251
 10
-63.9743
 20
298.467
 30
-6.62636e-14
  70
    32
  0
VERTEX
  8
0
  5
7252
 10
-63.9745
 20
298.472
 30
-6.62654e-14
  70
    32
  0
VERTEX
  8
0
  5
7253
 10
-63.9748
 20
298.477
 30
-6.62672e-14
  70
    32
  0
VERTEX
  8
0
  5
7254
 10
-63.9750
 20
298.482
 30
-6.62688e-14
  70
    32
  0
VERTEX
  8
0
  5
7255
 10
-63.9752
 20
298.487
 30
-6.62705e-14
  70
    32
  0
VERTEX
  8
0
  5
7256
 10
-63.9755
 20
298.493
 30
-6.62721e-14
  70
    32
  0
VERTEX
  8
0
  5
7257
 10
-63.9757
 20
298.498
 30
-6.62736e-14
  70
    32
  0
VERTEX
  8
0
  5
7258
 10
-63.9759
 20
298.503
 30
-6.62751e-14
  70
    32
  0
VERTEX
  8
0
  5
7259
 10
-63.9761
 20
298.508
 30
-6.62766e-14
  70
    32
  0
VERTEX
  8
0
  5
725A
 10
-63.9764
 20
298.513
 30
-6.62780e-14
  70
    32
  0
VERTEX
  8
0
  5
725B
 10
-63.9766
 20
298.518
 30
-6.62794e-14
  70
    32
  0
VERTEX
  8
0
  5
725C
 10
-63.9768
 20
298.523
 30
-6.62808e-14
  70
    32
  0
VERTEX
  8
0
  5
725D
 10
-63.9770
 20
298.528
 30
-6.62822e-14
  70
    32
  0
VERTEX
  8
0
  5
725E
 10
-63.9773
 20
298.533
 30
-6.62835e-14
  70
    32
  0
VERTEX
  8
0
  5
725F
 10
-63.9775
 20
298.538
 30
-6.62847e-14
  70
    32
  0
VERTEX
  8
0
  5
7260
 10
-63.9777
 20
298.543
 30
-6.62860e-14
  70
    32
  0
VERTEX
  8
0
  5
7261
 10
-63.9779
 20
298.548
 30
-6.62872e-14
  70
    32
  0
VERTEX
  8
0
  5
7262
 10
-63.9782
 20
298.553
 30
-6.62885e-14
  70
    32
  0
VERTEX
  8
0
  5
7263
 10
-63.9784
 20
298.558
 30
-6.62896e-14
  70
    32
  0
VERTEX
  8
0
  5
7264
 10
-63.9786
 20
298.563
 30
-6.62908e-14
  70
    32
  0
VERTEX
  8
0
  5
7265
 10
-63.9788
 20
298.568
 30
-6.62920e-14
  70
    32
  0
VERTEX
  8
0
  5
7266
 10
-63.9790
 20
298.572
 30
-6.62931e-14
  70
    32
  0
VERTEX
  8
0
  5
7267
 10
-63.9793
 20
298.577
 30
-6.62943e-14
  70
    32
  0
VERTEX
  8
0
  5
7268
 10
-63.9795
 20
298.582
 30
-6.62954e-14
  70
    32
  0
VERTEX
  8
0
  5
7269
 10
-63.9797
 20
298.587
 30
-6.62965e-14
  70
    32
  0
VERTEX
  8
0
  5
726A
 10
-63.9799
 20
298.591
 30
-6.62976e-14
  70
    32
  0
VERTEX
  8
0
  5
726B
 10
-63.9801
 20
298.596
 30
-6.62987e-14
  70
    32
  0
VERTEX
  8
0
  5
726C
 10
-63.9803
 20
298.601
 30
-6.62998e-14
  70
    32
  0
VERTEX
  8
0
  5
726D
 10
-63.9806
 20
298.605
 30
-6.63009e-14
  70
    32
  0
VERTEX
  8
0
  5
726E
 10
-63.9808
 20
298.610
 30
-6.63020e-14
  70
    32
  0
VERTEX
  8
0
  5
726F
 10
-63.9810
 20
298.615
 30
-6.63031e-14
  70
    32
  0
VERTEX
  8
0
  5
7270
 10
-63.9812
 20
298.619
 30
-6.63043e-14
  70
    32
  0
VERTEX
  8
0
  5
7271
 10
-63.9814
 20
298.624
 30
-6.63054e-14
  70
    32
  0
VERTEX
  8
0
  5
7272
 10
-63.9816
 20
298.628
 30
-6.63065e-14
  70
    32
  0
VERTEX
  8
0
  5
7273
 10
-63.9818
 20
298.633
 30
-6.63077e-14
  70
    32
  0
VERTEX
  8
0
  5
7274
 10
-63.9820
 20
298.637
 30
-6.63088e-14
  70
    32
  0
VERTEX
  8
0
  5
7275
 10
-63.9822
 20
298.642
 30
-6.63100e-14
  70
    32
  0
VERTEX
  8
0
  5
7276
 10
-63.9825
 20
298.646
 30
-6.63112e-14
  70
    32
  0
VERTEX
  8
0
  5
7277
 10
-63.9827
 20
298.651
 30
-6.63124e-14
  70
    32
  0
VERTEX
  8
0
  5
7278
 10
-63.9829
 20
298.655
 30
-6.63136e-14
  70
    32
  0
VERTEX
  8
0
  5
7279
 10
-63.9831
 20
298.659
 30
-6.63149e-14
  70
    32
  0
VERTEX
  8
0
  5
727A
 10
-63.9833
 20
298.664
 30
-6.63161e-14
  70
    32
  0
VERTEX
  8
0
  5
727B
 10
-63.9835
 20
298.668
 30
-6.63174e-14
  70
    32
  0
VERTEX
  8
0
  5
727C
 10
-63.9837
 20
298.672
 30
-6.63188e-14
  70
    32
  0
VERTEX
  8
0
  5
727D
 10
-63.9839
 20
298.676
 30
-6.63201e-14
  70
    32
  0
VERTEX
  8
0
  5
727E
 10
-63.9841
 20
298.681
 30
-6.63215e-14
  70
    32
  0
VERTEX
  8
0
  5
727F
 10
-63.9843
 20
298.685
 30
-6.63229e-14
  70
    32
  0
VERTEX
  8
0
  5
7280
 10
-63.9845
 20
298.689
 30
-6.63244e-14
  70
    32
  0
VERTEX
  8
0
  5
7281
 10
-63.9847
 20
298.693
 30
-6.63259e-14
  70
    32
  0
VERTEX
  8
0
  5
7282
 10
-63.9849
 20
298.697
 30
-6.63274e-14
  70
    32
  0
VERTEX
  8
0
  5
7283
 10
-63.9851
 20
298.701
 30
-6.63290e-14
  70
    32
  0
VERTEX
  8
0
  5
7284
 10
-63.9853
 20
298.705
 30
-6.63306e-14
  70
    32
  0
VERTEX
  8
0
  5
7285
 10
-63.9854
 20
298.709
 30
-6.63323e-14
  70
    32
  0
VERTEX
  8
0
  5
7286
 10
-63.9856
 20
298.713
 30
-6.63340e-14
  70
    32
  0
VERTEX
  8
0
  5
7287
 10
-63.9858
 20
298.717
 30
-6.63358e-14
  70
    32
  0
VERTEX
  8
0
  5
7288
 10
-63.9860
 20
298.721
 30
-6.63376e-14
  70
    32
  0
VERTEX
  8
0
  5
7289
 10
-63.9862
 20
298.725
 30
-6.63395e-14
  70
    32
  0
VERTEX
  8
0
  5
728A
 10
-63.9864
 20
298.729
 30
-6.63414e-14
  70
    32
  0
VERTEX
  8
0
  5
728B
 10
-63.9866
 20
298.733
 30
-6.63434e-14
  70
    32
  0
VERTEX
  8
0
  5
728C
 10
-63.9868
 20
298.737
 30
-6.63455e-14
  70
    32
  0
VERTEX
  8
0
  5
728D
 10
-63.9870
 20
298.741
 30
-6.63476e-14
  70
    32
  0
VERTEX
  8
0
  5
728E
 10
-63.9871
 20
298.744
 30
-6.63497e-14
  70
    32
  0
VERTEX
  8
0
  5
728F
 10
-63.9873
 20
298.748
 30
-6.63519e-14
  70
    32
  0
VERTEX
  8
0
  5
7290
 10
-63.9875
 20
298.752
 30
-6.63540e-14
  70
    32
  0
VERTEX
  8
0
  5
7291
 10
-63.9877
 20
298.756
 30
-6.63561e-14
  70
    32
  0
VERTEX
  8
0
  5
7292
 10
-63.9879
 20
298.759
 30
-6.63581e-14
  70
    32
  0
VERTEX
  8
0
  5
7293
 10
-63.9880
 20
298.763
 30
-6.63600e-14
  70
    32
  0
VERTEX
  8
0
  5
7294
 10
-63.9882
 20
298.767
 30
-6.63619e-14
  70
    32
  0
VERTEX
  8
0
  5
7295
 10
-63.9884
 20
298.770
 30
-6.63637e-14
  70
    32
  0
VERTEX
  8
0
  5
7296
 10
-63.9886
 20
298.774
 30
-6.63654e-14
  70
    32
  0
VERTEX
  8
0
  5
7297
 10
-63.9887
 20
298.777
 30
-6.63671e-14
  70
    32
  0
VERTEX
  8
0
  5
7298
 10
-63.9889
 20
298.781
 30
-6.63688e-14
  70
    32
  0
VERTEX
  8
0
  5
7299
 10
-63.9891
 20
298.784
 30
-6.63704e-14
  70
    32
  0
VERTEX
  8
0
  5
729A
 10
-63.9892
 20
298.788
 30
-6.63719e-14
  70
    32
  0
VERTEX
  8
0
  5
729B
 10
-63.9894
 20
298.791
 30
-6.63734e-14
  70
    32
  0
VERTEX
  8
0
  5
729C
 10
-63.9896
 20
298.795
 30
-6.63748e-14
  70
    32
  0
VERTEX
  8
0
  5
729D
 10
-63.9897
 20
298.798
 30
-6.63762e-14
  70
    32
  0
VERTEX
  8
0
  5
729E
 10
-63.9899
 20
298.801
 30
-6.63775e-14
  70
    32
  0
VERTEX
  8
0
  5
729F
 10
-63.9901
 20
298.805
 30
-6.63788e-14
  70
    32
  0
VERTEX
  8
0
  5
72A0
 10
-63.9902
 20
298.808
 30
-6.63800e-14
  70
    32
  0
VERTEX
  8
0
  5
72A1
 10
-63.9904
 20
298.811
 30
-6.63812e-14
  70
    32
  0
VERTEX
  8
0
  5
72A2
 10
-63.9906
 20
298.815
 30
-6.63823e-14
  70
    32
  0
VERTEX
  8
0
  5
72A3
 10
-63.9907
 20
298.818
 30
-6.63834e-14
  70
    32
  0
VERTEX
  8
0
  5
72A4
 10
-63.9909
 20
298.821
 30
-6.63844e-14
  70
    32
  0
VERTEX
  8
0
  5
72A5
 10
-63.9910
 20
298.824
 30
-6.63854e-14
  70
    32
  0
VERTEX
  8
0
  5
72A6
 10
-63.9912
 20
298.827
 30
-6.63864e-14
  70
    32
  0
VERTEX
  8
0
  5
72A7
 10
-63.9913
 20
298.830
 30
-6.63873e-14
  70
    32
  0
VERTEX
  8
0
  5
72A8
 10
-63.9915
 20
298.833
 30
-6.63881e-14
  70
    32
  0
VERTEX
  8
0
  5
72A9
 10
-63.9916
 20
298.837
 30
-6.63890e-14
  70
    32
  0
VERTEX
  8
0
  5
72AA
 10
-63.9918
 20
298.840
 30
-6.63897e-14
  70
    32
  0
VERTEX
  8
0
  5
72AB
 10
-63.9919
 20
298.843
 30
-6.63905e-14
  70
    32
  0
VERTEX
  8
0
  5
72AC
 10
-63.9921
 20
298.846
 30
-6.63912e-14
  70
    32
  0
VERTEX
  8
0
  5
72AD
 10
-63.9922
 20
298.848
 30
-6.63919e-14
  70
    32
  0
VERTEX
  8
0
  5
72AE
 10
-63.9924
 20
298.851
 30
-6.63925e-14
  70
    32
  0
VERTEX
  8
0
  5
72AF
 10
-63.9925
 20
298.854
 30
-6.63931e-14
  70
    32
  0
VERTEX
  8
0
  5
72B0
 10
-63.9927
 20
298.857
 30
-6.63937e-14
  70
    32
  0
VERTEX
  8
0
  5
72B1
 10
-63.9928
 20
298.860
 30
-6.63942e-14
  70
    32
  0
VERTEX
  8
0
  5
72B2
 10
-63.9930
 20
298.863
 30
-6.63947e-14
  70
    32
  0
VERTEX
  8
0
  5
72B3
 10
-63.9931
 20
298.865
 30
-6.63952e-14
  70
    32
  0
VERTEX
  8
0
  5
72B4
 10
-63.9932
 20
298.868
 30
-6.63957e-14
  70
    32
  0
VERTEX
  8
0
  5
72B5
 10
-63.9934
 20
298.871
 30
-6.63961e-14
  70
    32
  0
VERTEX
  8
0
  5
72B6
 10
-63.9935
 20
298.874
 30
-6.63965e-14
  70
    32
  0
VERTEX
  8
0
  5
72B7
 10
-63.9936
 20
298.876
 30
-6.63968e-14
  70
    32
  0
VERTEX
  8
0
  5
72B8
 10
-63.9938
 20
298.879
 30
-6.63972e-14
  70
    32
  0
VERTEX
  8
0
  5
72B9
 10
-63.9939
 20
298.882
 30
-6.63975e-14
  70
    32
  0
VERTEX
  8
0
  5
72BA
 10
-63.9940
 20
298.884
 30
-6.63978e-14
  70
    32
  0
VERTEX
  8
0
  5
72BB
 10
-63.9942
 20
298.887
 30
-6.63980e-14
  70
    32
  0
VERTEX
  8
0
  5
72BC
 10
-63.9943
 20
298.889
 30
-6.63983e-14
  70
    32
  0
VERTEX
  8
0
  5
72BD
 10
-63.9944
 20
298.892
 30
-6.63985e-14
  70
    32
  0
VERTEX
  8
0
  5
72BE
 10
-63.9945
 20
298.894
 30
-6.63987e-14
  70
    32
  0
VERTEX
  8
0
  5
72BF
 10
-63.9947
 20
298.897
 30
-6.63989e-14
  70
    32
  0
VERTEX
  8
0
  5
72C0
 10
-63.9948
 20
298.899
 30
-6.63991e-14
  70
    32
  0
VERTEX
  8
0
  5
72C1
 10
-63.9949
 20
298.901
 30
-6.63992e-14
  70
    32
  0
VERTEX
  8
0
  5
72C2
 10
-63.9950
 20
298.904
 30
-6.63993e-14
  70
    32
  0
VERTEX
  8
0
  5
72C3
 10
-63.9951
 20
298.906
 30
-6.63995e-14
  70
    32
  0
VERTEX
  8
0
  5
72C4
 10
-63.9953
 20
298.908
 30
-6.63996e-14
  70
    32
  0
VERTEX
  8
0
  5
72C5
 10
-63.9954
 20
298.911
 30
-6.63996e-14
  70
    32
  0
VERTEX
  8
0
  5
72C6
 10
-63.9955
 20
298.913
 30
-6.63997e-14
  70
    32
  0
VERTEX
  8
0
  5
72C7
 10
-63.9956
 20
298.915
 30
-6.63998e-14
  70
    32
  0
VERTEX
  8
0
  5
72C8
 10
-63.9957
 20
298.917
 30
-6.63998e-14
  70
    32
  0
VERTEX
  8
0
  5
72C9
 10
-63.9958
 20
298.919
 30
-6.63999e-14
  70
    32
  0
VERTEX
  8
0
  5
72CA
 10
-63.9959
 20
298.921
 30
-6.63999e-14
  70
    32
  0
VERTEX
  8
0
  5
72CB
 10
-63.9960
 20
298.924
 30
-6.63999e-14
  70
    32
  0
VERTEX
  8
0
  5
72CC
 10
-63.9961
 20
298.926
 30
-6.64000e-14
  70
    32
  0
VERTEX
  8
0
  5
72CD
 10
-63.9963
 20
298.928
 30
-6.64000e-14
  70
    32
  0
VERTEX
  8
0
  5
72CE
 10
-63.9964
 20
298.930
 30
-6.64000e-14
  70
    32
  0
VERTEX
  8
0
  5
72CF
 10
-63.9965
 20
298.932
 30
-6.64000e-14
  70
    32
  0
VERTEX
  8
0
  5
72D0
 10
-63.9966
 20
298.934
 30
-6.64000e-14
  70
    32
  0
VERTEX
  8
0
  5
72D1
 10
-63.9967
 20
298.935
 30
-6.64000e-14
  70
    32
  0
VERTEX
  8
0
  5
72D2
 10
-63.9968
 20
298.937
 30
-6.64000e-14
  70
    32
  0
VERTEX
  8
0
  5
72D3
 10
-63.9968
 20
298.939
 30
-6.64000e-14
  70
    32
  0
VERTEX
  8
0
  5
72D4
 10
-63.9969
 20
298.941
 30
-6.64000e-14
  70
    32
  0
VERTEX
  8
0
  5
72D5
 10
-63.9970
 20
298.943
 30
-6.64000e-14
  70
    32
  0
VERTEX
  8
0
  5
72D6
 10
-63.9971
 20
298.945
 30
-6.64000e-14
  70
    32
  0
VERTEX
  8
0
  5
72D7
 10
-63.9972
 20
298.946
 30
-6.64000e-14
  70
    32
  0
VERTEX
  8
0
  5
72D8
 10
-63.9973
 20
298.948
 30
-6.64000e-14
  70
    32
  0
VERTEX
  8
0
  5
72D9
 10
-63.9974
 20
298.950
 30
-6.64000e-14
  70
    32
  0
VERTEX
  8
0
  5
72DA
 10
-63.9975
 20
298.951
 30
-6.64000e-14
  70
    32
  0
VERTEX
  8
0
  5
72DB
 10
-63.9976
 20
298.953
 30
-6.64000e-14
  70
    32
  0
VERTEX
  8
0
  5
72DC
 10
-63.9976
 20
298.955
 30
-6.64000e-14
  70
    32
  0
VERTEX
  8
0
  5
72DD
 10
-63.9977
 20
298.956
 30
-6.64000e-14
  70
    32
  0
VERTEX
  8
0
  5
72DE
 10
-63.9978
 20
298.958
 30
-6.64000e-14
  70
    32
  0
VERTEX
  8
0
  5
72DF
 10
-63.9979
 20
298.959
 30
-6.64000e-14
  70
    32
  0
VERTEX
  8
0
  5
72E0
 10
-63.9980
 20
298.961
 30
-6.64000e-14
  70
    32
  0
VERTEX
  8
0
  5
72E1
 10
-63.9980
 20
298.962
 30
-6.64000e-14
  70
    32
  0
VERTEX
  8
0
  5
72E2
 10
-63.9981
 20
298.964
 30
-6.64000e-14
  70
    32
  0
VERTEX
  8
0
  5
72E3
 10
-63.9982
 20
298.965
 30
-6.64000e-14
  70
    32
  0
VERTEX
  8
0
  5
72E4
 10
-63.9983
 20
298.966
 30
-6.64000e-14
  70
    32
  0
VERTEX
  8
0
  5
72E5
 10
-63.9983
 20
298.968
 30
-6.64000e-14
  70
    32
  0
VERTEX
  8
0
  5
72E6
 10
-63.9984
 20
298.969
 30
-6.64000e-14
  70
    32
  0
VERTEX
  8
0
  5
72E7
 10
-63.9985
 20
298.970
 30
-6.64000e-14
  70
    32
  0
VERTEX
  8
0
  5
72E8
 10
-63.9985
 20
298.972
 30
-6.64000e-14
  70
    32
  0
VERTEX
  8
0
  5
72E9
 10
-63.9986
 20
298.973
 30
-6.64000e-14
  70
    32
  0
VERTEX
  8
0
  5
72EA
 10
-63.9986
 20
298.974
 30
-6.64000e-14
  70
    32
  0
VERTEX
  8
0
  5
72EB
 10
-63.9987
 20
298.975
 30
-6.64000e-14
  70
    32
  0
VERTEX
  8
0
  5
72EC
 10
-63.9988
 20
298.976
 30
-6.64000e-14
  70
    32
  0
VERTEX
  8
0
  5
72ED
 10
-63.9988
 20
298.978
 30
-6.64000e-14
  70
    32
  0
VERTEX
  8
0
  5
72EE
 10
-63.9989
 20
298.979
 30
-6.64000e-14
  70
    32
  0
VERTEX
  8
0
  5
72EF
 10
-63.9989
 20
298.980
 30
-6.64000e-14
  70
    32
  0
VERTEX
  8
0
  5
72F0
 10
-63.9990
 20
298.981
 30
-6.64000e-14
  70
    32
  0
VERTEX
  8
0
  5
72F1
 10
-63.9990
 20
298.982
 30
-6.64000e-14
  70
    32
  0
VERTEX
  8
0
  5
72F2
 10
-63.9991
 20
298.983
 30
-6.64000e-14
  70
    32
  0
VERTEX
  8
0
  5
72F3
 10
-63.9991
 20
298.984
 30
-6.64000e-14
  70
    32
  0
VERTEX
  8
0
  5
72F4
 10
-63.9992
 20
298.985
 30
-6.64000e-14
  70
    32
  0
VERTEX
  8
0
  5
72F5
 10
-63.9992
 20
298.986
 30
-6.64000e-14
  70
    32
  0
VERTEX
  8
0
  5
72F6
 10
-63.9993
 20
298.986
 30
-6.64000e-14
  70
    32
  0
VERTEX
  8
0
  5
72F7
 10
-63.9993
 20
298.987
 30
-6.64000e-14
  70
    32
  0
VERTEX
  8
0
  5
72F8
 10
-63.9994
 20
298.988
 30
-6.64000e-14
  70
    32
  0
VERTEX
  8
0
  5
72F9
 10
-63.9994
 20
298.989
 30
-6.64000e-14
  70
    32
  0
VERTEX
  8
0
  5
72FA
 10
-63.9995
 20
298.990
 30
-6.64000e-14
  70
    32
  0
VERTEX
  8
0
  5
72FB
 10
-63.9995
 20
298.990
 30
-6.64000e-14
  70
    32
  0
VERTEX
  8
0
  5
72FC
 10
-63.9995
 20
298.991
 30
-6.64000e-14
  70
    32
  0
VERTEX
  8
0
  5
72FD
 10
-63.9996
 20
298.992
 30
-6.64000e-14
  70
    32
  0
VERTEX
  8
0
  5
72FE
 10
-63.9996
 20
298.992
 30
-6.64000e-14
  70
    32
  0
VERTEX
  8
0
  5
72FF
 10
-63.9996
 20
298.993
 30
-6.64000e-14
  70
    32
  0
VERTEX
  8
0
  5
7300
 10
-63.9997
 20
298.994
 30
-6.64000e-14
  70
    32
  0
VERTEX
  8
0
  5
7301
 10
-63.9997
 20
298.994
 30
-6.64000e-14
  70
    32
  0
VERTEX
  8
0
  5
7302
 10
-63.9997
 20
298.995
 30
-6.64000e-14
  70
    32
  0
VERTEX
  8
0
  5
7303
 10
-63.9997
 20
298.995
 30
-6.64000e-14
  70
    32
  0
VERTEX
  8
0
  5
7304
 10
-63.9998
 20
298.996
 30
-6.64000e-14
  70
    32
  0
VERTEX
  8
0
  5
7305
 10
-63.9998
 20
298.996
 30
-6.64000e-14
  70
    32
  0
VERTEX
  8
0
  5
7306
 10
-63.9998
 20
298.997
 30
-6.64000e-14
  70
    32
  0
VERTEX
  8
0
  5
7307
 10
-63.9998
 20
298.997
 30
-6.64000e-14
  70
    32
  0
VERTEX
  8
0
  5
7308
 10
-63.9999
 20
298.997
 30
-6.64000e-14
  70
    32
  0
VERTEX
  8
0
  5
7309
 10
-63.9999
 20
298.998
 30
-6.64000e-14
  70
    32
  0
VERTEX
  8
0
  5
730A
 10
-63.9999
 20
298.998
 30
-6.64000e-14
  70
    32
  0
VERTEX
  8
0
  5
730B
 10
-63.9999
 20
298.998
 30
-6.64000e-14
  70
    32
  0
VERTEX
  8
0
  5
730C
 10
-63.9999
 20
298.999
 30
-6.64000e-14
  70
    32
  0
VERTEX
  8
0
  5
730D
 10
-63.9999
 20
298.999
 30
-6.64000e-14
  70
    32
  0
VERTEX
  8
0
  5
730E
 10
-64.0000
 20
298.999
 30
-6.64000e-14
  70
    32
  0
VERTEX
  8
0
  5
730F
 10
-64.0000
 20
298.999
 30
-6.64000e-14
  70
    32
  0
VERTEX
  8
0
  5
7310
 10
-64.0000
 20
299.000
 30
-6.64000e-14
  70
    32
  0
VERTEX
  8
0
  5
7311
 10
-64.0000
 20
299.000
 30
-6.64000e-14
  70
    32
  0
VERTEX
  8
0
  5
7312
 10
-64.0000
 20
299.000
 30
-6.64000e-14
  70
    32
  0
VERTEX
  8
0
  5
7313
 10
-64.0000
 20
299.000
 30
-6.64000e-14
  70
    32
  0
VERTEX
  8
0
  5
7314
 10
-64.0000
 20
299.000
 30
-6.64000e-14
  70
    32
  0
VERTEX
  8
0
  5
7315
 10
-64.0000
 20
299.000
 30
-6.64000e-14
  70
    32
  0
VERTEX
  8
0
  5
7316
 10
-64.0000
 20
299.000
 30
-6.64000e-14
  70
    32
  0
SEQEND
  8
0
  5
7317
  0
LINE
  5
6A01
  8
0
  6
VERDECKT2
 62
     1
 10
-64.0
 20
292.2999999999980218
 30
-0.0000000000000649
 11
-66.4999999999997726
 21
292.2999999999980218
 31
-0.0000000000000649
210
0.0
220
1.0
230
-0.0000000000000002
  0
LINE
  5
6A02
  8
0
  6
VERDECKT2
 62
     1
 10
-64.0
 20
298.9999999999981242
 30
-0.0000000000000664
 11
-66.4999999999997726
 21
298.9999999999981242
 31
-0.0000000000000664
210
0.0
220
1.0
230
-0.0000000000000002
  0
LINE
  5
6A03
  8
0
  6
VERDECKT2
 62
     1
 10
64.0000000000004547
 20
307.9999999999973284
 30
-0.0000000000000684
 11
64.0000000000004547
 21
139.9999999999974989
 31
-0.0000000000000311
210
0.0
220
1.0
230
-0.0000000000000002
  0
LINE
  5
6A04
  8
0
  6
VERDECKT2
 62
     1
 10
-64.0
 20
307.9999999999973284
 30
-0.0000000000000684
 11
-64.0
 21
298.9999999999981242
 31
-0.0000000000000664
210
0.0
220
1.0
230
-0.0000000000000002
  0
LINE
  5
6A05
  8
0
  6
VERDECKT2
 62
     1
 10
-64.0
 20
292.2999999999980218
 30
-0.0000000000000649
 11
-64.0
 21
139.9999999999974989
 31
-0.0000000000000311
210
0.0
220
1.0
230
-0.0000000000000002
  0
LINE
  5
6A06
  8
0
  6
VERDECKT2
 62
     1
 10
66.5000000000002274
 20
236.2107412439384859
 30
-0.0000000000000524
 11
66.5000000000002274
 21
229.9989384205071019
 31
-0.0000000000000511
210
0.0
220
1.0
230
-0.0000000000000002
  0
LINE
  5
6A07
  8
0
  6
VERDECKT2
 62
     1
 10
-66.4999999999997726
 20
236.2107412439384859
 30
-0.0000000000000524
 11
-66.4999999999997726
 21
229.9989384205071019
 31
-0.0000000000000511
210
0.0
220
1.0
230
-0.0000000000000002
  0
LINE
  5
6A08
  8
0
  6
VERDECKT2
 62
     1
 10
36.5000000000002274
 20
307.9999999999988063
 30
-0.0000000000000684
 11
36.5000000000002274
 21
139.9999999999967883
 31
-0.0000000000000311
210
0.0
220
1.0
230
-0.0000000000000002
  0
LINE
  5
6A09
  8
0
  6
VERDECKT2
 62
     1
 10
-36.4999999999997726
 20
307.9999999999988063
 30
-0.0000000000000684
 11
-36.4999999999997726
 21
139.9999999999967883
 31
-0.0000000000000311
210
0.0
220
1.0
230
-0.0000000000000002
  0
LINE
  5
6A0A
  8
0
  6
VERDECKT2
 62
     1
 10
64.0000000000002274
 20
307.9999999999988063
 30
-0.0000000000000684
 11
64.0000000000002274
 21
139.9999999999967883
 31
-0.0000000000000311
210
0.0
220
1.0
230
-0.0000000000000002
  0
LINE
  5
6A0B
  8
0
  6
VERDECKT2
 62
     1
 10
-63.9999999999997726
 20
307.9999999999988063
 30
-0.0000000000000684
 11
-63.9999999999997726
 21
139.9999999999967883
 31
-0.0000000000000311
210
0.0
220
1.0
230
-0.0000000000000002
  0
LINE
  5
6A0C
  8
0
  6
VERDECKT2
 62
     1
 10
-64.0608243782118052
 20
290.7071067781753868
 30
-0.0000000000000645
 11
-64.0608243782118052
 21
300.2928932158026214
 31
-0.0000000000000667
210
0.0
220
1.0
230
-0.0000000000000002
  0
LINE
  5
6A0D
  8
0
  6
VERDECKT2
 62
     1
 10
-63.0608243782115707
 20
290.7071067781752731
 30
-0.0000000000000645
 11
-63.0608243782115707
 21
300.2928932158026782
 31
-0.0000000000000667
210
0.0
220
1.0
230
-0.0000000000000002
  0
LINE
  5
6A0E
  8
0
  6
VERDECKT2
 62
     1
 10
-66.4766876429837339
 20
298.4999999969890041
 30
-0.0000000000000663
 11
-64.0608243782116915
 21
298.4999999969890041
 31
-0.0000000000000663
210
0.0
220
1.0
230
-0.0000000000000002
  0
LINE
  5
6A0F
  8
0
  6
VERDECKT2
 62
     1
 10
-66.4902248456037341
 20
292.4999999969890041
 30
-0.0000000000000649
 11
-64.0608243782116915
 21
292.4999999969890041
 31
-0.0000000000000649
210
0.0
220
1.0
230
-0.0000000000000002
  0
ARC
  5
6A10
  8
0
  6
VERDECKT2
 62
     1
 10
63.5608243782116773
 20
290.7071067781752731
 30
0.0
 40
0.5000000000000995
210
0.0
220
-0.0000000000000002
230
-1.0
 50
180.0
 51
0.0
  0
ARC
  5
6A11
  8
0
  6
VERDECKT2
 62
     1
 10
63.5608243782116773
 20
300.2928932158026782
 30
0.0
 40
0.5000000000001279
210
0.0
220
-0.0000000000000002
230
-1.0
 50
359.9999999999935199
 51
179.9999999999934914
  0
LINE
  5
6A12
  8
0
  6
VERDECKT2
 62
     1
 10
37.0000000000000071
 20
312.0
 30
-0.0000000000000693
 11
37.0000000000000071
 21
307.9999999999973284
 31
-0.0000000000000684
210
0.0
220
1.0
230
-0.0000000000000002
  0
LINE
  5
6A13
  8
0
  6
VERDECKT2
 62
     1
 10
-36.9999999999999929
 20
312.0
 30
-0.0000000000000693
 11
-36.9999999999999929
 21
307.9999999999973284
 31
-0.0000000000000684
210
0.0
220
1.0
230
-0.0000000000000002
  0
LINE
  5
6A14
  8
0
  6
VERDECKT2
 62
     1
 10
34.2138188499329772
 20
0.1394491883962701
 30
0.0
 11
-34.2138188499329772
 21
0.1394491883962701
 31
0.0
210
0.0
220
1.0
230
-0.0000000000000002
  0
LINE
  5
6A15
  8
0
  6
VERDECKT2
 62
     1
 10
38.31481189926604
 20
1059.324868965944006
 30
-0.0000000000002352
 11
-38.31481189926604
 21
1059.324868965944006
 31
-0.0000000000002352
210
0.0
220
1.0
230
-0.0000000000000002
  0
LINE
  5
6A16
  8
0
  6
VERDECKT2
 62
     1
 10
-34.2138188499329772
 20
0.1394491883962701
 30
0.0
 11
-34.9000000000005528
 21
7.982535622836509
 31
-0.0000000000000018
210
0.0
220
1.0
230
-0.0000000000000002
  0
LINE
  5
6A17
  8
0
  6
VERDECKT2
 62
     1
 10
34.2138188499329772
 20
0.1394491883962701
 30
0.0
 11
34.9000000000005528
 21
7.982535622836509
 31
-0.0000000000000018
210
0.0
220
1.0
230
-0.0000000000000002
  0
LINE
  5
6A18
  8
0
  6
VERDECKT2
 62
     1
 10
34.2138188499329701
 20
0.1394491883962137
 30
0.0
 11
35.8077303668796887
 21
-0.0000000000000564
 31
0.0
210
0.0
220
1.0
230
-0.0000000000000002
  0
LINE
  5
6A19
  8
0
  6
VERDECKT2
 62
     1
 10
-34.2138188499329701
 20
0.1394491883962137
 30
0.0
 11
-35.8077303668796887
 21
-0.0000000000000564
 31
0.0
210
0.0
220
1.0
230
-0.0000000000000002
  0
LINE
  5
6A1A
  8
0
  6
VERDECKT2
 62
     1
 10
-38.31481189926604
 20
1059.324868965944006
 30
-0.0000000000002352
 11
-39.7653973282756397
 21
1060.0
 31
-0.0000000000002354
210
0.0
220
1.0
230
-0.0000000000000002
  0
LINE
  5
6A1B
  8
0
  6
VERDECKT2
 62
     1
 10
38.31481189926604
 20
1059.324868965944006
 30
-0.0000000000002352
 11
39.7653973282756397
 21
1060.0
 31
-0.0000000000002354
210
0.0
220
1.0
230
-0.0000000000000002
  0
ARC
  5
6A1C
  8
0
  6
VERDECKT2
 62
     1
 10
-17.0999999999973014
 20
1049.4510775928820294
 30
0.0
 40
23.4000000000025317
210
0.0
220
-0.0000000000000002
230
-1.0
 50
155.0418036876891961
 51
179.9999999999988916
  0
ARC
  5
6A1D
  8
0
  6
VERDECKT2
 62
     1
 10
17.0999999999973014
 20
1049.4510775928820294
 30
0.0
 40
23.4000000000024713
210
0.0
220
-0.0000000000000002
230
-1.0
 50
0.0000000000011196
 51
24.9581963123108395
  0
LINE
  5
6A1E
  8
0
  6
VERDECKT2
 62
     1
 10
-40.4999999999999929
 20
1040.4360589658911067
 30
-0.000000000000231
 11
-40.4999999999999929
 21
1049.4510775928820294
 31
-0.000000000000233
210
0.0
220
1.0
230
-0.0000000000000002
  0
LINE
  5
6A1F
  8
0
  6
VERDECKT2
 62
     1
 10
40.4999999999999929
 20
1040.4360589658911067
 30
-0.000000000000231
 11
40.4999999999999929
 21
1049.4510775928820294
 31
-0.000000000000233
210
0.0
220
1.0
230
-0.0000000000000002
  0
ARC
  5
6A20
  8
0
  6
VERDECKT2
 62
     1
 10
-17.1000000000007617
 20
1040.3700000000010277
 30
0.0
 40
23.4000932431248891
210
0.0
220
-0.0000000000000002
230
-1.0
 50
179.8382525688051885
 51
201.1831543930362045
  0
ARC
  5
6A21
  8
0
  6
VERDECKT2
 62
     1
 10
17.1000000000007617
 20
1040.3700000000010277
 30
0.0
 40
23.4000932431248785
210
0.0
220
-0.0000000000000002
230
-1.0
 50
338.8168456069636818
 51
0.1617474311947595
  0
ARC
  5
6A22
  8
0
  6
VERDECKT2
 62
     1
 10
-51.599999999995859
 20
1027.0000000000020464
 30
0.0
 40
13.5999999999958607
210
0.0
220
-0.0000000000000002
230
-1.0
 50
359.9999999999952252
 51
21.1831543930369186
  0
ARC
  5
6A23
  8
0
  6
VERDECKT2
 62
     1
 10
51.5999999999957666
 20
1027.0000000000020464
 30
0.0
 40
13.5999999999957293
210
0.0
220
-0.0000000000000002
230
-1.0
 50
158.8168456069639092
 51
180.0000000000036948
  0
LINE
  5
6A24
  8
0
  6
VERDECKT2
 62
     1
 10
-38.0
 20
1010.3887264174179563
 30
-0.0000000000002244
 11
-38.0
 21
1027.0000000000009095
 31
-0.000000000000228
210
0.0
220
1.0
230
-0.0000000000000002
  0
LINE
  5
6A25
  8
0
  6
VERDECKT2
 62
     1
 10
38.0
 20
1010.3887264174179563
 30
-0.0000000000002244
 11
38.0
 21
1027.0000000000009095
 31
-0.000000000000228
210
0.0
220
1.0
230
-0.0000000000000002
  0
ARC
  5
6A26
  8
0
  6
VERDECKT2
 62
     1
 10
-27.6000000000018417
 20
1010.3887264174170468
 30
0.0
 40
10.3999999999981494
210
0.0
220
-0.0000000000000002
230
-1.0
 50
179.9999999999955946
 51
212.328064122163596
  0
ARC
  5
6A27
  8
0
  6
VERDECKT2
 62
     1
 10
27.6000000000018417
 20
1010.3887264174170468
 30
0.0
 40
10.3999999999981494
210
0.0
220
-0.0000000000000002
230
-1.0
 50
327.671935877836404
 51
0.0000000000044019
  0
ARC
  5
6A28
  8
0
  6
VERDECKT2
 62
     1
 10
-44.4999999999978115
 20
999.6934003354333527
 30
0.0
 40
9.5999999999977206
210
0.0
220
-0.0000000000000002
230
-1.0
 50
359.9999999999959073
 51
32.3280641221659408
  0
ARC
  5
6A29
  8
0
  6
VERDECKT2
 62
     1
 10
44.4999999999977121
 20
999.6934003354333527
 30
0.0
 40
9.5999999999976282
210
0.0
220
-0.0000000000000002
230
-1.0
 50
147.6719358778337039
 51
180.0000000000040075
  0
LINE
  5
6A2A
  8
0
  6
VERDECKT2
 62
     1
 10
-36.5000000000002274
 20
139.9999999999967883
 30
-0.0000000000000311
 11
-36.5000000000002274
 21
312.0
 31
-0.0000000000000693
210
0.0
220
1.0
230
-0.0000000000000002
  0
LINE
  5
6A2B
  8
0
  6
VERDECKT2
 62
     1
 10
36.5000000000002274
 20
139.9999999999967883
 30
-0.0000000000000311
 11
36.5000000000002274
 21
312.0
 31
-0.0000000000000693
210
0.0
220
1.0
230
-0.0000000000000002
  0
LINE
  5
6A2C
  8
0
  6
VERDECKT2
 62
     1
 10
-34.9000000000003183
 20
7.982535622836509
 30
-0.0000000000000018
 11
-34.9000000000003183
 21
999.6934003354325569
 31
-0.000000000000222
210
0.0
220
1.0
230
-0.0000000000000002
  0
LINE
  5
6A2D
  8
0
  6
VERDECKT2
 62
     1
 10
34.9000000000003183
 20
7.982535622836509
 30
-0.0000000000000018
 11
34.9000000000003183
 21
999.6934003354325569
 31
-0.000000000000222
210
0.0
220
1.0
230
-0.0000000000000002
  0
ENDBLK
  5
6A2F
  8
0
  0
ENDSEC
  0
SECTION
  2
ENTITIES
  0
INSERT
  5
573
  8
ADSK_ASSOC_ENTITY_BACKUPS
  2
*S0
 10
0.0
 20
0.0
 30
0.0
  0
INSERT
  5
69B6
  8
INDEX2
  2
A$C394D0680
 10
413.0796436111386924
 20
-16.2948448955733483
 30
0.0
  0
INSERT
  5
6A30
  8
INDEX2
  2
A$C10F5356A
 10
413.0796436111386924
 20
265.2402331558898254
 30
0.0
  0
VIEWPORT
  5
BCC
 67
     1
  8
0
 10
343.3155202184598238
 20
193.0048669616286929
 30
0.0
 40
2667.8088513264988251
 41
1407.9146067000490348
 68
     1
 69
     1
1001
ACAD
1000
MVIEW
1002
{
1070
    16
1010
0.0
1020
0.0
1030
0.0
1010
0.0
1020
0.0
1030
1.0
1040
0.0
1040
1407.9146067000490348
1040
343.3155202184598238
1040
193.0048669616286929
1040
50.0
1040
0.0
1040
0.0
1070
     0
1070
  1500
1070
     1
1070
     1
1070
     0
1070
     0
1070
     0
1070
     0
1040
0.0
1040
0.0
1040
0.0
1040
10.0
1040
10.0
1040
10.0
1040
10.0
1070
     0
1002
{
1002
}
1002
}
  0
ENDSEC
  0
EOF
