  0
SECTION
  2
HEADER
  9
$ACADVER
  1
AC1009
  9
$INSBASE
 10
509.9391017861535147
 20
-118.0350180316795985
 30
403.1361558984037856
  9
$EXTMIN
 10
-250.5260188111674893
 20
-142.000000000000199
 30
-56.2332557416273104
  9
$EXTMAX
 10
250.0000000000003126
 20
201.0
 30
0.0000000000000555
  9
$LIMMIN
 10
0.0
 20
0.000000000000008
  9
$LIMMAX
 10
594.0
 20
840.0
  9
$ORTHOMODE
 70
     0
  9
$REGENMODE
 70
     1
  9
$FILLMODE
 70
     1
  9
$QTEXTMODE
 70
     0
  9
$MIRRTEXT
 70
     1
  9
$DRAGMODE
 70
     2
  9
$LTSCALE
 40
20.0
  9
$OSMODE
 70
   247
  9
$ATTMODE
 70
     1
  9
$TEXTSIZE
 40
2.0
  9
$TRACEWID
 40
1.0
  9
$TEXTSTYLE
  7
STANDARD
  9
$CLAYER
  8
0
  9
$CELTYPE
  6
BYLAYER
  9
$CECOLOR
 62
   256
  9
$DIMSCALE
 40
2.0
  9
$DIMASZ
 40
3.5
  9
$DIMEXO
 40
1.0
  9
$DIMDLI
 40
7.0
  9
$DIMRND
 40
0.0
  9
$DIMDLE
 40
0.0
  9
$DIMEXE
 40
1.0
  9
$DIMTP
 40
0.0
  9
$DIMTM
 40
0.0
  9
$DIMTXT
 40
3.5
  9
$DIMCEN
 40
1.5
  9
$DIMTSZ
 40
0.0
  9
$DIMTOL
 70
     0
  9
$DIMLIM
 70
     0
  9
$DIMTIH
 70
     0
  9
$DIMTOH
 70
     0
  9
$DIMSE1
 70
     0
  9
$DIMSE2
 70
     0
  9
$DIMTAD
 70
     1
  9
$DIMZIN
 70
     8
  9
$DIMBLK
  1

  9
$DIMASO
 70
     1
  9
$DIMSHO
 70
     0
  9
$DIMPOST
  1

  9
$DIMAPOST
  1

  9
$DIMALT
 70
     0
  9
$DIMALTD
 70
     2
  9
$DIMALTF
 40
25.3999999999999986
  9
$DIMLFAC
 40
1.0
  9
$DIMTOFL
 70
     1
  9
$DIMTVP
 40
0.0
  9
$DIMTIX
 70
     0
  9
$DIMSOXD
 70
     0
  9
$DIMSAH
 70
     0
  9
$DIMBLK1
  1

  9
$DIMBLK2
  1

  9
$DIMSTYLE
  2
STANDARD
  9
$DIMCLRD
 70
     0
  9
$DIMCLRE
 70
     0
  9
$DIMCLRT
 70
     1
  9
$DIMTFAC
 40
0.5142857142857143
  9
$DIMGAP
 40
1.5
  9
$LUNITS
 70
     2
  9
$LUPREC
 70
     2
  9
$SKETCHINC
 40
1.0
  9
$FILLETRAD
 40
6.5
  9
$AUNITS
 70
     0
  9
$AUPREC
 70
     0
  9
$MENU
  1
ACAD
  9
$ELEVATION
 40
0.0
  9
$PELEVATION
 40
0.0
  9
$THICKNESS
 40
0.0
  9
$LIMCHECK
 70
     0
  9
$BLIPMODE
 70
     0
  9
$CHAMFERA
 40
0.0
  9
$CHAMFERB
 40
0.0
  9
$SKPOLY
 70
     0
  9
$TDCREATE
 40
2455397.867048610933125
  9
$TDUPDATE
 40
2460390.5740046300925314
  9
$TDINDWG
 40
1.5686758912000001
  9
$TDUSRTIMER
 40
1.5686758912000001
  9
$USRTIMER
 70
     1
  9
$ANGBASE
 50
0.0
  9
$ANGDIR
 70
     0
  9
$PDMODE
 70
     0
  9
$PDSIZE
 40
0.0
  9
$PLINEWID
 40
0.0
  9
$COORDS
 70
     1
  9
$SPLFRAME
 70
     0
  9
$SPLINETYPE
 70
     6
  9
$SPLINESEGS
 70
     8
  9
$ATTDIA
 70
     1
  9
$ATTREQ
 70
     1
  9
$HANDLING
 70
     1
  9
$HANDSEED
  5
37B06
  9
$SURFTAB1
 70
     6
  9
$SURFTAB2
 70
     6
  9
$SURFTYPE
 70
     6
  9
$SURFU
 70
     6
  9
$SURFV
 70
     6
  9
$UCSNAME
  2

  9
$UCSORG
 10
0.0
 20
0.0
 30
0.0
  9
$UCSXDIR
 10
1.0
 20
0.0
 30
0.0
  9
$UCSYDIR
 10
0.0
 20
1.0
 30
0.0
  9
$PUCSNAME
  2

  9
$PUCSORG
 10
0.0
 20
0.0
 30
0.0
  9
$PUCSXDIR
 10
1.0
 20
0.0
 30
0.0
  9
$PUCSYDIR
 10
0.0
 20
1.0
 30
0.0
  9
$USERI1
 70
     0
  9
$USERI2
 70
     0
  9
$USERI3
 70
     0
  9
$USERI4
 70
     0
  9
$USERI5
 70
     0
  9
$USERR1
 40
0.0
  9
$USERR2
 40
0.0
  9
$USERR3
 40
0.0
  9
$USERR4
 40
0.0
  9
$USERR5
 40
0.0
  9
$WORLDVIEW
 70
     1
  9
$SHADEDGE
 70
     3
  9
$SHADEDIF
 70
    70
  9
$TILEMODE
 70
     1
  9
$MAXACTVP
 70
    16
  9
$PLIMCHECK
 70
     0
  9
$PEXTMIN
 10
1.0000000000000000E+20
 20
1.0000000000000000E+20
 30
1.0000000000000000E+20
  9
$PEXTMAX
 10
-1.0000000000000000E+20
 20
-1.0000000000000000E+20
 30
-1.0000000000000000E+20
  9
$PLIMMIN
 10
-0.2499999999999409
 20
-296.7447509765625
  9
$PLIMMAX
 10
419.75
 20
0.2552490234375
  9
$UNITMODE
 70
     0
  9
$VISRETAIN
 70
     0
  9
$PLINEGEN
 70
     0
  9
$PSLTSCALE
 70
     0
  0
ENDSEC
  0
SECTION
  2
TABLES
  0
TABLE
  2
VPORT
 70
     1
  0
VPORT
  2
*ACTIVE
 70
     0
 10
0.0
 20
0.0
 11
1.0
 21
1.0
 12
160.8457641478391906
 22
-57.8952879886339815
 13
0.0
 23
0.0
 14
1.0
 24
1.0
 15
10.0
 25
10.0
 16
-0.0000000000003496
 26
0.0
 36
1574.6054571039849179
 17
-0.2630097645125318
 27
50.9999991330345779
 37
-28.1166278708136304
 40
599.2048600341895508
 41
1.9783393501805051
 42
49.9999999999999716
 43
0.0
 44
0.0
 50
0.0
 51
0.0
 71
     0
 72
  1500
 73
     1
 74
     0
 75
     0
 76
     0
 77
     0
 78
     0
  0
ENDTAB
  0
TABLE
  2
LTYPE
 70
    12
  0
LTYPE
  2
CONTINUOUS
 70
     0
  3
Solid line
 72
    65
 73
     0
 40
0.0
  0
LTYPE
  2
HIDDEN
 70
     0
  3
Hidden __ __ __ __ __ __ __ __ __ __ __ __ __ __
 72
    65
 73
     2
 40
0.375
 49
0.25
 49
-0.125
  0
LTYPE
  2
PHANTOM2
 70
     0
  3
Phantom (.5x) ___ _ _ ___ _ _ ___ _ _ ___ _ _
 72
    65
 73
     6
 40
1.25
 49
0.625
 49
-0.125
 49
0.125
 49
-0.125
 49
0.125
 49
-0.125
  0
LTYPE
  2
CENTER
 70
     0
  3
Center ____ _ ____ _ ____ _ ____ _ ____ _ ____
 72
    65
 73
     4
 40
2.0
 49
1.25
 49
-0.25
 49
0.25
 49
-0.25
  0
LTYPE
  2
AMCONSTR
 70
     0
  3
_______________________
 72
    65
 73
     2
 40
9999.0
 49
9999.0
 49
0.0
  0
LTYPE
  2
CENTER2
 70
     0
  3
Center (.5x) ___ _ ___ _ ___ _ ___ _ ___ _ ___
 72
    65
 73
     4
 40
1.125
 49
0.75
 49
-0.125
 49
0.125
 49
-0.125
  0
LTYPE
  2
HIDDEN2
 70
     0
  3
Hidden (.5x) _ _ _ _ _ _ _ _ _ _ _ _ _ _ _ _ _
 72
    65
 73
     2
 40
0.1875
 49
0.125
 49
-0.0625
  0
LTYPE
  2
AMZIGZAG2
 70
     0
  3
/\/-/\/-/\/-/\/-/\/-/\/
 72
    65
 73
     2
 40
0.4401
 49
0.0001
 49
-0.4400000000000001
  0
LTYPE
  2
ACANSTGB
 70
     0
  3
__ . . __ . .
 72
    65
 73
     6
 40
0.35433070866
 49
0.15748031496
 49
-0.03937007874
 49
0.03937007874
 49
-0.03937007874
 49
0.03937007874
 49
-0.03937007874
  0
LTYPE
  2
ACANSTGL
 70
     0
  3
_ _ _ _ _
 72
    65
 73
     2
 40
0.11811023622
 49
0.07874015748
 49
-0.03937007874
  0
LTYPE
  2
AUSGEZOGEN
 70
     0
  3
Ausgezogene Linie
 72
    65
 73
     0
 40
0.0
  0
LTYPE
  2
VERDECKT
 70
     0
  3
Verdeckt __ __ __ __ __ __ __ __ __ __ __ __ __
 72
    65
 73
     2
 40
0.375
 49
0.25
 49
-0.125
  0
ENDTAB
  0
TABLE
  2
LAYER
 70
     4
  0
LAYER
  2
0
 70
     0
 62
     7
  6
CONTINUOUS
  0
LAYER
  2
VOLL
 70
     0
 62
     1
  6
CONTINUOUS
  0
LAYER
  2
DEFPOINTS
 70
     0
 62
     7
  6
CONTINUOUS
  0
LAYER
  2
ADSK_ASSOC_ENTITY_BACKUPS
 70
     1
 62
    -7
  6
CONTINUOUS
  0
ENDTAB
  0
TABLE
  2
STYLE
 70
     5
  0
STYLE
  2
STANDARD
 70
     0
 40
0.0
 41
0.8
 50
0.0
 71
     0
 42
2.0
  3
simplex.shx
  4

  0
STYLE
  2
GREEKS
 70
     0
 40
0.0
 41
0.8
 50
0.0
 71
     0
 42
2.5
  3
SIMPLEX.shx
  4

  0
STYLE
  2

 70
     1
 40
0.0
 41
1.0
 50
0.0
 71
     0
 42
2.5
  3
genltshp.shx
  4

  0
STYLE
  2
ACANSGDT
 70
     0
 40
0.0
 41
1.0
 50
0.0
 71
     0
 42
2.5
  3
amgdt.shx
  4

  0
STYLE
  2

 70
     1
 40
0.0
 41
1.0
 50
0.0
 71
     0
 42
2.0
  3
ltypeshp.shx
  4

  0
ENDTAB
  0
TABLE
  2
VIEW
 70
     5
  0
ENDTAB
  0
TABLE
  2
UCS
 70
     0
  0
ENDTAB
  0
TABLE
  2
APPID
 70
    48
  0
APPID
  2
ACAD
 70
     0
  0
APPID
  2
ACAD_NAV_VCDISPLAY
 70
     0
  0
APPID
  2
GRADIENTCOLOR1ACI
 70
     0
  0
APPID
  2
GRADIENTCOLOR2ACI
 70
     0
  0
APPID
  2
ACAD_DSTYLE_DIMRADIAL_EXTENSION
 70
     0
  0
APPID
  2
ACADANNOMONITORALERTICONDI
 70
     0
  0
APPID
  2
ACAD_EXEMPT_FROM_CAD_STANDARDS
 70
     0
  0
APPID
  2
ACAD_MLEADERVER
 70
     0
  0
APPID
  2
ACAD_PSEXT
 70
     0
  0
APPID
  2
ACAECLAYERSTANDARD
 70
     0
  0
APPID
  2
ACCMTRANSPARENCY
 70
     0
  0
APPID
  2
ACAD_OBJECT_CHANGE_GUID
 70
     0
  0
APPID
  2
MCAD_NO_VIS
 70
     0
  0
APPID
  2
ACAD_TEMP_GRAPHIC
 70
     0
  0
APPID
  2
ACATTRIBSERVICES
 70
     0
  0
APPID
  2
DESIGNERASSEMBLIES
 70
     0
  0
APPID
  2
ACAD_DSTYLE_DIMJAG
 70
     0
  0
APPID
  2
ACAD_DSTYLE_DIMBREAK
 70
     0
  0
APPID
  2
GENIUS_GENSCREG_15
 70
     0
  0
APPID
  2
GENIUS_GENOBJ-N-SDF_13
 70
     0
  0
APPID
  2
GENIUS_GENODEF_13
 70
     0
  0
APPID
  2
ACAD_STEPID
 70
     0
  0
APPID
  2
ACAD_DSTYLE_DIMARC_LENGTH_
 70
     0
  0
APPID
  2
ACAD_DSTYLE_DIM_LINETYPE
 70
     0
  0
APPID
  2
ACAD_DSTYLE_DIM_EXT1_LINETYPE
 70
     0
  0
APPID
  2
ACAD_DSTYLE_DIM_EXT2_LINETYPE
 70
     0
  0
APPID
  2
RAK
 70
     0
  0
APPID
  2
ACADANNOPO
 70
     0
  0
APPID
  2
ACSYNERGY
 70
     0
  0
APPID
  2
SYNERGY_BODY_TBR_ID
 70
     0
  0
APPID
  2
ACAD_VIEW_EDGE_ID
 70
     0
  0
APPID
  2
ACSYNERGYSKETCH
 70
     0
  0
APPID
  2
ACAD_MODELDOC_XFORM
 70
     0
  0
APPID
  2
GENIUS_GENDTOL_13
 70
     0
  0
APPID
  2
ACAD_DSTYLE_DIMINSPECT
 70
     0
  0
APPID
  2
ACAD_DSTYLE_DIMANGULAR_EXT
 70
     0
  0
APPID
  2
PLOTTRANSPARENCY
 70
     0
  0
APPID
  2
ACAUTHENVIRON
 70
     0
  0
APPID
  2
ACDBDYNAMICBLOCKTRUENAME
 70
     0
  0
APPID
  2
ACDBDYNAMICBLOCKGUID
 70
     0
  0
APPID
  2
PE_URL
 70
     0
  0
APPID
  2
ACADANNOAV
 70
     0
  0
APPID
  2
ACAD_DSTYLE_DIMTALN
 70
     0
  0
APPID
  2
ACAD_DIMASSOC_CALC_DIMLFAC
 70
     0
  0
APPID
  2
ACAD_DIMASSOC_DIMLFAC
 70
     0
  0
APPID
  2
ACAD_DIMASSOC_OVERRIDDEN_D
 70
     0
  0
APPID
  2
ACAD_TC
 70
     0
  0
APPID
  2
ACADANNOTATIVE
 70
     0
  0
ENDTAB
  0
TABLE
  2
DIMSTYLE
 70
     8
  0
DIMSTYLE
  2
STANDARD
 70
     0
  3

  4

  5

  6

  7

 40
1.0
 41
0.18
 42
0.0625
 43
0.38
 44
0.18
 45
0.0
 46
0.0
 47
0.0
 48
0.0
140
0.18
141
0.09
142
0.0
143
25.3999999999999986
144
1.0
145
0.0
146
1.0
147
0.09
 71
     0
 72
     0
 73
     1
 74
     1
 75
     0
 76
     0
 77
     0
 78
     0
170
     0
171
     2
172
     0
173
     0
174
     0
175
     0
176
     0
177
     0
178
     0
  0
DIMSTYLE
  2
AM_ANSI
 70
     0
  3

  4
mm
  5

  6

  7

 40
1.0
 41
0.12
 42
0.05
 43
0.5
 44
0.1
 45
0.0
 46
0.0
 47
0.1
 48
0.1
140
0.12
141
0.0
142
0.0
143
25.3999999999999986
144
1.0
145
0.0
146
0.71
147
0.06
 71
     0
 72
     0
 73
     1
 74
     1
 75
     0
 76
     0
 77
     0
 78
     7
170
     0
171
     2
172
     0
173
     0
174
     0
175
     0
176
   256
177
   256
178
   255
  0
DIMSTYLE
  2
AM_ANSI$3
 70
     0
  3

  4
mm
  5

  6

  7

 40
1.0
 41
0.12
 42
0.05
 43
0.5
 44
0.1
 45
0.0
 46
0.0
 47
0.1
 48
0.1
140
0.12
141
0.0
142
0.0
143
25.3999999999999986
144
1.0
145
0.0
146
0.71
147
0.06
 71
     0
 72
     0
 73
     1
 74
     1
 75
     0
 76
     0
 77
     0
 78
     7
170
     0
171
     2
172
     0
173
     0
174
     0
175
     0
176
   256
177
   256
178
   255
  0
DIMSTYLE
  2
AM_ANSI$4
 70
     0
  3

  4
mm
  5

  6

  7

 40
1.0
 41
0.12
 42
0.05
 43
0.5
 44
0.1
 45
0.0
 46
0.0
 47
0.1
 48
0.1
140
0.12
141
0.0
142
0.0
143
25.3999999999999986
144
1.0
145
0.0
146
0.71
147
0.06
 71
     0
 72
     0
 73
     1
 74
     1
 75
     0
 76
     0
 77
     0
 78
     7
170
     0
171
     2
172
     0
173
     0
174
     0
175
     0
176
   256
177
   256
178
   255
  0
DIMSTYLE
  2
AM_ANSI$7
 70
     0
  3

  4
mm
  5

  6

  7

 40
1.0
 41
0.12
 42
0.05
 43
0.5
 44
0.1
 45
0.0
 46
0.0
 47
0.1
 48
0.1
140
0.12
141
0.0
142
0.0
143
25.3999999999999986
144
1.0
145
0.0
146
0.71
147
0.06
 71
     0
 72
     0
 73
     1
 74
     1
 75
     0
 76
     0
 77
     0
 78
     7
170
     0
171
     2
172
     0
173
     0
174
     0
175
     0
176
   256
177
   256
178
   255
  0
DIMSTYLE
  2
AM_ANSI$SF
 70
     0
  3

  4
mm
  5

  6

  7

 40
1.0
 41
0.12
 42
0.05
 43
0.5
 44
0.1
 45
0.0
 46
0.0
 47
0.1
 48
0.1
140
0.12
141
0.0
142
0.0
143
25.3999999999999986
144
1.0
145
0.0
146
0.71
147
0.06
 71
     0
 72
     0
 73
     1
 74
     1
 75
     1
 76
     1
 77
     0
 78
     7
170
     0
171
     2
172
     0
173
     0
174
     0
175
     0
176
   256
177
   256
178
   255
  0
DIMSTYLE
  2
AM_ANSI$SH
 70
     0
  3

  4
mm
  5

  6
GENAXEH
  7

 40
1.0
 41
0.12
 42
0.05
 43
0.5
 44
0.1
 45
0.0
 46
0.0
 47
0.1
 48
0.1
140
0.12
141
0.0
142
0.0
143
25.3999999999999986
144
1.0
145
0.0
146
0.71
147
0.06
 71
     0
 72
     0
 73
     1
 74
     1
 75
     1
 76
     1
 77
     0
 78
     7
170
     0
171
     2
172
     0
173
     1
174
     0
175
     0
176
   256
177
   256
178
   255
  0
DIMSTYLE
  2
AM_ANSI$0
 70
     0
  3

  4
"
  5

  6

  7

 40
1.0
 41
3.5
 42
1.0
 43
10.0
 44
1.0
 45
0.0
 46
0.0
 47
0.1
 48
0.1
140
3.5
141
0.0
142
0.0
143
0.0393701
144
1.0
145
0.0
146
0.71
147
1.5
 71
     0
 72
     0
 73
     1
 74
     1
 75
     0
 76
     0
 77
     0
 78
     8
170
     0
171
     2
172
     0
173
     0
174
     0
175
     0
176
   256
177
   256
178
     2
  0
ENDTAB
  0
ENDSEC
  0
SECTION
  2
BLOCKS
  0
BLOCK
  8
0
  2
$MODEL_SPACE
 70
     0
 10
0.0
 20
0.0
 30
0.0
  3
$MODEL_SPACE
  1

  0
ENDBLK
  5
38
  8
0
  0
BLOCK
 67
     1
  8
0
  2
$PAPER_SPACE
 70
     2
 10
0.0
 20
0.0
 30
0.0
  3
$PAPER_SPACE
  1

  0
ENDBLK
  5
36
 67
     1
  8
0
  0
BLOCK
  8
0
  2
GENAXEH
 70
     0
 10
0.0
 20
0.0
 30
0.0
  3
GENAXEH
  1

  0
LINE
  5
1721
  8
0
 10
-1.0
 20
0.0
 30
0.0
 11
1.0
 21
0.0
 31
0.0
  0
ENDBLK
  5
1723
  8
0
  0
BLOCK
  8
0
  2
*S1
 70
     1
 10
0.0
 20
0.0
 30
0.0
  3
*S1
  1

  0
ENDBLK
  5
2101
  8
0
  0
BLOCK
  8
0
  2
*U2
 70
     1
 10
0.0
 20
0.0
 30
0.0
  3
*U2
  1

  0
ENDBLK
  5
3EBB
  8
0
  0
BLOCK
  8
0
  2
A$C453C2EF5
 70
     0
 10
0.0
 20
0.0
 30
0.0
  3
A$C453C2EF5
  1

  0
CIRCLE
  5
379EC
  8
0
  6
CONTINUOUS
 62
     1
 10
99.3080604102404862
 20
-53.2901106747825892
 30
0.0000000000000511
 40
3.25
  0
CIRCLE
  5
379ED
  8
0
  6
CONTINUOUS
 62
     1
 10
-360.6919395897597269
 20
-53.2901106747825892
 30
-0.0000000000000511
 40
3.25
  0
CIRCLE
  5
379EE
  8
0
  6
CONTINUOUS
 62
     1
 10
99.3080604102404862
 20
206.7098893252174037
 30
0.0000000000000511
 40
3.25
  0
CIRCLE
  5
379EF
  8
0
  6
CONTINUOUS
 62
     1
 10
-360.6919395897597269
 20
206.7098893252174037
 30
-0.0000000000000511
 40
3.25
  0
ARC
  5
379F0
  8
0
  6
CONTINUOUS
 62
     1
 10
-372.6919395897597269
 20
218.70988932521729
 30
-0.0000000000000537
 40
8.0
 50
90.0
 51
180.0
  0
LINE
  5
379F1
  8
0
  6
CONTINUOUS
 62
     1
 10
-380.6919395897597269
 20
218.70988932521729
 30
-0.0000000000000555
 11
-380.6919395897596132
 21
-65.2901106747826248
 31
-0.0000000000000555
  0
ARC
  5
379F2
  8
0
  6
CONTINUOUS
 62
     1
 10
-372.6919395897596132
 20
-65.2901106747826248
 30
-0.0000000000000537
 40
8.0000000000000284
 50
180.0000000000003979
 51
270.0
  0
LINE
  5
379F3
  8
0
  6
CONTINUOUS
 62
     1
 10
-372.6919395897596132
 20
-73.2901106747826532
 30
-0.0000000000000537
 11
111.3080604102403015
 21
-73.2901106747826532
 31
0.0000000000000537
  0
ARC
  5
379F4
  8
0
  6
CONTINUOUS
 62
     1
 10
111.3080604102403015
 20
-65.2901106747826248
 30
0.0000000000000537
 40
8.0000000000000284
 50
270.0
 51
359.9999999999997726
  0
LINE
  5
379F5
  8
0
  6
CONTINUOUS
 62
     1
 10
119.3080604102403015
 20
-65.2901106747826532
 30
0.0000000000000555
 11
119.3080604102403015
 21
218.70988932521729
 31
0.0000000000000555
  0
ARC
  5
379F6
  8
0
  6
CONTINUOUS
 62
     1
 10
111.3080604102403015
 20
218.70988932521729
 30
0.0000000000000537
 40
8.0
 50
0.0000000000002036
 51
90.0
  0
LINE
  5
379F7
  8
0
  6
CONTINUOUS
 62
     1
 10
20.3080604102403584
 20
25.7098893252173788
 30
0.0000000000000335
 11
-281.6919395897596132
 21
25.7098893252173895
 31
-0.0000000000000335
  0
LINE
  5
379F8
  8
0
  6
CONTINUOUS
 62
     1
 10
20.3080604102403299
 20
127.7098893252174037
 30
0.0000000000000335
 11
20.3080604102403584
 21
25.7098893252173788
 31
0.0000000000000335
  0
LINE
  5
379F9
  8
0
  6
CONTINUOUS
 62
     1
 10
-281.6919395897596132
 20
127.7098893252173042
 30
-0.0000000000000335
 11
20.3080604102403584
 21
127.7098893252174037
 31
0.0000000000000335
  0
LINE
  5
379FA
  8
0
  6
CONTINUOUS
 62
     1
 10
-281.6919395897596132
 20
25.7098893252174001
 30
-0.0000000000000335
 11
-281.6919395897596132
 21
127.7098893252173042
 31
-0.0000000000000335
  0
LINE
  5
379FB
  8
0
  6
CONTINUOUS
 62
     1
 10
111.3080604102403015
 20
226.70988932521729
 30
0.0000000000000537
 11
-372.6919395897597269
 21
226.70988932521729
 31
-0.0000000000000537
  0
ENDBLK
  5
379FD
  8
0
  0
BLOCK
  8
0
  2
A$C0D6117EC
 70
     0
 10
0.0
 20
0.0
 30
0.0
  3
A$C0D6117EC
  1

  0
LINE
  5
37A02
  8
0
  6
CONTINUOUS
 62
     1
 10
-250.0
 20
0.0000000000000555
 30
-0.0000000000000013
 11
-250.0
 21
-0.9999999999999447
 31
-0.0000000000000011
210
0.0000000000000002
220
1.0
230
-0.0000000000000002
  0
LINE
  5
37A03
  8
0
  6
CONTINUOUS
 62
     1
 10
250.0
 20
-1.0000000000000551
 30
0.0000000000000016
 11
242.0
 21
-1.0000000000000531
 31
0.0000000000000033
210
0.0000000000000002
220
1.0
230
-0.0000000000000002
  0
LINE
  5
37A04
  8
0
  6
CONTINUOUS
 62
     1
 10
-242.0
 20
-0.9999999999999465
 30
-0.0000000000000029
 11
242.0
 21
-1.0000000000000531
 31
-0.0000000000000029
210
0.0000000000000002
220
1.0
230
-0.0000000000000002
  0
LINE
  5
37A05
  8
0
  6
CONTINUOUS
 62
     1
 10
-242.0
 20
-0.9999999999999465
 30
-0.0000000000000029
 11
-250.0
 21
-0.9999999999999447
 31
-0.0000000000000011
210
0.0000000000000002
220
1.0
230
-0.0000000000000002
  0
LINE
  5
37A06
  8
0
  6
CONTINUOUS
 62
     1
 10
-250.0
 20
0.0000000000000555
 30
-0.0000000000000013
 11
-242.0
 21
0.0000000000000537
 31
-0.0000000000000031
210
0.0000000000000002
220
1.0
230
-0.0000000000000002
  0
LINE
  5
37A07
  8
0
  6
CONTINUOUS
 62
     1
 10
-242.0
 20
0.0000000000000537
 30
-0.0000000000000031
 11
242.0
 21
-0.0000000000000537
 31
-0.0000000000000031
210
0.0000000000000002
220
1.0
230
-0.0000000000000002
  0
LINE
  5
37A08
  8
0
  6
CONTINUOUS
 62
     1
 10
242.0
 20
-0.0000000000000537
 30
0.0000000000000031
 11
250.0
 21
-0.0000000000000555
 31
0.0000000000000013
210
0.0000000000000002
220
1.0
230
-0.0000000000000002
  0
LINE
  5
37A09
  8
0
  6
CONTINUOUS
 62
     1
 10
250.0
 20
-1.0000000000000551
 30
0.0000000000000016
 11
250.0
 21
-0.0000000000000555
 31
0.0000000000000013
210
0.0000000000000002
220
1.0
230
-0.0000000000000002
  0
LINE
  5
37A0A
  8
0
  6
VERDECKT
 62
     3
 10
-151.0
 20
-0.9999999999999666
 30
0.0000000000000002
 11
-151.0
 21
0.0000000000000335
 31
0.0
210
0.0000000000000002
220
1.0
230
-0.0000000000000002
  0
LINE
  5
37A0B
  8
0
  6
VERDECKT
 62
     3
 10
150.9999999999998863
 20
-1.0000000000000331
 30
0.0000000000000002
 11
150.9999999999998863
 21
-0.0000000000000335
 31
0.0
210
0.0000000000000002
220
1.0
230
-0.0000000000000002
  0
LINE
  5
37A0C
  8
0
  6
VERDECKT
 62
     3
 10
226.7500000000001137
 20
-1.00000000000005
 30
0.0000000000000067
 11
226.7500000000001137
 21
-0.0000000000000503
 31
0.0000000000000065
210
0.0000000000000002
220
1.0
230
-0.0000000000000002
  0
LINE
  5
37A0D
  8
0
  6
VERDECKT
 62
     3
 10
233.2500000000001137
 20
-1.0000000000000511
 30
0.0000000000000053
 11
233.2500000000001137
 21
-0.0000000000000518
 31
0.0000000000000051
210
0.0000000000000002
220
1.0
230
-0.0000000000000002
  0
LINE
  5
37A0E
  8
0
  6
VERDECKT
 62
     3
 10
-226.7500000000001137
 20
0.0000000000000503
 30
-0.0000000000000065
 11
-226.7500000000001137
 21
-0.9999999999999499
 31
-0.0000000000000063
210
0.0000000000000002
220
1.0
230
-0.0000000000000002
  0
LINE
  5
37A0F
  8
0
  6
VERDECKT
 62
     3
 10
-233.2500000000001137
 20
0.0000000000000518
 30
-0.0000000000000051
 11
-233.2500000000001137
 21
-0.9999999999999483
 31
-0.0000000000000048
210
0.0000000000000002
220
1.0
230
-0.0000000000000002
  0
ENDBLK
  5
37A11
  8
0
  0
ENDSEC
  0
SECTION
  2
ENTITIES
  0
TEXT
  5
5DDE
  8
VOLL
 10
78.076754716981128
 20
31.025947764705851
 30
0.0
 40
1.8
  1

  7
GREEKS
  0
INSERT
  5
5DDF
  8
ADSK_ASSOC_ENTITY_BACKUPS
  2
*S1
 10
0.0
 20
0.0
 30
0.0
  0
INSERT
  5
379FE
  8
0
  2
A$C453C2EF5
 10
130.6919395897596132
 20
-25.7098893252173788
 30
0.0
  0
INSERT
  5
37A12
  8
0
  2
A$C0D6117EC
 10
0.0000000000002984
 20
-141.0000000000001137
 30
-0.0000000000000613
  0
VIEWPORT
  5
1571
 67
     1
  8
0
 10
209.7500000000001137
 20
-148.2447509765623863
 30
0.0
 40
590.7456875644953698
 41
298.6068530207394929
 68
     1
 69
     1
1001
ACAD
1000
MVIEW
1002
{
1070
    16
1010
0.0
1020
0.0
1030
0.0
1010
0.0
1020
0.0
1030
1.0
1040
0.0
1040
298.6068530207394929
1040
209.7500000000001137
1040
-148.2447509765623863
1040
50.0
1040
0.0
1040
0.0
1070
     0
1070
  1500
1070
     1
1070
     1
1070
     0
1070
     0
1070
     0
1070
     0
1040
0.0
1040
0.0
1040
0.0
1040
10.0
1040
10.0
1040
10.0
1040
10.0
1070
     0
1002
{
1002
}
1002
}
1001
GENIUS_GENOBJ-N-SDF_13
1002
{
1000
OWNER
1000
GEN
1002
}
1001
GENIUS_GENODEF_13
1002
{
1000
HIER
1070
     0
1002
}
1002
{
1000
MANEDIT
1070
     0
1002
}
1002
{
1000
NOSEL
1070
     0
1002
}
1002
{
1000
BEHIND
1070
     0
1002
}
1002
{
1000
OTHER
1070
     0
1002
}
1002
{
1000
REACTOR
1002
}
1001
GENIUS_GENSCREG_15
1000
PF
1040
1.0
1000
DF
1040
1.0
1000
MIN
1011
-98.3237311841076007
1021
0.0
1031
0.0
1021
-84.5929851452383446
1031
0.0
1000
MAX
1011
756.7695330154733711
1021
0.0
1031
0.0
1021
339.8977580961391141
1031
0.0
1000
FLAGS
1070
     4
  0
ENDSEC
  0
EOF
