  0
SECTION
  2
HEADER
  9
$ACADVER
  1
AC1009
  9
$INSBASE
 10
509.9391017861535147
 20
-118.0350180316795985
 30
403.1361558984037856
  9
$EXTMIN
 10
-175.0
 20
-142.0
 30
-0.0000000000000389
  9
$EXTMAX
 10
175.0
 20
151.0
 30
0.0000000000000389
  9
$LIMMIN
 10
0.0
 20
0.000000000000008
  9
$LIMMAX
 10
594.0
 20
840.0
  9
$ORTHOMODE
 70
     0
  9
$REGENMODE
 70
     1
  9
$FILLMODE
 70
     1
  9
$QTEXTMODE
 70
     0
  9
$MIRRTEXT
 70
     1
  9
$DRAGMODE
 70
     2
  9
$LTSCALE
 40
20.0
  9
$OSMODE
 70
   247
  9
$ATTMODE
 70
     1
  9
$TEXTSIZE
 40
2.0
  9
$TRACEWID
 40
1.0
  9
$TEXTSTYLE
  7
STANDARD
  9
$CLAYER
  8
0
  9
$CELTYPE
  6
BYLAYER
  9
$CECOLOR
 62
   256
  9
$DIMSCALE
 40
2.0
  9
$DIMASZ
 40
3.5
  9
$DIMEXO
 40
1.0
  9
$DIMDLI
 40
7.0
  9
$DIMRND
 40
0.0
  9
$DIMDLE
 40
0.0
  9
$DIMEXE
 40
1.0
  9
$DIMTP
 40
0.0
  9
$DIMTM
 40
0.0
  9
$DIMTXT
 40
3.5
  9
$DIMCEN
 40
1.5
  9
$DIMTSZ
 40
0.0
  9
$DIMTOL
 70
     0
  9
$DIMLIM
 70
     0
  9
$DIMTIH
 70
     0
  9
$DIMTOH
 70
     0
  9
$DIMSE1
 70
     0
  9
$DIMSE2
 70
     0
  9
$DIMTAD
 70
     1
  9
$DIMZIN
 70
     8
  9
$DIMBLK
  1

  9
$DIMASO
 70
     1
  9
$DIMSHO
 70
     0
  9
$DIMPOST
  1

  9
$DIMAPOST
  1

  9
$DIMALT
 70
     0
  9
$DIMALTD
 70
     2
  9
$DIMALTF
 40
25.3999999999999986
  9
$DIMLFAC
 40
1.0
  9
$DIMTOFL
 70
     1
  9
$DIMTVP
 40
0.0
  9
$DIMTIX
 70
     0
  9
$DIMSOXD
 70
     0
  9
$DIMSAH
 70
     0
  9
$DIMBLK1
  1

  9
$DIMBLK2
  1

  9
$DIMSTYLE
  2
STANDARD
  9
$DIMCLRD
 70
     0
  9
$DIMCLRE
 70
     0
  9
$DIMCLRT
 70
     1
  9
$DIMTFAC
 40
0.5142857142857143
  9
$DIMGAP
 40
1.5
  9
$LUNITS
 70
     2
  9
$LUPREC
 70
     2
  9
$SKETCHINC
 40
1.0
  9
$FILLETRAD
 40
6.5
  9
$AUNITS
 70
     0
  9
$AUPREC
 70
     0
  9
$MENU
  1
ACAD
  9
$ELEVATION
 40
0.0
  9
$PELEVATION
 40
0.0
  9
$THICKNESS
 40
0.0
  9
$LIMCHECK
 70
     0
  9
$BLIPMODE
 70
     0
  9
$CHAMFERA
 40
0.0
  9
$CHAMFERB
 40
0.0
  9
$SKPOLY
 70
     0
  9
$TDCREATE
 40
2455397.867048610933125
  9
$TDUPDATE
 40
2460390.5688425931148231
  9
$TDINDWG
 40
1.5562569097000001
  9
$TDUSRTIMER
 40
1.5562569097000001
  9
$USRTIMER
 70
     1
  9
$ANGBASE
 50
0.0
  9
$ANGDIR
 70
     0
  9
$PDMODE
 70
     0
  9
$PDSIZE
 40
0.0
  9
$PLINEWID
 40
0.0
  9
$COORDS
 70
     1
  9
$SPLFRAME
 70
     0
  9
$SPLINETYPE
 70
     6
  9
$SPLINESEGS
 70
     8
  9
$ATTDIA
 70
     1
  9
$ATTREQ
 70
     1
  9
$HANDLING
 70
     1
  9
$HANDSEED
  5
3647C
  9
$SURFTAB1
 70
     6
  9
$SURFTAB2
 70
     6
  9
$SURFTYPE
 70
     6
  9
$SURFU
 70
     6
  9
$SURFV
 70
     6
  9
$UCSNAME
  2

  9
$UCSORG
 10
0.0
 20
0.0
 30
0.0
  9
$UCSXDIR
 10
1.0
 20
0.0
 30
0.0
  9
$UCSYDIR
 10
0.0
 20
1.0
 30
0.0
  9
$PUCSNAME
  2

  9
$PUCSORG
 10
0.0
 20
0.0
 30
0.0
  9
$PUCSXDIR
 10
1.0
 20
0.0
 30
0.0
  9
$PUCSYDIR
 10
0.0
 20
1.0
 30
0.0
  9
$USERI1
 70
     0
  9
$USERI2
 70
     0
  9
$USERI3
 70
     0
  9
$USERI4
 70
     0
  9
$USERI5
 70
     0
  9
$USERR1
 40
0.0
  9
$USERR2
 40
0.0
  9
$USERR3
 40
0.0
  9
$USERR4
 40
0.0
  9
$USERR5
 40
0.0
  9
$WORLDVIEW
 70
     1
  9
$SHADEDGE
 70
     3
  9
$SHADEDIF
 70
    70
  9
$TILEMODE
 70
     1
  9
$MAXACTVP
 70
    16
  9
$PLIMCHECK
 70
     0
  9
$PEXTMIN
 10
1.0000000000000000E+20
 20
1.0000000000000000E+20
 30
1.0000000000000000E+20
  9
$PEXTMAX
 10
-1.0000000000000000E+20
 20
-1.0000000000000000E+20
 30
-1.0000000000000000E+20
  9
$PLIMMIN
 10
-0.2499999999999716
 20
-296.7447509765625
  9
$PLIMMAX
 10
419.7499999999998863
 20
0.2552490234375
  9
$UNITMODE
 70
     0
  9
$VISRETAIN
 70
     0
  9
$PLINEGEN
 70
     0
  9
$PSLTSCALE
 70
     0
  0
ENDSEC
  0
SECTION
  2
TABLES
  0
TABLE
  2
VPORT
 70
     1
  0
VPORT
  2
*ACTIVE
 70
     0
 10
0.0
 20
0.0
 11
1.0
 21
1.0
 12
98.4089131815821929
 22
-41.3161288050653184
 13
0.0
 23
0.0
 14
1.0
 24
1.0
 15
10.0
 25
10.0
 16
-0.0000000000002565
 26
0.0
 36
1155.247764251477065
 17
-0.0000036346079355
 27
25.9999940039785393
 37
0.0
 40
431.6860445654951945
 41
1.9783393501805051
 42
49.9999999999999574
 43
0.0
 44
0.0
 50
0.0
 51
0.0
 71
     0
 72
  1500
 73
     1
 74
     0
 75
     0
 76
     0
 77
     0
 78
     0
  0
ENDTAB
  0
TABLE
  2
LTYPE
 70
    32
  0
LTYPE
  2
CONTINUOUS
 70
     0
  3
Solid line
 72
    65
 73
     0
 40
0.0
  0
LTYPE
  2
STRICHPUNKT
 70
     0
  3
__ . __ . __ . __ . __ . __ . __ . __ . __ . __
 72
    65
 73
     4
 40
1.0
 49
0.5
 49
-0.25
 49
0.0
 49
-0.25
  0
LTYPE
  2
HIDDEN
 70
     0
  3
Hidden __ __ __ __ __ __ __ __ __ __ __ __ __ __
 72
    65
 73
     2
 40
0.375
 49
0.25
 49
-0.125
  0
LTYPE
  2
PHANTOM2
 70
     0
  3
Phantom (.5x) ___ _ _ ___ _ _ ___ _ _ ___ _ _
 72
    65
 73
     6
 40
1.25
 49
0.625
 49
-0.125
 49
0.125
 49
-0.125
 49
0.125
 49
-0.125
  0
LTYPE
  2
CENTER
 70
     0
  3
Center ____ _ ____ _ ____ _ ____ _ ____ _ ____
 72
    65
 73
     4
 40
2.0
 49
1.25
 49
-0.25
 49
0.25
 49
-0.25
  0
LTYPE
  2
AMCONSTR
 70
     0
  3
_______________________
 72
    65
 73
     2
 40
9999.0
 49
9999.0
 49
0.0
  0
LTYPE
  2
CENTER2
 70
     0
  3
Center (.5x) ___ _ ___ _ ___ _ ___ _ ___ _ ___
 72
    65
 73
     4
 40
1.125
 49
0.75
 49
-0.125
 49
0.125
 49
-0.125
  0
LTYPE
  2
HIDDEN2
 70
     0
  3
Hidden (.5x) _ _ _ _ _ _ _ _ _ _ _ _ _ _ _ _ _
 72
    65
 73
     2
 40
0.1875
 49
0.125
 49
-0.0625
  0
LTYPE
  2
AMZIGZAG2
 70
     0
  3
/\/-/\/-/\/-/\/-/\/-/\/
 72
    65
 73
     2
 40
0.4401
 49
0.0001
 49
-0.4400000000000001
  0
LTYPE
  2
ACANSTGB
 70
     0
  3
__ . . __ . .
 72
    65
 73
     6
 40
0.35433070866
 49
0.15748031496
 49
-0.03937007874
 49
0.03937007874
 49
-0.03937007874
 49
0.03937007874
 49
-0.03937007874
  0
LTYPE
  2
ACANSTGL
 70
     0
  3
_ _ _ _ _
 72
    65
 73
     2
 40
0.11811023622
 49
0.07874015748
 49
-0.03937007874
  0
LTYPE
  2
AUSGEZOGEN
 70
     0
  3
Ausgezogene Linie
 72
    65
 73
     0
 40
0.0
  0
LTYPE
  2
VERDECKT
 70
     0
  3
Verdeckt __ __ __ __ __ __ __ __ __ __ __ __ __
 72
    65
 73
     2
 40
0.375
 49
0.25
 49
-0.125
  0
LTYPE
  2
RAND
 70
     0
  3
Rand __ __ . __ __ . __ __ . __ __ . __ __ .
 72
    65
 73
     6
 40
1.75
 49
0.5
 49
-0.25
 49
0.5
 49
-0.25
 49
0.0
 49
-0.25
  0
LTYPE
  2
AM_ISO02W050
 70
     0
  3
__ __ __ __ __ __ __ __ __ __ __ __ __ __ __
 72
    65
 73
     2
 40
7.5
 49
6.0
 49
-1.5
  0
LTYPE
  2
AM_ISO08W050
 70
     0
  3
____ . ____ . ____ . ____ . ____ . ____ . ____
 72
    65
 73
     4
 40
18.0
 49
12.0
 49
-1.5
 49
3.0
 49
-1.5
  0
LTYPE
  2
AM_ISO09W050
 70
     0
  3
_____ . . _____ . . _____ . . ____ .. ____
 72
    65
 73
     6
 40
22.5
 49
12.0
 49
-1.5
 49
3.0
 49
-1.5
 49
3.0
 49
-1.5
  0
LTYPE
  2
AM_ISO08W050X2
 70
     0
  3
__ . __ . __ . __ . __ . __
 72
    65
 73
     4
 40
9.0
 49
6.0
 49
-0.75
 49
1.5
 49
-0.75
  0
LTYPE
  2
AM_ISO02W050X2
 70
     0
  3
 _ _ _ _ _ _ _ _ _ _ _ _
 72
    65
 73
     2
 40
3.75
 49
3.0
 49
-0.75
  0
LTYPE
  2
AMZIGZAG
 70
     0
  3
/\/-/\/-/\/-/\/-/\/-/\/
 72
    65
 73
     2
 40
11.0000999999999998
 49
0.0001
 49
-11.0
  0
LTYPE
  2
ACANSTGBM
 70
     0
  3
__ . . __ . .
 72
    65
 73
     6
 40
9.0
 49
4.0
 49
-1.0
 49
1.0
 49
-1.0
 49
1.0
 49
-1.0
  0
LTYPE
  2
ACANSTGLM
 70
     0
  3
_ _ _ _ _
 72
    65
 73
     2
 40
3.0
 49
2.0
 49
-1.0
  0
LTYPE
  2
AM_DIN_F_W050
 70
     0
  3
__ __ __ __ __ __ __ __ __ __ __ __ __ __ __
 72
    65
 73
     2
 40
6.25
 49
4.75
 49
-1.5
  0
LTYPE
  2
AM_DIN_G_W050
 70
     0
  3
____ . ____ . ____ . ____ . ____ . ____ . ____
 72
    65
 73
     4
 40
13.75
 49
9.75
 49
-1.5
 49
1.0
 49
-1.5
  0
LTYPE
  2
AM_DIN_K_W050
 70
     0
  3
_____ . . _____ . . _____ . . ____ .. ____
 72
    65
 73
     6
 40
16.25
 49
9.75
 49
-1.5
 49
1.0
 49
-1.5
 49
1.0
 49
-1.5
  0
LTYPE
  2
AM_DIN_G_W050X2
 70
     0
  3
__ . __ . __ . __ . __ . __
 72
    65
 73
     4
 40
6.875
 49
4.75
 49
-0.875
 49
0.375
 49
-0.875
  0
LTYPE
  2
AM_DIN_F_W050X2
 70
     0
  3
 _ _ _ _ _ _ _ _ _ _ _ _
 72
    65
 73
     2
 40
3.125
 49
2.25
 49
-0.875
  0
LTYPE
  2
ACDINWELD
 70
     0
  3
_ _ _ _ _
 72
    65
 73
     2
 40
2.0
 49
2.0
 49
-1.0
  0
LTYPE
  2
ACDINTGL
 70
     0
  3
_ _ _ _ _
 72
    65
 73
     2
 40
3.0
 49
2.0
 49
-1.0
  0
LTYPE
  2
ACDINTGB
 70
     0
  3
__ . . __ . .
 72
    65
 73
     6
 40
9.0
 49
4.0
 49
-1.0
 49
1.0
 49
-1.0
 49
1.0
 49
-1.0
  0
LTYPE
  2
ACAD_VIEWBORDER_LINETYPE
 70
     0
  3
Dashed line in view border
 72
    83
 73
     2
 40
0.3937007874
 49
0.0625984251966
 49
-0.249999999999
  0
LTYPE
  2
ACAD_DYNDIM_LINETYPE
 70
     0
  3
Dot (.5x) .....................................
 72
    83
 73
     2
 40
0.125
 49
0.0
 49
-0.125
  0
ENDTAB
  0
TABLE
  2
LAYER
 70
    34
  0
LAYER
  2
0
 70
     0
 62
     7
  6
CONTINUOUS
  0
LAYER
  2
VOLL
 70
     0
 62
     1
  6
CONTINUOUS
  0
LAYER
  2
HILF
 70
     0
 62
     2
  6
CONTINUOUS
  0
LAYER
  2
MITTEL
 70
     0
 62
     2
  6
STRICHPUNKT
  0
LAYER
  2
BEM
 70
     0
 62
     7
  6
CONTINUOUS
  0
LAYER
  2
STEMPEL
 70
     0
 62
     3
  6
CONTINUOUS
  0
LAYER
  2
TEXT
 70
     0
 62
     7
  6
CONTINUOUS
  0
LAYER
  2
DEFPOINTS
 70
     0
 62
     7
  6
CONTINUOUS
  0
LAYER
  2
SCHRAFF
 70
     0
 62
     7
  6
CONTINUOUS
  0
LAYER
  2
ROHR
 70
     0
 62
   254
  6
CONTINUOUS
  0
LAYER
  2
TEXT25
 70
     0
 62
     7
  6
AUSGEZOGEN
  0
LAYER
  2
TEXT35
 70
     0
 62
     1
  6
AUSGEZOGEN
  0
LAYER
  2
VERDECKT
 70
     0
 62
     6
  6
VERDECKT
  0
LAYER
  2
ARTNR
 70
     0
 62
     5
  6
AUSGEZOGEN
  0
LAYER
  2
LOGO
 70
     0
 62
   172
  6
AUSGEZOGEN
  0
LAYER
  2
AM_6
 70
     0
 62
     2
  6
CONTINUOUS
  0
LAYER
  2
18100X50
 70
     0
 62
   254
  6
CONTINUOUS
  0
LAYER
  2
ADSK_ASSOC_ENTITY_BACKUPS
 70
     1
 62
    -7
  6
CONTINUOUS
  0
LAYER
  2
MD_SICHTBAR
 70
     0
 62
     7
  6
CONTINUOUS
  0
LAYER
  2
MD_VERDECKT
 70
     0
 62
     7
  6
HIDDEN2
  0
LAYER
  2
MD_BESCHRIFTUNG
 70
     0
 62
     7
  6
CONTINUOUS
  0
LAYER
  2
MD_SCHRAFFUR
 70
     0
 62
     7
  6
CONTINUOUS
  0
LAYER
  2
BLECH
 70
     0
 62
   254
  6
CONTINUOUS
  0
LAYER
  2
AM_5
 70
     0
 62
     3
  6
CONTINUOUS
  0
LAYER
  2
AM_VIEWS
 70
     0
 62
     1
  6
CONTINUOUS
  0
LAYER
  2
NAME
 70
     0
 62
   150
  6
CONTINUOUS
  0
LAYER
  2
POS
 70
     0
 62
   152
  6
AUSGEZOGEN
  0
LAYER
  2
EDV_NR
 70
     0
 62
   152
  6
CONTINUOUS
  0
LAYER
  2
INDEX
 70
     0
 62
   255
  6
CONTINUOUS
  0
LAYER
  2
EDV-ART_NR_
 70
     0
 62
   152
  6
AUSGEZOGEN
  0
LAYER
  2
MD_SCHRAFFUR_0
 70
     0
 62
     7
  6
CONTINUOUS
  0
LAYER
  2
MATERIAL__EDELSTAHL_
 70
     0
 62
   254
  6
CONTINUOUS
  0
LAYER
  2
SEMPERIT
 70
     0
 62
   250
  6
AUSGEZOGEN
  0
LAYER
  2
FLANSCH
 70
     0
 62
   252
  6
CONTINUOUS
  0
ENDTAB
  0
TABLE
  2
STYLE
 70
    10
  0
STYLE
  2
STANDARD
 70
     0
 40
0.0
 41
0.8
 50
0.0
 71
     0
 42
2.0
  3
simplex.shx
  4

  0
STYLE
  2
GREEKS
 70
     0
 40
0.0
 41
0.8
 50
0.0
 71
     0
 42
2.5
  3
SIMPLEX.shx
  4

  0
STYLE
  2

 70
     1
 40
0.0
 41
1.0
 50
0.0
 71
     0
 42
2.5
  3
genltshp.shx
  4

  0
STYLE
  2
ACANSGDT
 70
     0
 40
0.0
 41
1.0
 50
0.0
 71
     0
 42
2.5
  3
amgdt.shx
  4

  0
STYLE
  2

 70
     1
 40
0.0
 41
1.0
 50
0.0
 71
     0
 42
2.0
  3
ltypeshp.shx
  4

  0
STYLE
  2
ACANSTS
 70
     0
 40
0.0
 41
1.0
 50
0.0
 71
     0
 42
2.0
  3
romans.shx
  4

  0
STYLE
  2
ACDINTS
 70
     0
 40
0.0
 41
1.0
 50
0.0
 71
     0
 42
2.2999999999999989
  3
isocp.shx
  4

  0
STYLE
  2
ACDINGDT
 70
     0
 40
0.0
 41
1.0
 50
0.0
 71
     0
 42
2.2999999999999989
  3
amgdt.shx
  4

  0
STYLE
  2
MULTI-FÜHRUNGSLINIE
 70
     0
 40
0.0
 41
0.8
 50
0.0
 71
     0
 42
2.5
  3
txt
  4

  0
STYLE
  2
MtXpl_simplex_shx
 70
     0
 40
0.0
 41
1.0
 50
0.0
 71
     0
 42
2.0
  3
simplex.shx
  4

  0
ENDTAB
  0
TABLE
  2
VIEW
 70
     2
  0
ENDTAB
  0
TABLE
  2
UCS
 70
     0
  0
ENDTAB
  0
TABLE
  2
APPID
 70
    50
  0
APPID
  2
ACAD
 70
     0
  0
APPID
  2
ACAD_NAV_VCDISPLAY
 70
     0
  0
APPID
  2
GRADIENTCOLOR1ACI
 70
     0
  0
APPID
  2
GRADIENTCOLOR2ACI
 70
     0
  0
APPID
  2
ACAD_DSTYLE_DIMRADIAL_EXTENSION
 70
     0
  0
APPID
  2
ACADANNOMONITORALERTICONDI
 70
     0
  0
APPID
  2
ACAD_EXEMPT_FROM_CAD_STANDARDS
 70
     0
  0
APPID
  2
ACAD_MLEADERVER
 70
     0
  0
APPID
  2
ACAD_PSEXT
 70
     0
  0
APPID
  2
ACAECLAYERSTANDARD
 70
     0
  0
APPID
  2
ACCMTRANSPARENCY
 70
     0
  0
APPID
  2
ACAD_OBJECT_CHANGE_GUID
 70
     0
  0
APPID
  2
MCAD_NO_VIS
 70
     0
  0
APPID
  2
ACAD_TEMP_GRAPHIC
 70
     0
  0
APPID
  2
ACATTRIBSERVICES
 70
     0
  0
APPID
  2
DESIGNERASSEMBLIES
 70
     0
  0
APPID
  2
ACAD_DSTYLE_DIMJAG
 70
     0
  0
APPID
  2
ACAD_DSTYLE_DIMBREAK
 70
     0
  0
APPID
  2
GENIUS_GENSCREG_15
 70
     0
  0
APPID
  2
GENIUS_GENOBJ-N-SDF_13
 70
     0
  0
APPID
  2
GENIUS_GENODEF_13
 70
     0
  0
APPID
  2
ACAD_STEPID
 70
     0
  0
APPID
  2
ACAD_DSTYLE_DIMARC_LENGTH_
 70
     0
  0
APPID
  2
ACAD_DSTYLE_DIM_LINETYPE
 70
     0
  0
APPID
  2
ACAD_DSTYLE_DIM_EXT1_LINETYPE
 70
     0
  0
APPID
  2
ACAD_DSTYLE_DIM_EXT2_LINETYPE
 70
     0
  0
APPID
  2
RAK
 70
     0
  0
APPID
  2
ACADANNOPO
 70
     0
  0
APPID
  2
ACSYNERGY
 70
     0
  0
APPID
  2
SYNERGY_BODY_TBR_ID
 70
     0
  0
APPID
  2
ACAD_VIEW_EDGE_ID
 70
     0
  0
APPID
  2
ACSYNERGYSKETCH
 70
     0
  0
APPID
  2
ACAD_MODELDOC_XFORM
 70
     0
  0
APPID
  2
GENIUS_GENDTOL_13
 70
     0
  0
APPID
  2
ACAD_DSTYLE_DIMINSPECT
 70
     0
  0
APPID
  2
ACAD_DSTYLE_DIMANGULAR_EXT
 70
     0
  0
APPID
  2
PLOTTRANSPARENCY
 70
     0
  0
APPID
  2
ACAUTHENVIRON
 70
     0
  0
APPID
  2
ACDBDYNAMICBLOCKTRUENAME
 70
     0
  0
APPID
  2
ACDBDYNAMICBLOCKGUID
 70
     0
  0
APPID
  2
PE_URL
 70
     0
  0
APPID
  2
ACADANNOAV
 70
     0
  0
APPID
  2
ACAD_DSTYLE_DIMTALN
 70
     0
  0
APPID
  2
ACAD_DIMASSOC_CALC_DIMLFAC
 70
     0
  0
APPID
  2
ACAD_DIMASSOC_DIMLFAC
 70
     0
  0
APPID
  2
ACAD_DIMASSOC_OVERRIDDEN_D
 70
     0
  0
APPID
  2
ACAD_TC
 70
     0
  0
APPID
  2
ACADANNOTATIVE
 70
     0
  0
APPID
  2
AcDbAttr
 70
     0
  0
APPID
  2
CONTENTBLOCKICON
 70
     0
  0
ENDTAB
  0
TABLE
  2
DIMSTYLE
 70
    21
  0
DIMSTYLE
  2
STANDARD
 70
     0
  3

  4

  5

  6

  7

 40
1.0
 41
0.18
 42
0.0625
 43
0.38
 44
0.18
 45
0.0
 46
0.0
 47
0.0
 48
0.0
140
0.18
141
0.09
142
0.0
143
25.3999999999999986
144
1.0
145
0.0
146
1.0
147
0.09
 71
     0
 72
     0
 73
     1
 74
     1
 75
     0
 76
     0
 77
     0
 78
     0
170
     0
171
     2
172
     0
173
     0
174
     0
175
     0
176
     0
177
     0
178
     0
  0
DIMSTYLE
  2
AM_ANSI
 70
     0
  3

  4
mm
  5

  6

  7

 40
1.0
 41
0.12
 42
0.05
 43
0.5
 44
0.1
 45
0.0
 46
0.0
 47
0.1
 48
0.1
140
0.12
141
0.0
142
0.0
143
25.3999999999999986
144
1.0
145
0.0
146
0.71
147
0.06
 71
     0
 72
     0
 73
     1
 74
     1
 75
     0
 76
     0
 77
     0
 78
     7
170
     0
171
     2
172
     0
173
     0
174
     0
175
     0
176
   256
177
   256
178
   255
  0
DIMSTYLE
  2
AM_ANSI$3
 70
     0
  3

  4
mm
  5

  6

  7

 40
1.0
 41
0.12
 42
0.05
 43
0.5
 44
0.1
 45
0.0
 46
0.0
 47
0.1
 48
0.1
140
0.12
141
0.0
142
0.0
143
25.3999999999999986
144
1.0
145
0.0
146
0.71
147
0.06
 71
     0
 72
     0
 73
     1
 74
     1
 75
     0
 76
     0
 77
     0
 78
     7
170
     0
171
     2
172
     0
173
     0
174
     0
175
     0
176
   256
177
   256
178
   255
  0
DIMSTYLE
  2
AM_ANSI$4
 70
     0
  3

  4
mm
  5

  6

  7

 40
1.0
 41
0.12
 42
0.05
 43
0.5
 44
0.1
 45
0.0
 46
0.0
 47
0.1
 48
0.1
140
0.12
141
0.0
142
0.0
143
25.3999999999999986
144
1.0
145
0.0
146
0.71
147
0.06
 71
     0
 72
     0
 73
     1
 74
     1
 75
     0
 76
     0
 77
     0
 78
     7
170
     0
171
     2
172
     0
173
     0
174
     0
175
     0
176
   256
177
   256
178
   255
  0
DIMSTYLE
  2
AM_ANSI$7
 70
     0
  3

  4
mm
  5

  6

  7

 40
1.0
 41
0.12
 42
0.05
 43
0.5
 44
0.1
 45
0.0
 46
0.0
 47
0.1
 48
0.1
140
0.12
141
0.0
142
0.0
143
25.3999999999999986
144
1.0
145
0.0
146
0.71
147
0.06
 71
     0
 72
     0
 73
     1
 74
     1
 75
     0
 76
     0
 77
     0
 78
     7
170
     0
171
     2
172
     0
173
     0
174
     0
175
     0
176
   256
177
   256
178
   255
  0
DIMSTYLE
  2
AM_ANSI$SF
 70
     0
  3

  4
mm
  5

  6

  7

 40
1.0
 41
0.12
 42
0.05
 43
0.5
 44
0.1
 45
0.0
 46
0.0
 47
0.1
 48
0.1
140
0.12
141
0.0
142
0.0
143
25.3999999999999986
144
1.0
145
0.0
146
0.71
147
0.06
 71
     0
 72
     0
 73
     1
 74
     1
 75
     1
 76
     1
 77
     0
 78
     7
170
     0
171
     2
172
     0
173
     0
174
     0
175
     0
176
   256
177
   256
178
   255
  0
DIMSTYLE
  2
AM_ANSI$SH
 70
     0
  3

  4
mm
  5

  6
GENAXEH
  7

 40
1.0
 41
0.12
 42
0.05
 43
0.5
 44
0.1
 45
0.0
 46
0.0
 47
0.1
 48
0.1
140
0.12
141
0.0
142
0.0
143
25.3999999999999986
144
1.0
145
0.0
146
0.71
147
0.06
 71
     0
 72
     0
 73
     1
 74
     1
 75
     1
 76
     1
 77
     0
 78
     7
170
     0
171
     2
172
     0
173
     1
174
     0
175
     0
176
   256
177
   256
178
   255
  0
DIMSTYLE
  2
ISO-25
 70
     0
  3

  4

  5

  6

  7

 40
1.0
 41
2.5
 42
0.625
 43
3.75
 44
1.25
 45
0.0
 46
0.0
 47
0.0
 48
0.0
140
2.5
141
2.5
142
0.0
143
0.03937007874016
144
1.0
145
0.0
146
1.0
147
0.625
 71
     0
 72
     0
 73
     0
 74
     0
 75
     0
 76
     0
 77
     1
 78
     8
170
     0
171
     3
172
     1
173
     0
174
     0
175
     0
176
     0
177
     0
178
     0
  0
DIMSTYLE
  2
AM_DIN
 70
     0
  3

  4
"
  5

  6

  7

 40
1.0
 41
3.5
 42
1.0
 43
10.0
 44
1.0
 45
0.0
 46
0.0
 47
0.1
 48
0.1
140
3.5
141
0.0
142
0.0
143
0.0393701
144
1.0
145
0.0
146
0.71
147
1.5
 71
     0
 72
     0
 73
     0
 74
     0
 75
     0
 76
     0
 77
     1
 78
     8
170
     0
171
     2
172
     1
173
     0
174
     0
175
     0
176
   256
177
   256
178
     2
  0
DIMSTYLE
  2
AM_DIN$3
 70
     0
  3

  4
"
  5

  6

  7

 40
1.0
 41
3.5
 42
1.0
 43
10.0
 44
1.0
 45
0.0
 46
0.0
 47
0.1
 48
0.1
140
3.5
141
0.0
142
0.0
143
0.0393701
144
1.0
145
0.0
146
0.71
147
1.5
 71
     0
 72
     0
 73
     0
 74
     1
 75
     0
 76
     0
 77
     1
 78
     8
170
     0
171
     2
172
     0
173
     0
174
     0
175
     0
176
   256
177
   256
178
     2
  0
DIMSTYLE
  2
AM_DIN$4
 70
     0
  3

  4
"
  5

  6

  7

 40
1.0
 41
3.5
 42
1.0
 43
10.0
 44
1.0
 45
0.0
 46
0.0
 47
0.1
 48
0.1
140
3.5
141
0.0
142
0.0
143
0.0393701
144
1.0
145
0.0
146
0.71
147
1.5
 71
     0
 72
     0
 73
     0
 74
     1
 75
     0
 76
     0
 77
     1
 78
     8
170
     0
171
     2
172
     0
173
     0
174
     0
175
     0
176
   256
177
   256
178
     2
  0
DIMSTYLE
  2
AM_DIN$6
 70
     0
  3

  4
"
  5

  6

  7

 40
1.0
 41
3.5
 42
1.0
 43
10.0
 44
1.0
 45
0.0
 46
0.0
 47
0.1
 48
0.1
140
3.5
141
0.0
142
0.0
143
0.0393701
144
1.0
145
0.0
146
0.71
147
1.5
 71
     0
 72
     0
 73
     0
 74
     0
 75
     0
 76
     0
 77
     0
 78
     8
170
     0
171
     2
172
     1
173
     0
174
     0
175
     0
176
   256
177
   256
178
     2
  0
DIMSTYLE
  2
AM_DIN$7
 70
     0
  3

  4
"
  5

  6

  7

 40
1.0
 41
3.5
 42
1.0
 43
10.0
 44
1.0
 45
0.0
 46
0.0
 47
0.1
 48
0.1
140
3.5
141
0.0
142
0.0
143
0.0393701
144
1.0
145
0.0
146
0.71
147
1.5
 71
     0
 72
     0
 73
     0
 74
     0
 75
     0
 76
     0
 77
     1
 78
     8
170
     0
171
     2
172
     1
173
     0
174
     0
175
     0
176
   256
177
   256
178
     2
  0
DIMSTYLE
  2
AM_DIN$SF
 70
     0
  3

  4
"
  5

  6

  7

 40
1.0
 41
3.5
 42
1.0
 43
10.0
 44
1.0
 45
0.0
 46
0.0
 47
0.1
 48
0.1
140
3.5
141
0.0
142
0.0
143
0.0393701
144
1.0
145
0.0
146
0.71
147
1.5
 71
     0
 72
     0
 73
     0
 74
     0
 75
     1
 76
     1
 77
     1
 78
     8
170
     0
171
     2
172
     1
173
     0
174
     0
175
     0
176
   256
177
   256
178
     2
  0
DIMSTYLE
  2
AM_DIN$SH
 70
     0
  3

  4
"
  5

  6
GENAXEH
  7

 40
1.0
 41
3.5
 42
1.0
 43
10.0
 44
1.0
 45
0.0
 46
0.0
 47
0.1
 48
0.1
140
3.5
141
0.0
142
0.0
143
0.0393701
144
2.0
145
0.0
146
0.71
147
1.5
 71
     0
 72
     0
 73
     0
 74
     0
 75
     1
 76
     1
 77
     1
 78
     8
170
     0
171
     2
172
     1
173
     1
174
     0
175
     0
176
   256
177
   256
178
     2
  0
DIMSTYLE
  2
STANDARD$0
 70
     0
  3

  4

  5

  6

  7

 40
1.0
 41
0.18
 42
0.0625
 43
0.38
 44
0.18
 45
0.0
 46
0.0
 47
0.0
 48
0.0
140
0.18
141
0.09
142
0.0
143
25.3999999999999986
144
1.0
145
0.0
146
1.0
147
0.09
 71
     0
 72
     0
 73
     1
 74
     1
 75
     0
 76
     0
 77
     0
 78
     0
170
     0
171
     2
172
     0
173
     0
174
     0
175
     0
176
     0
177
     0
178
     0
  0
DIMSTYLE
  2
STANDARD$2
 70
     0
  3

  4

  5

  6

  7

 40
1.0
 41
0.18
 42
0.0625
 43
0.38
 44
0.18
 45
0.0
 46
0.0
 47
0.0
 48
0.0
140
0.18
141
0.09
142
0.0
143
25.3999999999999986
144
1.0
145
0.0
146
1.0
147
0.09
 71
     0
 72
     0
 73
     1
 74
     1
 75
     0
 76
     0
 77
     0
 78
     0
170
     0
171
     2
172
     0
173
     0
174
     0
175
     0
176
     0
177
     0
178
     0
  0
DIMSTYLE
  2
AM_ANSI$0
 70
     0
  3

  4
"
  5

  6

  7

 40
1.0
 41
3.5
 42
1.0
 43
10.0
 44
1.0
 45
0.0
 46
0.0
 47
0.1
 48
0.1
140
3.5
141
0.0
142
0.0
143
0.0393701
144
1.0
145
0.0
146
0.71
147
1.5
 71
     0
 72
     0
 73
     1
 74
     1
 75
     0
 76
     0
 77
     0
 78
     8
170
     0
171
     2
172
     0
173
     0
174
     0
175
     0
176
   256
177
   256
178
     2
  0
DIMSTYLE
  2
AM_ANSI$2
 70
     0
  3

  4
mm
  5

  6

  7

 40
1.0
 41
0.12
 42
0.05
 43
0.5
 44
0.1
 45
0.0
 46
0.0
 47
0.1
 48
0.1
140
0.12
141
0.0
142
0.0
143
25.3999999999999986
144
1.0
145
0.0
146
0.71
147
0.06
 71
     0
 72
     0
 73
     1
 74
     1
 75
     0
 76
     0
 77
     0
 78
     7
170
     0
171
     2
172
     0
173
     0
174
     0
175
     0
176
   256
177
   256
178
     2
  0
DIMSTYLE
  2
BESCHRIFTUNG
 70
     0
  3

  4

  5

  6

  7

 40
0.0
 41
2.5
 42
0.625
 43
3.75
 44
1.25
 45
0.0
 46
0.0
 47
0.0
 48
0.0
140
2.5
141
2.5
142
0.0
143
0.03937007874016
144
1.0
145
0.0
146
1.0
147
0.625
 71
     0
 72
     0
 73
     0
 74
     0
 75
     0
 76
     0
 77
     1
 78
     8
170
     0
171
     3
172
     1
173
     0
174
     0
175
     0
176
     0
177
     0
178
     0
  0
DIMSTYLE
  2
LORO
 70
     0
  3

  4

  5

  6

  7

 40
1.0
 41
3.5
 42
1.0
 43
0.38
 44
1.0
 45
0.0
 46
0.0
 47
0.0
 48
0.000000001
140
3.5
141
0.09
142
0.0
143
25.3999999999999986
144
1.0
145
0.0
146
0.5
147
1.5
 71
     0
 72
     0
 73
     0
 74
     0
 75
     0
 76
     0
 77
     1
 78
     8
170
     0
171
     2
172
     1
173
     0
174
     0
175
     0
176
     0
177
     0
178
     1
  0
ENDTAB
  0
ENDSEC
  0
SECTION
  2
BLOCKS
  0
BLOCK
  8
0
  2
$MODEL_SPACE
 70
     0
 10
0.0
 20
0.0
 30
0.0
  3
$MODEL_SPACE
  1

  0
ENDBLK
  5
38
  8
0
  0
BLOCK
 67
     1
  8
0
  2
$PAPER_SPACE
 70
     2
 10
0.0
 20
0.0
 30
0.0
  3
$PAPER_SPACE
  1

  0
ENDBLK
  5
36
 67
     1
  8
0
  0
BLOCK
  8
0
  2
LOGO
 70
     0
 10
0.0
 20
0.0
 30
0.0
  3
LOGO
  1

  0
ARC
  5
3A
  8
0
 10
11.5997308967811197
 20
-9.2715992584815012
 30
0.0
 40
4.5
 50
270.0
 51
231.057558731015888
  0
LINE
  5
3B
  8
0
 10
3.599730896781125
 20
-4.7715992584815288
 30
0.0
 11
3.599730896781153
 21
-11.7715992584813307
 31
0.0
  0
LINE
  5
3C
  8
0
 10
2.599730896781125
 20
-4.7715992584815288
 30
0.0
 11
2.599730896781153
 21
-11.7715992584813307
 31
0.0
  0
CIRCLE
  5
3D
  8
0
 10
11.5997308967811197
 20
-9.2715992584815012
 30
0.0
 40
3.5
  0
ARC
  5
3E
  8
0
 10
31.5997308967811499
 20
-9.2715992584814728
 30
0.0
 40
4.5
 50
270.0
 51
231.0575587310181902
  0
LINE
  5
3F
  8
0
 10
17.5997308967811215
 20
-4.7715992584814719
 30
0.0
 11
17.5997308967811499
 21
-13.7715992584814693
 31
0.0
  0
ARC
  5
40
  8
0
 10
22.5997308967811605
 20
-7.2715992584814719
 30
0.0
 40
2.5
 50
293.1161887722295205
 51
90.0
  0
CIRCLE
  5
41
  8
0
 10
31.5997308967811499
 20
-9.2715992584814728
 30
0.0
 40
3.5
  0
ARC
  5
42
  8
0
 10
4.5997308967811534
 20
-11.7715992584813307
 30
0.0
 40
1.0
 50
180.0
 51
270.0
  0
ARC
  5
43
  8
0
 10
4.5997308967811534
 20
-11.7715992584813307
 30
0.0
 40
2.0
 50
179.9999999999992042
 51
270.0
  0
LINE
  5
44
  8
0
 10
11.5997308967811499
 20
-13.7715992584814408
 30
0.0
 11
4.5997308967811534
 21
-13.7715992584814693
 31
0.0
  0
LINE
  5
45
  8
0
 10
8.7713037720347682
 20
-12.7715992584813591
 30
0.0
 11
4.5997308967811534
 21
-12.7715992584813307
 31
0.0
  0
LINE
  5
46
  8
0
 10
31.5997308967811499
 20
-13.7715992584814693
 30
0.0
 11
23.6715276665056003
 21
-13.7715992584814408
 31
0.0
  0
LINE
  5
47
  8
0
 10
23.5656567230702194
 20
-9.5127802133789601
 30
0.0
 11
24.4388546544846008
 21
-12.7715992584814408
 31
0.0
  0
LINE
  5
48
  8
0
 10
22.5997308967811605
 20
-9.7715992584814728
 30
0.0
 11
18.5997308967811215
 21
-9.7715992584814728
 31
0.0
  0
LINE
  5
49
  8
0
 10
18.5997308967811499
 20
-13.7715992584814408
 30
0.0
 11
17.5997308967811499
 21
-13.7715992584814408
 31
0.0
  0
LINE
  5
4A
  8
0
 10
18.5997308967811499
 20
-9.7715992584814728
 30
0.0
 11
18.5997308967811499
 21
-13.7715992584814408
 31
0.0
  0
LINE
  5
4B
  8
0
 10
22.5997308967811605
 20
-9.7715992584814728
 30
0.0
 11
23.6715276665056216
 21
-13.7715992584814693
 31
0.0
  0
ARC
  5
4C
  8
0
 10
22.5997308967811605
 20
-7.2715992584814719
 30
0.0
 40
2.5
 50
270.0
 51
270.0000000000006821
  0
LINE
  5
4D
  8
0
 10
28.7713037720349405
 20
-12.7715992584814693
 30
0.0
 11
24.4388546544846292
 21
-12.7715992584814408
 31
0.0
  0
LINE
  5
4E
  8
0
 10
3.599730896781125
 20
-4.7715992584814719
 30
0.0
 11
2.599730896781125
 21
-4.7715992584814719
 31
0.0
  0
LINE
  5
4F
  8
0
 10
22.5997308967811605
 20
-8.7715992584814728
 30
0.0
 11
18.5997308967811499
 21
-8.7715992584814728
 31
0.0
  0
LINE
  5
50
  8
0
 10
22.5997308967811605
 20
-5.7715992584814719
 30
0.0
 11
18.5997308967811499
 21
-5.7715992584814719
 31
0.0
  0
LINE
  5
51
  8
0
 10
22.5997308967811605
 20
-4.7715992584814719
 30
0.0
 11
17.5997308967811499
 21
-4.7715992584814719
 31
0.0
  0
LINE
  5
52
  8
0
 10
18.5997308967811499
 20
-5.7715992584814719
 30
0.0
 11
18.5997308967811499
 21
-8.7715992584814728
 31
0.0
  0
ARC
  5
53
  8
0
 10
22.5997308967811605
 20
-7.2715992584814719
 30
0.0
 40
1.5
 50
270.0
 51
90.0
  0
ENDBLK
  5
54
  8
0
  0
BLOCK
  8
0
  2
LORO
 70
     0
 10
0.0
 20
0.0
 30
0.0
  3
LORO
  1

  0
INSERT
  5
A4D
  8
STEMPEL
  2
LOGO
 10
-1.7480328024673211
 20
3.771489518552062
 30
0.0
  0
ENDBLK
  5
A4E
  8
0
  0
BLOCK
  8
0
  2
GENAXEH
 70
     0
 10
0.0
 20
0.0
 30
0.0
  3
GENAXEH
  1

  0
LINE
  5
1721
  8
0
 10
-1.0
 20
0.0
 30
0.0
 11
1.0
 21
0.0
 31
0.0
  0
ENDBLK
  5
1723
  8
0
  0
BLOCK
  8
0
  2
_ACMFILLEDHALF
 70
     0
 10
0.0
 20
0.0
 30
0.0
  3
_ACMFILLEDHALF
  1

  0
TRACE
  5
1731
  8
DEFPOINTS
 62
     0
 10
-0.8
 20
0.0
 30
0.0
 11
-1.0
 21
0.166666666
 31
0.0
 12
0.0
 22
0.0
 32
0.0
 13
0.0
 23
0.0
 33
0.0
  0
LINE
  5
1732
  8
DEFPOINTS
 62
     0
 10
-1.0
 20
0.0
 30
0.0
 11
-0.8
 21
0.0
 31
0.0
  0
ENDBLK
  5
1730
  8
0
  0
BLOCK
  8
0
  2
_ACMFILLED30
 70
     0
 10
0.0
 20
0.0
 30
0.0
  3
_ACMFILLED30
  1

  0
TRACE
  5
1F95
  8
ARTNR
 62
     0
 10
-1.0
 20
-0.26794919
 30
0.0
 11
-1.0
 21
0.26794919
 31
0.0
 12
0.0
 22
0.0
 32
0.0
 13
0.0
 23
0.0
 33
0.0
  0
ENDBLK
  5
1F96
  8
0
  0
BLOCK
  8
0
  2
_NONE
 70
     0
 10
0.0
 20
0.0
 30
0.0
  3
_NONE
  1

  0
ENDBLK
  5
1F99
  8
0
  0
BLOCK
  8
0
  2
DIN_A3_ATTRIBUTE
 70
     2
 10
0.0
 20
0.0
 30
0.0
  3
DIN_A3_ATTRIBUTE
  1

  0
LINE
  5
310F
  8
STEMPEL
 10
406.6999999999999886
 20
53.8999999999999986
 30
0.0
 11
230.3000000000000114
 21
53.8999999999999986
 31
0.0
  0
LINE
  5
3110
  8
STEMPEL
 10
230.3000000000000114
 20
53.8999999999999986
 30
0.0
 11
230.2999999999998977
 21
4.9000000000000004
 31
0.0
  0
LINE
  5
3111
  8
STEMPEL
 10
277.339999999999975
 20
53.8999999999999417
 30
0.0
 11
277.3399999999999181
 21
4.8999999999999444
 31
0.0
  0
LINE
  5
3112
  8
STEMPEL
 10
318.5
 20
53.8999999999999986
 30
0.0
 11
318.5
 21
4.9000000000000004
 31
0.0
  0
LINE
  5
3113
  8
STEMPEL
 10
368.480000000000075
 20
53.899999999999828
 30
0.0
 11
368.480000000000075
 21
19.6000000000000014
 31
0.0
  0
LINE
  5
3114
  8
STEMPEL
 10
277.3399999999999181
 20
14.6999999999999993
 30
0.0
 11
230.2999999999998977
 21
14.6999999999999993
 31
0.0
  0
LINE
  5
3115
  8
STEMPEL
 10
406.6999999999999886
 20
19.6000000000000014
 30
0.0
 11
277.3399999999999181
 21
19.6000000000000014
 31
0.0
  0
LINE
  5
3116
  8
STEMPEL
 10
406.6999999999999886
 20
39.2000000000000028
 30
0.0
 11
277.339999999999975
 21
39.2000000000000028
 31
0.0
  0
LINE
  5
3117
  8
VOLL
 10
237.1599999999999966
 20
53.8999999999999986
 30
0.0
 11
237.1599999999999113
 21
4.9000000000000004
 31
0.0
  0
LINE
  5
3118
  8
VOLL
 10
256.7599999999999909
 20
53.8999999999999702
 30
0.0
 11
256.7599999999998772
 21
4.899999999999971
 31
0.0
  0
LINE
  5
3119
  8
VOLL
 10
266.560000000000116
 20
53.8999999999999417
 30
0.0
 11
266.5599999999998886
 21
4.8999999999999444
 31
0.0
  0
LINE
  5
311A
  8
VOLL
 10
286.160000000000025
 20
39.2000000000000028
 30
0.0
 11
286.160000000000025
 21
19.6000000000000014
 31
0.0
  0
LINE
  5
311B
  8
VOLL
 10
298.8999999999999773
 20
53.8999999999999133
 30
0.0
 11
298.8999999999999204
 21
19.6000000000000014
 31
0.0
  0
LINE
  5
311C
  8
HILF
 10
230.3000000000000114
 20
49.0
 30
0.0
 11
277.339999999999975
 21
49.0
 31
0.0
  0
LINE
  5
311D
  8
HILF
 10
230.3000000000000114
 20
44.1000000000000014
 30
0.0
 11
277.339999999999975
 21
44.1000000000000014
 31
0.0
  0
LINE
  5
311E
  8
HILF
 10
230.3000000000000114
 20
39.2000000000000028
 30
0.0
 11
277.339999999999975
 21
39.2000000000000028
 31
0.0
  0
LINE
  5
311F
  8
HILF
 10
230.3000000000000114
 20
34.2999999999999972
 30
0.0
 11
277.339999999999975
 21
34.2999999999999972
 31
0.0
  0
LINE
  5
3120
  8
HILF
 10
230.3000000000000114
 20
29.3999999999999986
 30
0.0
 11
277.339999999999975
 21
29.3999999999999986
 31
0.0
  0
LINE
  5
3121
  8
HILF
 10
230.3000000000000114
 20
24.5
 30
0.0
 11
277.339999999999975
 21
24.5
 31
0.0
  0
LINE
  5
3122
  8
HILF
 10
230.3000000000000114
 20
19.6000000000000014
 30
0.0
 11
277.339999999999975
 21
19.6000000000000014
 31
0.0
  0
LINE
  5
3123
  8
HILF
 10
277.339999999999975
 20
34.2999999999999972
 30
0.0
 11
318.5
 21
34.2999999999999972
 31
0.0
  0
LINE
  5
3124
  8
HILF
 10
277.339999999999975
 20
29.3999999999999986
 30
0.0
 11
318.5
 21
29.3999999999999986
 31
0.0
  0
LINE
  5
3125
  8
HILF
 10
277.339999999999975
 20
24.5
 30
0.0
 11
318.5
 21
24.5
 31
0.0
  0
LINE
  5
3126
  8
HILF
 10
320.8391032537504088
 20
41.1784154130642435
 30
0.0
 11
365.8485942832256796
 21
41.1784154130642435
 31
0.0
  0
LINE
  5
3127
  8
HILF
 10
320.8391032537504088
 20
34.2999999999999972
 30
0.0
 11
365.8485942832256796
 21
34.2999999999999972
 31
0.0
  0
LINE
  5
3128
  8
HILF
 10
320.8391032537504088
 20
29.3999999999999986
 30
0.0
 11
365.8485942832256796
 21
29.3999999999999986
 31
0.0
  0
LINE
  5
3129
  8
HILF
 10
320.8391032537504088
 20
24.5
 30
0.0
 11
365.8485942832256796
 21
24.5
 31
0.0
  0
LINE
  5
312A
  8
VOLL
 10
368.480000000000075
 20
29.3999999999999986
 30
0.0
 11
406.6999999999999886
 21
29.3999999999999986
 31
0.0
  0
LINE
  5
312B
  8
HILF
 10
370.7946921985526956
 20
41.0521198210835223
 30
0.0
 11
404.1808531270096978
 21
41.0521198210835223
 31
0.0
  0
LINE
  5
312C
  8
HILF
 10
320.8391032537504088
 20
7.2980514643386813
 30
0.0
 11
404.1808531270096978
 21
7.2980514643386813
 31
0.0
  0
TEXT
  5
312D
  8
TEXT25
 10
241.6959999999999127
 20
8.9600000000000009
 30
0.0
 40
1.9599999999999991
  1
Änderung
 41
0.8
 72
     4
 11
246.960000000000008
 21
9.8000000000000007
 31
0.0
  0
TEXT
  5
312E
  8
TEXT25
 10
320.8901907866414263
 20
50.2489770725771692
 30
0.0
 40
2.4500000000000002
  1
Benennung
 41
0.8
  0
TEXT
  5
312F
  8
TEXT25
 10
370.5275899292407189
 20
50.1334696923196574
 30
0.0
 40
2.4500000000000002
  1
Zeichnungs Nr.
 41
0.8
  0
TEXT
  5
3130
  8
TEXT25
 10
320.823696811656589
 20
15.1143467939459608
 30
0.0
 40
2.4500000000000002
  1
Bauvorhaben
 41
0.8
  0
TEXT
  5
3131
  8
TEXT25
 10
370.7946921985526956
 20
35.8587793617898214
 30
0.0
 40
2.4500000000000002
  1
Ersatz für:
 41
0.8
  0
TEXT
  5
3132
  8
TEXT25
 10
234.3505414245242093
 20
6.6907826455332247
 30
0.0
 40
1.9599999999999991
  1
Index
 50
90.0
 41
0.8
  0
TEXT
  5
3133
  8
TEXT25
 10
259.830666666666616
 20
9.1466666666666683
 30
0.0
 40
1.9599999999999991
  1
Tag
 41
0.8
 72
     4
 11
261.660000000000025
 21
9.8000000000000007
 31
0.0
  0
TEXT
  5
3134
  8
TEXT25
 10
268.8513333333332866
 20
8.8200000000000003
 30
0.0
 40
1.9599999999999991
  1
Name
 41
0.8
 72
     4
 11
271.9499999999999886
 21
9.8000000000000007
 31
0.0
  0
TEXT
  5
3135
  8
TEXT25
 10
278.1159702312131117
 20
31.1786528111280106
 30
0.0
 40
1.9599999999999991
  1
Gez.
 41
0.8
  0
TEXT
  5
3136
  8
TEXT25
 10
278.1002392420119236
 20
26.3077388279990387
 30
0.0
 40
1.9599999999999991
  1
Gepr.
 41
0.8
  0
TEXT
  5
3137
  8
TEXT25
 10
278.1243320919778057
 20
21.3294373092840388
 30
0.0
 40
1.9599999999999991
  1
Norm.
 41
0.8
  0
TEXT
  5
3138
  8
TEXT25
 10
371.0476422133534129
 20
25.5163392716051405
 30
0.0
 40
2.4500000000000002
  1
ersetzt durch:
 41
0.8
  0
LINE
  5
3139
  8
HILF
 10
0.0
 20
0.0
 30
0.0
 11
411.6000000000000227
 21
0.0
 31
0.0
  0
LINE
  5
313A
  8
HILF
 10
411.6000000000000227
 20
0.0
 30
0.0
 11
411.6000000000000227
 21
291.0600000000000023
 31
0.0
  0
LINE
  5
313B
  8
HILF
 10
411.6000000000000227
 20
291.0600000000000023
 30
0.0
 11
0.0
 21
291.0600000000000023
 31
0.0
  0
LINE
  5
313C
  8
HILF
 10
0.0
 20
291.0600000000000023
 30
0.0
 11
0.0
 21
0.0
 31
0.0
  0
LINE
  5
313D
  8
STEMPEL
 10
406.6999999999999886
 20
286.160000000000025
 30
0.0
 11
19.6000000000000014
 21
286.160000000000025
 31
0.0
  0
LINE
  5
313E
  8
STEMPEL
 10
19.6000000000000014
 20
4.9000000000000004
 30
0.0
 11
406.6999999999999886
 21
4.9000000000000004
 31
0.0
  0
LINE
  5
313F
  8
STEMPEL
 10
406.6999999999999886
 20
4.9000000000000004
 30
0.0
 11
406.6999999999999886
 21
286.160000000000025
 31
0.0
  0
LINE
  5
3140
  8
STEMPEL
 10
19.6000000000000014
 20
286.160000000000025
 30
0.0
 11
19.6000000000000014
 21
4.9000000000000004
 31
0.0
  0
TEXT
  5
3141
  8
TEXT25
 10
409.8424707135250173
 20
5.1713525026624154
 30
0.0
 40
2.4500000000000002
  1
Diese Zeichnung ist urheberrechtlich geschuetzt und bleibt unser Eigentum. Sie darf weder ganz noch teilweise vervielfaeltigt und nicht an Dritte weitergegeben werden.
 50
90.0
 41
0.8
  0
LINE
  5
3142
  8
HILF
 10
225.4000000000000909
 20
0.0
 30
0.0
 11
225.4000000000000909
 21
4.9000000000000004
 31
0.0
  0
LINE
  5
3143
  8
HILF
 10
225.4000000000000909
 20
286.160000000000025
 30
0.0
 11
225.4000000000000909
 21
291.0600000000000023
 31
0.0
  0
TEXT
  5
3144
  8
TEXT25
 10
282.3333333333334281
 20
50.2489770725772118
 30
0.0
 40
2.4500000000000002
  1
Maßstab
 41
0.8
 72
     1
 11
288.1200000000001182
 21
50.2489770725772118
 31
0.0
  0
TEXT
  5
3145
  8
TEXT25
 10
302.1200000000000045
 20
50.2489770725771692
 30
0.0
 40
2.4500000000000002
  1
Zul. Abw.
 41
0.8
 72
     1
 11
308.6999999999999886
 21
50.2489770725771692
 31
0.0
  0
TEXT
  5
3146
  8
TEXT25
 10
279.1899999999999977
 20
35.7899999999999991
 30
0.0
 40
1.919999999999999
  1
2017
 41
0.8
 72
     4
 11
281.75
 21
36.75
 31
0.0
  0
TEXT
  5
3147
  8
TEXT25
 10
290.7006666666666206
 20
36.0966666666666711
 30
0.0
 40
1.9599999999999991
  1
Tag
 41
0.8
 72
     4
 11
292.5299999999999727
 21
36.75
 31
0.0
  0
TEXT
  5
3148
  8
TEXT25
 10
305.6013333333332866
 20
35.7700000000000031
 30
0.0
 40
1.9599999999999991
  1
Name
 41
0.8
 72
     4
 11
308.6999999999999886
 21
36.75
 31
0.0
  0
TEXT
  5
3149
  8
HILF
 10
305.4366666666667243
 20
30.75
 30
0.0
 40
2.2000000000000002
  1
Haase
 41
0.7
 72
     4
 11
308.6999999999999886
 21
31.8500000000000014
 31
0.0
  0
INSERT
  5
314A
  8
0
  2
*U34
 10
0.0
 20
0.0
 30
0.0
  0
ATTDEF
  5
314F
  8
VOLL
 10
399.3659252406254154
 20
42.1257062389930965
 30
0.0
 40
3.4299999999999988
  1

 41
0.8
 72
     2
 11
399.3659252406254154
 21
42.1257062389930965
 31
0.0
  3

  2
ZEICHNUNGSNUMMER
 70
     0
1001
AcDbAttr
1070
     0
1070
     1
  0
ATTDEF
  5
3150
  8
VOLL
 10
320.8391032537504088
 20
42.1627894118646225
 30
0.0
 40
3.4299999999999988
  1

 41
0.8
  3

  2
BENENNUNG
 70
     0
1001
AcDbAttr
1070
     0
1070
     1
  0
ATTDEF
  5
3151
  8
TEXT25
 10
320.8391032537504088
 20
35.1029433725667914
 30
0.0
 40
2.4500000000000002
  1

 41
0.8
  3

  2
ZEILE1
 70
     0
1001
AcDbAttr
1070
     0
1070
     1
  0
ATTDEF
  5
3152
  8
TEXT25
 10
320.8391032537504088
 20
30.1965823526161792
 30
0.0
 40
2.4500000000000002
  1

 41
0.8
  3

  2
ZEILE2
 70
     0
1001
AcDbAttr
1070
     0
1070
     1
  0
ATTDEF
  5
3153
  8
TEXT35
 62
     2
 10
320.8391032537504088
 20
25.2902213326655811
 30
0.0
 40
2.6000000000000001
  1

 41
0.8
  3

  2
EDV-ART
 70
     0
1001
AcDbAttr
1070
     0
1070
     1
  0
ATTDEF
  5
3154
  8
HILF
 10
299.7819081430030224
 20
43.4165054605652685
 30
0.0
 40
2.2000000000000002
  1

 41
0.7
  3

  2
DIN
 70
     0
1001
AcDbAttr
1070
     0
1070
     1
  0
ATTDEF
  5
3155
  8
HILF
 10
286.5889687662142933
 20
43.5623282728024108
 30
0.0
 40
2.2000000000000002
  1

 41
0.8
  3

  2
MAßSTAB
 70
     0
1001
AcDbAttr
1070
     0
1070
     1
  0
ATTDEF
  5
3156
  8
HILF
 62
     7
 10
287.7323967816461163
 20
30.6073459659927707
 30
0.0
 40
2.0
  1

 41
0.8
  3

  2
DATUM
 70
     0
1001
AcDbAttr
1070
     0
1070
     1
  0
ATTDEF
  5
3157
  8
HILF
 10
232.3692905168539937
 20
15.9979090409188096
 30
0.0
 40
2.2999999999999989
  1

 41
0.8
  3

  2
INDEX
 70
     0
1001
AcDbAttr
1070
     0
1070
     1
  0
ATTDEF
  5
3158
  8
BEM
 10
237.514571805262392
 20
15.8918969305104198
 30
0.0
 40
2.0
  1

 41
0.7
  3

  2
ÄNDERUNG
 70
     0
1001
AcDbAttr
1070
     0
1070
     1
  0
ATTDEF
  5
3159
  8
BEM
 10
257.0348152962411064
 20
15.9449034600884296
 30
0.0
 40
2.0
  1

 41
0.7
  3

  2
TAG
 70
     0
1001
AcDbAttr
1070
     0
1070
     1
  0
ATTDEF
  5
315A
  8
TEXT25
 10
268.9664310086495789
 20
15.8591517105267403
 30
0.0
 40
2.0
  1

 41
0.7
  3

  2
ÄND.NAME
 70
     0
1001
AcDbAttr
1070
     0
1070
     1
  0
ATTDEF
  5
315B
  8
VOLL
 10
392.3617109913379863
 20
32.207133859130181
 30
0.0
 40
2.7999999999999989
  1

 41
0.8
 72
     4
 11
392.3617109913379863
 21
32.207133859130181
 31
0.0
  3

  2
ERSATZFÜR
 70
     0
1001
AcDbAttr
1070
     0
1070
     1
  0
CIRCLE
  5
315C
  8
LOGO
 62
   150
 10
290.4305631524269984
 20
11.9084493110361898
 30
0.0
 40
2.7999999999999989
  0
CIRCLE
  5
315D
  8
LOGO
 62
   150
 10
308.4200589315327079
 20
11.90844931103622
 30
0.0
 40
2.7999999999999989
  0
CIRCLE
  5
315E
  8
HILF
 62
   150
 10
314.4052701857448255
 20
15.0124271601685404
 30
0.0
 40
1.25
  0
INSERT
  5
315F
  8
0
  2
*U35
 10
0.0
 20
0.0
 30
0.0
  0
POLYLINE
  5
3160
  8
LOGO
 62
   150
 66
     1
 10
0.0
 20
0.0
 30
0.0
 70
     1
  0
VERTEX
  5
36175
  8
LOGO
 62
   150
 10
300.0064557169865793
 20
13.1084493110362192
 30
0.0
 42
0.9999999999999998
  0
VERTEX
  5
36176
  8
LOGO
 62
   150
 10
300.0064557169865793
 20
14.7084493110362207
 30
0.0
  0
VERTEX
  5
36177
  8
LOGO
 62
   150
 10
296.7064557169866248
 20
14.7084493110362207
 30
0.0
  0
VERTEX
  5
36178
  8
LOGO
 62
   150
 10
296.7064557169866248
 20
13.1084493110362192
 30
0.0
  0
SEQEND
  5
36179
  8
LOGO
 62
   150
  0
POLYLINE
  5
3161
  8
LOGO
 62
   150
 66
     1
 10
0.0
 20
0.0
 30
0.0
 70
     1
  0
VERTEX
  5
3617A
  8
LOGO
 62
   150
 10
283.1305631524271007
 20
10.4084493110362306
 30
0.0
  0
VERTEX
  5
3617B
  8
LOGO
 62
   150
 10
283.1305631524271007
 20
16.4084493110362217
 30
0.0
  0
VERTEX
  5
3617C
  8
LOGO
 62
   150
 10
281.4305631524269984
 20
16.4084493110362217
 30
0.0
  0
VERTEX
  5
3617D
  8
LOGO
 62
   150
 10
281.4305631524269984
 20
10.4084493110362306
 30
0.0
 42
0.4142135623730961
  0
VERTEX
  5
3617E
  8
LOGO
 62
   150
 10
284.4305631524269984
 20
7.4084493110362279
 30
0.0
  0
VERTEX
  5
3617F
  8
LOGO
 62
   150
 10
290.4305631524269984
 20
7.4084493110362502
 30
0.0
 42
4.3731202552251798
  0
VERTEX
  5
36180
  8
LOGO
 62
   150
 10
286.9077801616650731
 20
9.1084493110363951
 30
0.0
  0
VERTEX
  5
36181
  8
LOGO
 62
   150
 10
284.4305631524269984
 20
9.1084493110363596
 30
0.0
 42
-0.4142135623730961
  0
SEQEND
  5
36182
  8
LOGO
 62
   150
  0
POLYLINE
  5
3162
  8
LOGO
 62
   150
 66
     1
 10
0.0
 20
0.0
 30
0.0
 70
     1
  0
VERTEX
  5
36183
  8
LOGO
 62
   150
 10
295.0064557169865793
 20
7.4084493110362208
 30
0.0
  0
VERTEX
  5
36184
  8
LOGO
 62
   150
 10
295.0064557169865793
 20
16.4084493110362217
 30
0.0
  0
VERTEX
  5
36185
  8
LOGO
 62
   150
 10
300.0064557169865793
 20
16.4084493110362217
 30
0.0
 42
-0.7007983443495949
  0
VERTEX
  5
36186
  8
LOGO
 62
   150
 10
301.6103866834707219
 20
11.9907930710511792
 30
0.0
  0
VERTEX
  5
36187
  8
LOGO
 62
   150
 10
302.1245298764720815
 20
10.0719845524029399
 30
0.0
 42
0.3394542588633795
  0
VERTEX
  5
36188
  8
LOGO
 62
   150
 10
303.3802334506480065
 20
9.1084493110362459
 30
0.0
  0
VERTEX
  5
36189
  8
LOGO
 62
   150
 10
304.89727594077101
 20
9.1084493110362317
 30
0.0
 42
-4.3731202552254533
  0
VERTEX
  5
3618A
  8
LOGO
 62
   150
 10
308.4200589315327079
 20
7.4084493110362208
 30
0.0
  0
VERTEX
  5
3618B
  8
LOGO
 62
   150
 10
303.3802334506480065
 20
7.408449311036243
 30
0.0
 42
-0.3394542588633795
  0
VERTEX
  5
3618C
  8
LOGO
 62
   150
 10
300.4824559717807233
 20
9.6319921757287048
 30
0.0
  0
VERTEX
  5
3618D
  8
LOGO
 62
   150
 10
300.0064557169865793
 20
11.40844931103622
 30
0.0
  0
VERTEX
  5
3618E
  8
LOGO
 62
   150
 10
300.0064557169865793
 20
11.40844931103622
 30
0.0
  0
VERTEX
  5
3618F
  8
LOGO
 62
   150
 10
296.7064557169866248
 20
11.40844931103622
 30
0.0
  0
VERTEX
  5
36190
  8
LOGO
 62
   150
 10
296.7064557169866248
 20
7.4084493110362502
 30
0.0
  0
SEQEND
  5
36191
  8
LOGO
 62
   150
  0
ATTDEF
  5
3163
  8
ARTNR
 62
     2
 10
232.3652854163572101
 20
20.8752386295816414
 30
0.0
 40
2.2999999999999989
  1

 41
0.8
  3

  2
INDEX_B
 70
     0
1001
AcDbAttr
1070
     0
1070
     1
  0
ATTDEF
  5
3164
  8
TEXT25
 10
237.4735480944146104
 20
20.8490645513290893
 30
0.0
 40
2.0
  1

 41
0.65
  3

  2
ÄNDERUNG_B
 70
     0
1001
AcDbAttr
1070
     0
1070
     1
  0
ATTDEF
  5
3165
  8
TEXT25
 10
257.206823405726027
 20
20.7719995032729194
 30
0.0
 40
2.0
  1

 41
0.7
  3

  2
TAG_B
 70
     0
1001
AcDbAttr
1070
     0
1070
     1
  0
ATTDEF
  5
3166
  8
TEXT25
 10
268.8855020211000806
 20
20.6464340937517292
 30
0.0
 40
2.0
  1

 41
0.7
  3

  2
NAME_B
 70
     0
1001
AcDbAttr
1070
     0
1070
     1
  0
ATTDEF
  5
3167
  8
HILF
 10
232.3593688756151892
 20
25.7638363587929007
 30
0.0
 40
2.2999999999999989
  1

 41
0.8
  3

  2
INDEX_C
 70
     0
1001
AcDbAttr
1070
     0
1070
     1
  0
ATTDEF
  5
3168
  8
TEXT25
 10
237.5200960998635935
 20
25.75041620792069
 30
0.0
 40
2.0
  1

 41
0.65
  3

  2
ÄNDERUNG_C
 70
     0
1001
AcDbAttr
1070
     0
1070
     1
  0
ATTDEF
  5
3169
  8
TEXT25
 10
257.0587616822435848
 20
25.7498244030102796
 30
0.0
 40
2.0
  1

 41
0.7
  3

  2
TAG_C
 70
     0
1001
AcDbAttr
1070
     0
1070
     1
  0
ATTDEF
  5
316A
  8
TEXT25
 10
268.7203600954251215
 20
25.6724595543827299
 30
0.0
 40
2.0
  1

 41
0.7
  3

  2
NAME_C
 70
     0
1001
AcDbAttr
1070
     0
1070
     1
  0
ATTDEF
  5
316B
  8
HILF
 10
232.4479837688278963
 20
30.6191576420784486
 30
0.0
 40
2.2999999999999989
  1

 41
0.8
  3

  2
INDEX_D
 70
     0
1001
AcDbAttr
1070
     0
1070
     1
  0
ATTDEF
  5
316C
  8
TEXT25
 10
237.5421469955873022
 20
30.5732647659611985
 30
0.0
 40
2.0
  1

 41
0.65
  3

  2
ÄNDERUNG_D
 70
     0
1001
AcDbAttr
1070
     0
1070
     1
  0
ATTDEF
  5
316D
  8
TEXT25
 10
257.2032664873402155
 20
30.6676048474138305
 30
0.0
 40
2.0
  1

 41
0.7
  3

  2
TAG_D
 70
     0
1001
AcDbAttr
1070
     0
1070
     1
  0
ATTDEF
  5
316E
  8
TEXT25
 10
268.773504052993303
 20
30.5831957484815611
 30
0.0
 40
2.0
  1

 41
0.7
  3

  2
NAME_D
 70
     0
1001
AcDbAttr
1070
     0
1070
     1
  0
ATTDEF
  5
316F
  8
HILF
 10
232.3219712758449873
 20
35.7360992206624815
 30
0.0
 40
2.2999999999999989
  1

 41
0.8
  3

  2
INDEX_E
 70
     0
1001
AcDbAttr
1070
     0
1070
     1
  0
ATTDEF
  5
3170
  8
TEXT25
 10
237.5858174940273955
 20
35.7393332395919288
 30
0.0
 40
2.0
  1

 41
0.65
  3

  2
ÄNDERUNG_E
 70
     0
1001
AcDbAttr
1070
     0
1070
     1
  0
ATTDEF
  5
3171
  8
TEXT25
 10
257.0861812600251142
 20
35.4745972863460111
 30
0.0
 40
2.0
  1

 41
0.7
  3

  2
TAG_E
 70
     0
1001
AcDbAttr
1070
     0
1070
     1
  0
ATTDEF
  5
3172
  8
TEXT25
 10
268.7466006946403922
 20
35.501078252653997
 30
0.0
 40
2.0
  1

 41
0.7
  3

  2
NAME_E
 70
     0
1001
AcDbAttr
1070
     0
1070
     1
  0
ATTDEF
  5
3173
  8
HILF
 10
232.3707523466291889
 20
40.4633673875579234
 30
0.0
 40
2.2999999999999989
  1

 41
0.8
  3

  2
INDEX_F
 70
     0
1001
AcDbAttr
1070
     0
1070
     1
  0
ATTDEF
  5
3174
  8
TEXT25
 10
237.5360456149851132
 20
40.4505773140094718
 30
0.0
 40
2.0
  1

 41
0.65
  3

  2
ÄNDERUNG_F
 70
     0
1001
AcDbAttr
1070
     0
1070
     1
  0
ATTDEF
  5
3175
  8
TEXT25
 10
257.1431119368861005
 20
40.3181994149089107
 30
0.0
 40
2.0
  1

 41
0.7
  3

  2
TAG_F
 70
     0
1001
AcDbAttr
1070
     0
1070
     1
  0
ATTDEF
  5
3176
  8
TEXT25
 10
268.7522374777565801
 20
40.3181994149089107
 30
0.0
 40
2.0
  1

 41
0.7
  3

  2
NAME_F
 70
     0
1001
AcDbAttr
1070
     0
1070
     1
  0
ATTDEF
  5
3177
  8
HILF
 10
232.3921121744076004
 20
45.3347489094896829
 30
0.0
 40
2.2999999999999989
  1

 41
0.8
  3

  2
INDEX_G
 70
     0
1001
AcDbAttr
1070
     0
1070
     1
  0
ATTDEF
  5
3178
  8
TEXT25
 10
237.5708321435809012
 20
45.2927385570839078
 30
0.0
 40
2.0
  1

 41
0.65
  3

  2
ÄNDERUNG_G
 70
     0
1001
AcDbAttr
1070
     0
1070
     1
  0
ATTDEF
  5
3179
  8
TEXT25
 10
257.2024471971502066
 20
45.0679887708256501
 30
0.0
 40
2.0
  1

 41
0.7
  3

  2
TAG_G
 70
     0
1001
AcDbAttr
1070
     0
1070
     1
  0
ATTDEF
  5
317A
  8
TEXT25
 10
268.7873087596499886
 20
45.0252909324761887
 30
0.0
 40
2.0
  1

 41
0.7
  3

  2
NAME_G
 70
     0
1001
AcDbAttr
1070
     0
1070
     1
  0
ENDBLK
  5
204E
  8
0
  0
BLOCK
  8
0
  2
*S7
 70
     1
 10
0.0
 20
0.0
 30
0.0
  3
*S7
  1

  0
ENDBLK
  5
2101
  8
0
  0
BLOCK
  8
0
  2
A$C618D6A21
 70
     2
 10
0.0
 20
0.0
 30
0.0
  3
A$C618D6A21
  1

  0
LINE
  5
3997
  8
STEMPEL
 10
398.5659989243869745
 20
52.821998039377938
 30
0.0
 11
225.6939989243869036
 21
52.821998039377938
 31
0.0
  0
LINE
  5
3998
  8
STEMPEL
 10
225.6939989243869036
 20
52.821998039377938
 30
0.0
 11
225.6939989243869036
 21
4.801998039377934
 31
0.0
  0
LINE
  5
3999
  8
STEMPEL
 10
271.7931989243870134
 20
52.8219980393778883
 30
0.0
 11
271.7931989243868998
 21
4.8019980393778781
 31
0.0
  0
LINE
  5
399A
  8
STEMPEL
 10
312.1299989243869959
 20
52.821998039377938
 30
0.0
 11
312.1299989243869959
 21
4.801998039377934
 31
0.0
  0
LINE
  5
399B
  8
STEMPEL
 10
361.1103989243870274
 20
52.8219980393777675
 30
0.0
 11
361.1103989243870274
 21
19.2079980393779408
 31
0.0
  0
LINE
  5
399C
  8
STEMPEL
 10
271.7931989243868998
 20
14.4059980393779199
 30
0.0
 11
225.6939989243869036
 21
14.4059980393779199
 31
0.0
  0
LINE
  5
399D
  8
STEMPEL
 10
398.5659989243869745
 20
19.2079980393779408
 30
0.0
 11
271.7931989243868998
 21
19.2079980393779408
 31
0.0
  0
LINE
  5
399E
  8
STEMPEL
 10
398.5659989243869745
 20
38.4159980393779108
 30
0.0
 11
271.7931989243870134
 21
38.4159980393779108
 31
0.0
  0
LINE
  5
399F
  8
VOLL
 10
232.4167989243869954
 20
52.821998039377938
 30
0.0
 11
232.4167989243869954
 21
4.801998039377934
 31
0.0
  0
LINE
  5
39A0
  8
VOLL
 10
251.6247989243869085
 20
52.8219980393779167
 30
0.0
 11
251.6247989243869085
 21
4.8019980393779056
 31
0.0
  0
LINE
  5
39A1
  8
VOLL
 10
261.2287989243869788
 20
52.8219980393778883
 30
0.0
 11
261.228798924386922
 21
4.8019980393778781
 31
0.0
  0
LINE
  5
39A2
  8
VOLL
 10
280.4367989243871193
 20
38.4159980393779108
 30
0.0
 11
280.4367989243871193
 21
19.2079980393779408
 31
0.0
  0
LINE
  5
39A3
  8
VOLL
 10
292.9219989243870259
 20
52.8219980393778528
 30
0.0
 11
292.9219989243867985
 21
19.2079980393779408
 31
0.0
  0
LINE
  5
39A4
  8
HILF
 10
225.6939989243869036
 20
48.0199980393779313
 30
0.0
 11
271.7931989243870134
 21
48.0199980393779313
 31
0.0
  0
LINE
  5
39A5
  8
HILF
 10
225.6939989243869036
 20
43.2179980393779317
 30
0.0
 11
271.7931989243870134
 21
43.2179980393779317
 31
0.0
  0
LINE
  5
39A6
  8
HILF
 10
225.6939989243869036
 20
38.4159980393779108
 30
0.0
 11
271.7931989243870134
 21
38.4159980393779108
 31
0.0
  0
LINE
  5
39A7
  8
HILF
 10
225.6939989243869036
 20
33.6139980393779467
 30
0.0
 11
271.7931989243870134
 21
33.6139980393779467
 31
0.0
  0
LINE
  5
39A8
  8
HILF
 10
225.6939989243869036
 20
28.8119980393779507
 30
0.0
 11
271.7931989243870134
 21
28.8119980393779507
 31
0.0
  0
LINE
  5
39A9
  8
HILF
 10
225.6939989243869036
 20
24.0099980393779298
 30
0.0
 11
271.7931989243870134
 21
24.0099980393779298
 31
0.0
  0
LINE
  5
39AA
  8
HILF
 10
225.6939989243869036
 20
19.2079980393779408
 30
0.0
 11
271.7931989243870134
 21
19.2079980393779408
 31
0.0
  0
LINE
  5
39AB
  8
HILF
 10
271.7931989243870134
 20
33.6139980393779467
 30
0.0
 11
312.1299989243869959
 21
33.6139980393779467
 31
0.0
  0
LINE
  5
39AC
  8
HILF
 10
271.7931989243870134
 20
28.8119980393779507
 30
0.0
 11
312.1299989243869959
 21
28.8119980393779507
 31
0.0
  0
LINE
  5
39AD
  8
HILF
 10
271.7931989243870134
 20
24.0099980393779298
 30
0.0
 11
312.1299989243869959
 21
24.0099980393779298
 31
0.0
  0
LINE
  5
39AE
  8
HILF
 10
314.4223201130624261
 20
40.3548451441808922
 30
0.0
 11
358.5316213219483075
 21
40.3548451441808922
 31
0.0
  0
LINE
  5
39AF
  8
HILF
 10
314.4223201130624261
 20
33.6139980393779467
 30
0.0
 11
358.5316213219483075
 21
33.6139980393779467
 31
0.0
  0
LINE
  5
39B0
  8
HILF
 10
314.4223201130624261
 20
28.8119980393779507
 30
0.0
 11
358.5316213219483075
 21
28.8119980393779507
 31
0.0
  0
LINE
  5
39B1
  8
HILF
 10
314.4223201130624261
 20
24.0099980393779298
 30
0.0
 11
358.5316213219483075
 21
24.0099980393779298
 31
0.0
  0
LINE
  5
39B2
  8
VOLL
 10
361.1103989243870274
 20
28.8119980393779507
 30
0.0
 11
398.5659989243869745
 21
28.8119980393779507
 31
0.0
  0
LINE
  5
39B3
  8
HILF
 10
363.3787972789685909
 20
40.231075464039769
 30
0.0
 11
396.097234988856485
 21
40.231075464039769
 31
0.0
  0
LINE
  5
39B4
  8
HILF
 10
314.4223201130624261
 20
7.1520884744298314
 30
0.0
 11
396.097234988856485
 21
7.1520884744298314
 31
0.0
  0
TEXT
  5
39B5
  8
TEXT25
 10
236.8620789243869922
 20
8.7807980393779559
 30
0.0
 40
1.920799999999999
  1
Änderung
 41
0.8
 72
     4
 11
242.0207989243870088
 21
9.6039980393779558
 31
0.0
  0
TEXT
  5
39B6
  8
TEXT25
 10
314.4723858952954743
 20
49.2439955705035572
 30
0.0
 40
2.4009999999999998
  1
Benennung
 41
0.8
  0
TEXT
  5
39B7
  8
TEXT25
 10
363.1170370550428856
 20
49.1307983378512176
 30
0.0
 40
2.4009999999999998
  1
Zeichnungs Nr.
 41
0.8
  0
TEXT
  5
39B8
  8
TEXT25
 10
314.4072217998104861
 20
14.8120578974449906
 30
0.0
 40
2.4009999999999998
  1
Bauvorhaben
 41
0.8
  0
TEXT
  5
39B9
  8
TEXT25
 10
363.3787972789685909
 20
35.1416018139319704
 30
0.0
 40
2.4009999999999998
  1
Ersatz für:
 41
0.8
  0
TEXT
  5
39BA
  8
TEXT25
 10
229.6635295204206955
 20
6.5569650320005053
 30
0.0
 40
1.920799999999999
  1
Index
 50
90.0
 41
0.8
  0
TEXT
  5
39BB
  8
TEXT25
 10
254.6340522577202989
 20
8.9637313727112886
 30
0.0
 40
1.920799999999999
  1
Tag
 41
0.8
 72
     4
 11
256.4267989243870147
 21
9.6039980393779558
 31
0.0
  0
TEXT
  5
39BC
  8
TEXT25
 10
263.4743055910535077
 20
8.6435980393779541
 30
0.0
 40
1.920799999999999
  1
Name
 41
0.8
 72
     4
 11
266.5109989243869109
 21
9.6039980393779558
 31
0.0
  0
TEXT
  5
39BD
  8
TEXT25
 10
272.5536497509759215
 20
30.5550777942833918
 30
0.0
 40
1.920799999999999
  1
Gez.
 41
0.8
  0
TEXT
  5
39BE
  8
TEXT25
 10
272.538233381558598
 20
25.781582090816979
 30
0.0
 40
1.920799999999999
  1
Gepr.
 41
0.8
  0
TEXT
  5
39BF
  8
TEXT25
 10
272.5618443745250943
 20
20.90284660247627
 30
0.0
 40
1.920799999999999
  1
Norm.
 41
0.8
  0
TEXT
  5
39C0
  8
TEXT25
 10
363.6266882934731939
 20
25.0060105255509804
 30
0.0
 40
2.4009999999999998
  1
ersetzt durch:
 41
0.8
  0
LINE
  5
39C1
  8
HILF
 10
-0.0000010756129996
 20
-0.0000019606220576
 30
0.0
 11
403.3679989243868818
 21
-0.0000019606220576
 31
0.0
  0
LINE
  5
39C2
  8
HILF
 10
403.3679989243868818
 20
-0.0000019606220576
 30
0.0
 11
403.3679989243868818
 21
285.2387980393779117
 31
0.0
  0
LINE
  5
39C3
  8
HILF
 10
403.3679989243868818
 20
285.2387980393779117
 30
0.0
 11
-0.0000010756129996
 21
285.2387980393779117
 31
0.0
  0
LINE
  5
39C4
  8
HILF
 10
-0.0000010756129996
 20
285.2387980393779117
 30
0.0
 11
-0.0000010756129996
 21
-0.0000019606220576
 31
0.0
  0
LINE
  5
39C5
  8
STEMPEL
 10
398.5659989243869745
 20
280.4367980393778907
 30
0.0
 11
19.2079989243870308
 21
280.4367980393778907
 31
0.0
  0
LINE
  5
39C6
  8
STEMPEL
 10
19.2079989243870308
 20
4.801998039377934
 30
0.0
 11
398.5659989243869745
 21
4.801998039377934
 31
0.0
  0
LINE
  5
39C7
  8
STEMPEL
 10
398.5659989243869745
 20
4.801998039377934
 30
0.0
 11
398.5659989243869745
 21
280.4367980393778907
 31
0.0
  0
LINE
  5
39C8
  8
STEMPEL
 10
19.2079989243870308
 20
280.4367980393778907
 30
0.0
 11
19.2079989243870308
 21
4.801998039377934
 31
0.0
  0
TEXT
  5
39C9
  8
TEXT25
 10
401.6456202236414015
 20
5.0679234919871021
 30
0.0
 40
2.4009999999999998
  1
Diese Zeichnung ist urheberrechtlich geschuetzt und bleibt unser Eigentum. Sie darf weder ganz noch teilweise vervielfaeltigt und nicht an Dritte weitergegeben werden.
 50
90.0
 41
0.8
  0
LINE
  5
39CA
  8
HILF
 10
220.89199892438711
 20
-0.0000019606220576
 30
0.0
 11
220.89199892438711
 21
4.801998039377934
 31
0.0
  0
LINE
  5
39CB
  8
HILF
 10
220.89199892438711
 20
280.4367980393778907
 30
0.0
 11
220.89199892438711
 21
285.2387980393779117
 31
0.0
  0
TEXT
  5
39CC
  8
TEXT25
 10
276.6866655910537247
 20
49.2439955705035786
 30
0.0
 40
2.4009999999999998
  1
Maßstab
 41
0.8
 72
     1
 11
282.3575989243869913
 21
49.2439955705035786
 31
0.0
  0
TEXT
  5
39CD
  8
TEXT25
 10
296.0775989243870185
 20
49.2439955705035572
 30
0.0
 40
2.4009999999999998
  1
Zul. Abw.
 41
0.8
 72
     1
 11
302.5259989243870109
 21
49.2439955705035572
 31
0.0
  0
TEXT
  5
39CE
  8
TEXT25
 10
284.8866522577201863
 20
35.3747313727112598
 30
0.0
 40
1.920799999999999
  1
Tag
 41
0.8
 72
     4
 11
286.6793989243868737
 21
36.0149980393779288
 31
0.0
  0
TEXT
  5
39CF
  8
TEXT25
 10
299.4893055910536077
 20
35.0545980393779288
 30
0.0
 40
1.920799999999999
  1
Name
 41
0.8
 72
     4
 11
302.5259989243870109
 21
36.0149980393779288
 31
0.0
  0
INSERT
  5
39D0
  8
0
  2
*U36
 10
0.0
 20
0.0
 30
0.0
  0
CIRCLE
  5
39D5
  8
LOGO
 62
   150
 10
284.6219508137655225
 20
11.6702783641933898
 30
0.0
 40
2.7439999999999989
  0
CIRCLE
  5
39D6
  8
LOGO
 62
   150
 10
302.2516566772890201
 20
11.6702783641934502
 30
0.0
 40
2.7439999999999989
  0
CIRCLE
  5
39D7
  8
HILF
 62
   150
 10
308.1171637064168749
 20
14.7121766563431304
 30
0.0
 40
1.2250000000000001
  0
INSERT
  5
39D8
  8
0
  2
*U37
 10
0.0
 20
0.0
 30
0.0
  0
POLYLINE
  5
39D9
  8
LOGO
 62
   150
 66
     1
 10
0.0
 20
0.0
 30
0.0
 70
     1
  0
VERTEX
  5
3619A
  8
LOGO
 62
   150
 10
294.0063255270338232
 20
12.8462783641934397
 30
0.0
 42
0.9999999999999998
  0
VERTEX
  5
3619B
  8
LOGO
 62
   150
 10
294.0063255270338232
 20
14.4142783641934198
 30
0.0
  0
VERTEX
  5
3619C
  8
LOGO
 62
   150
 10
290.7723255270338996
 20
14.4142783641934198
 30
0.0
  0
VERTEX
  5
3619D
  8
LOGO
 62
   150
 10
290.7723255270338996
 20
12.8462783641934397
 30
0.0
  0
SEQEND
  5
3619E
  8
LOGO
 62
   150
  0
POLYLINE
  5
39DA
  8
LOGO
 62
   150
 66
     1
 10
0.0
 20
0.0
 30
0.0
 70
     1
  0
VERTEX
  5
3619F
  8
LOGO
 62
   150
 10
277.4679508137655262
 20
10.2002783641934496
 30
0.0
  0
VERTEX
  5
361A0
  8
LOGO
 62
   150
 10
277.4679508137655262
 20
16.0802783641934504
 30
0.0
  0
VERTEX
  5
361A1
  8
LOGO
 62
   150
 10
275.8019508137654157
 20
16.0802783641934504
 30
0.0
  0
VERTEX
  5
361A2
  8
LOGO
 62
   150
 10
275.8019508137654157
 20
10.2002783641934496
 30
0.0
 42
0.4142135623730961
  0
VERTEX
  5
361A3
  8
LOGO
 62
   150
 10
278.7419508137655271
 20
7.2602783641934527
 30
0.0
  0
VERTEX
  5
361A4
  8
LOGO
 62
   150
 10
284.6219508137655225
 20
7.2602783641934527
 30
0.0
 42
4.3731202552251798
  0
VERTEX
  5
361A5
  8
LOGO
 62
   150
 10
281.1696234828186789
 20
8.9262783641935926
 30
0.0
  0
VERTEX
  5
361A6
  8
LOGO
 62
   150
 10
278.7419508137655271
 20
8.9262783641935641
 30
0.0
 42
-0.4142135623730961
  0
SEQEND
  5
361A7
  8
LOGO
 62
   150
  0
POLYLINE
  5
39DB
  8
LOGO
 62
   150
 66
     1
 10
0.0
 20
0.0
 30
0.0
 70
     1
  0
VERTEX
  5
361A8
  8
LOGO
 62
   150
 10
289.1063255270339027
 20
7.2602783641934527
 30
0.0
  0
VERTEX
  5
361A9
  8
LOGO
 62
   150
 10
289.1063255270339027
 20
16.0802783641934504
 30
0.0
  0
VERTEX
  5
361AA
  8
LOGO
 62
   150
 10
294.0063255270338232
 20
16.0802783641934504
 30
0.0
 42
-0.7007983443495949
  0
VERTEX
  5
361AB
  8
LOGO
 62
   150
 10
295.5781778741882135
 20
11.7509752490080892
 30
0.0
  0
VERTEX
  5
361AC
  8
LOGO
 62
   150
 10
296.0820382033296028
 20
9.8705429007328007
 30
0.0
 42
0.3394542588633795
  0
VERTEX
  5
361AD
  8
LOGO
 62
   150
 10
297.3126277060219991
 20
8.9262783641934504
 30
0.0
  0
VERTEX
  5
361AE
  8
LOGO
 62
   150
 10
298.7993293463425744
 20
8.926278364193422
 30
0.0
 42
-4.3731202552254533
  0
VERTEX
  5
361AF
  8
LOGO
 62
   150
 10
302.2516566772890201
 20
7.2602783641934527
 30
0.0
  0
VERTEX
  5
361B0
  8
LOGO
 62
   150
 10
297.3126277060219991
 20
7.2602783641934527
 30
0.0
 42
-0.3394542588633795
  0
VERTEX
  5
361B1
  8
LOGO
 62
   150
 10
294.4728057767321161
 20
9.4393503715920701
 30
0.0
  0
VERTEX
  5
361B2
  8
LOGO
 62
   150
 10
294.0063255270338232
 20
11.1802783641934393
 30
0.0
  0
VERTEX
  5
361B3
  8
LOGO
 62
   150
 10
294.0063255270338232
 20
11.1802783641934393
 30
0.0
  0
VERTEX
  5
361B4
  8
LOGO
 62
   150
 10
290.7723255270338996
 20
11.1802783641934393
 30
0.0
  0
VERTEX
  5
361B5
  8
LOGO
 62
   150
 10
290.7723255270338996
 20
7.2602783641934527
 30
0.0
  0
SEQEND
  5
361B6
  8
LOGO
 62
   150
  0
LINE
  5
39DC
  8
HILF
 10
271.7931994258584041
 20
52.821997377595352
 30
0.0
 11
271.7931994258584041
 21
65.56199737759556
 31
0.0
  0
LINE
  5
39DD
  8
HILF
 10
225.6939989243869036
 20
65.56199737759556
 30
0.0
 11
398.5659994258584788
 21
65.5619973775955032
 31
0.0
  0
INSERT
  5
39DE
  8
0
  2
*U38
 10
0.0
 20
0.0
 30
0.0
  0
LINE
  5
39DF
  8
HILF
 10
225.6939989243869036
 20
52.821997377595352
 30
0.0
 11
225.6939989243869036
 21
65.56199737759556
 31
0.0
  0
ATTDEF
  5
39E0
  8
VOLL
 10
394.4519519439759279
 20
41.283190153591157
 30
0.0
 40
3.3613999999999988
  1

 41
0.8
 72
     2
 11
394.4519519439759279
 21
41.283190153591157
 31
0.0
  3

  2
ZEICHNUNGSNUMMER
 70
     0
1001
AcDbAttr
1070
     0
1070
     1
  0
ATTDEF
  5
39E1
  8
VOLL
 10
314.4223201130624261
 20
41.3195316630052503
 30
0.0
 40
3.3613999999999988
  1

 41
0.8
  3

  2
BENENNUNG
 70
     0
1001
AcDbAttr
1070
     0
1070
     1
  0
ATTDEF
  5
39E2
  8
TEXT25
 10
314.4223201130624261
 20
34.4008825444933919
 30
0.0
 40
2.4009999999999998
  1

 41
0.8
  3

  2
ZEILE1
 70
     0
1001
AcDbAttr
1070
     0
1070
     1
  0
ATTDEF
  5
39E3
  8
TEXT25
 10
314.4223201130624261
 20
29.5926487449418083
 30
0.0
 40
2.4009999999999998
  1

 41
0.8
  3

  2
ZEILE2
 70
     0
1001
AcDbAttr
1070
     0
1070
     1
  0
ATTDEF
  5
39E4
  8
TEXT25
 10
314.4223201130624261
 20
24.7844149453901785
 30
0.0
 40
2.4009999999999998
  1

 41
0.8
  3

  2
EDV-ART
 70
     0
1001
AcDbAttr
1070
     0
1070
     1
  0
ATTDEF
  5
39E5
  8
HILF
 10
293.7862689045298907
 20
42.5481733907318969
 30
0.0
 40
2.1560000000000001
  1

 41
0.7
  3

  2
DIN
 70
     0
1001
AcDbAttr
1070
     0
1070
     1
  0
ATTDEF
  5
39E6
  8
HILF
 10
277.4399001278791275
 20
42.6910797467242773
 30
0.0
 40
2.1560000000000001
  1

 41
0.8
  3

  2
MAßSTAB
 70
     0
1001
AcDbAttr
1070
     0
1070
     1
  0
ATTDEF
  5
39E7
  8
HILF
 62
     7
 10
281.9777477704000717
 20
29.9951970860508403
 30
0.0
 40
1.9599999999999991
  1

 41
0.8
  3

  2
DATUM
 70
     0
1001
AcDbAttr
1070
     0
1070
     1
  0
ATTDEF
  5
39E8
  8
HILF
 10
227.7219036309037961
 20
15.6779488994783591
 30
0.0
 40
2.254
  1

 41
0.8
  3

  2
INDEX
 70
     0
1001
AcDbAttr
1070
     0
1070
     1
  0
ATTDEF
  5
39E9
  8
BEM
 10
232.764279293544206
 20
15.5740570312781603
 30
0.0
 40
1.9599999999999991
  1

 41
0.7
  3

  2
ÄNDERUNG
 70
     0
1001
AcDbAttr
1070
     0
1070
     1
  0
ATTDEF
  5
39EA
  8
BEM
 10
251.8941179147032017
 20
15.6260034302645998
 30
0.0
 40
1.9599999999999991
  1

 41
0.7
  3

  2
TAG
 70
     0
1001
AcDbAttr
1070
     0
1070
     1
  0
ATTDEF
  5
39EB
  8
TEXT25
 10
263.5871013128635241
 20
15.5419667156941692
 30
0.0
 40
1.9599999999999991
  1

 41
0.7
  3

  2
ÄND.NAME
 70
     0
1001
AcDbAttr
1070
     0
1070
     1
  0
ATTDEF
  5
39EC
  8
VOLL
 10
384.5144756958982271
 20
31.5629892213255303
 30
0.0
 40
2.7439999999999989
  1

 41
0.8
 72
     4
 11
384.5144756958982271
 21
31.5629892213255303
 31
0.0
  3

  2
ERSATZFÜR
 70
     0
1001
AcDbAttr
1070
     0
1070
     1
  0
ATTDEF
  5
39ED
  8
ARTNR
 62
     2
 10
227.7179786324169868
 20
20.4577318963679602
 30
0.0
 40
2.254
  1

 41
0.8
  3

  2
INDEX_B
 70
     0
1001
AcDbAttr
1070
     0
1070
     1
  0
ATTDEF
  5
39EE
  8
TEXT25
 10
232.7240760569131908
 20
20.4320812996804513
 30
0.0
 40
1.9599999999999991
  1

 41
0.65
  3

  2
ÄNDERUNG_B
 70
     0
1001
AcDbAttr
1070
     0
1070
     1
  0
ATTDEF
  5
39EF
  8
TEXT25
 10
252.0626858619984887
 20
20.3565575525854001
 30
0.0
 40
1.9599999999999991
  1

 41
0.7
  3

  2
TAG_B
 70
     0
1001
AcDbAttr
1070
     0
1070
     1
  0
ATTDEF
  5
39F0
  8
TEXT25
 10
263.5077909050651215
 20
20.2335034512546486
 30
0.0
 40
1.9599999999999991
  1

 41
0.7
  3

  2
NAME_B
 70
     0
1001
AcDbAttr
1070
     0
1070
     1
  0
ATTDEF
  5
39F1
  8
HILF
 10
227.7121804224900075
 20
25.248557670994991
 30
0.0
 40
2.254
  1

 41
0.8
  3

  2
INDEX_C
 70
     0
1001
AcDbAttr
1070
     0
1070
     1
  0
ATTDEF
  5
39F2
  8
TEXT25
 10
232.7696931022533136
 20
25.2354059231402097
 30
0.0
 40
1.9599999999999991
  1

 41
0.65
  3

  2
ÄNDERUNG_C
 70
     0
1001
AcDbAttr
1070
     0
1070
     1
  0
ATTDEF
  5
39F3
  8
TEXT25
 10
251.9175853729855987
 20
25.23482595432802
 30
0.0
 40
1.9599999999999991
  1

 41
0.7
  3

  2
TAG_C
 70
     0
1001
AcDbAttr
1070
     0
1070
     1
  0
ATTDEF
  5
39F4
  8
TEXT25
 10
263.3459518179035967
 20
25.1590084026730096
 30
0.0
 40
1.9599999999999991
  1

 41
0.7
  3

  2
NAME_C
 70
     0
1001
AcDbAttr
1070
     0
1070
     1
  0
ATTDEF
  5
39F5
  8
HILF
 10
227.7990230178382944
 20
30.006772528614821
 30
0.0
 40
2.254
  1

 41
0.8
  3

  2
INDEX_D
 70
     0
1001
AcDbAttr
1070
     0
1070
     1
  0
ATTDEF
  5
39F6
  8
TEXT25
 10
232.7913029800625111
 20
29.9617975100199203
 30
0.0
 40
1.9599999999999991
  1

 41
0.65
  3

  2
ÄNDERUNG_D
 70
     0
1001
AcDbAttr
1070
     0
1070
     1
  0
ATTDEF
  5
39F7
  8
TEXT25
 10
252.059200081980407
 20
30.0542507898434792
 30
0.0
 40
1.9599999999999991
  1

 41
0.7
  3

  2
TAG_D
 70
     0
1001
AcDbAttr
1070
     0
1070
     1
  0
ATTDEF
  5
39F8
  8
TEXT25
 10
263.3980328963203874
 20
29.9715298728898816
 30
0.0
 40
1.9599999999999991
  1

 41
0.7
  3

  2
NAME_D
 70
     0
1001
AcDbAttr
1070
     0
1070
     1
  0
ATTDEF
  5
39F9
  8
HILF
 10
227.6755307747150994
 20
35.0213752756271788
 30
0.0
 40
2.254
  1

 41
0.8
  3

  2
INDEX_E
 70
     0
1001
AcDbAttr
1070
     0
1070
     1
  0
ATTDEF
  5
39FA
  8
TEXT25
 10
232.8341000685338997
 20
35.0245446141780121
 30
0.0
 40
1.9599999999999991
  1

 41
0.65
  3

  2
ÄNDERUNG_E
 70
     0
1001
AcDbAttr
1070
     0
1070
     1
  0
ATTDEF
  5
39FB
  8
TEXT25
 10
251.9444565592114884
 20
34.7651033799970222
 30
0.0
 40
1.9599999999999991
  1

 41
0.7
  3

  2
TAG_E
 70
     0
1001
AcDbAttr
1070
     0
1070
     1
  0
ATTDEF
  5
39FC
  8
TEXT25
 10
263.3716676051345758
 20
34.7910547269788424
 30
0.0
 40
1.9599999999999991
  1

 41
0.7
  3

  2
NAME_E
 70
     0
1001
AcDbAttr
1070
     0
1070
     1
  0
ATTDEF
  5
39FD
  8
HILF
 10
227.7233362240835106
 20
39.6540980791847133
 30
0.0
 40
2.254
  1

 41
0.8
  3

  2
INDEX_F
 70
     0
1001
AcDbAttr
1070
     0
1070
     1
  0
ATTDEF
  5
39FE
  8
TEXT25
 10
232.7853236270723869
 20
39.6415638071072181
 30
0.0
 40
1.9599999999999991
  1

 41
0.65
  3

  2
ÄNDERUNG_F
 70
     0
1001
AcDbAttr
1070
     0
1070
     1
  0
ATTDEF
  5
39FF
  8
TEXT25
 10
252.0002486225353096
 20
39.5118334659886727
 30
0.0
 40
1.9599999999999991
  1

 41
0.7
  3

  2
TAG_F
 70
     0
1001
AcDbAttr
1070
     0
1070
     1
  0
ATTDEF
  5
3A00
  8
TEXT25
 10
263.377191652588408
 20
39.5118334659886727
 30
0.0
 40
1.9599999999999991
  1

 41
0.7
  3

  2
NAME_F
 70
     0
1001
AcDbAttr
1070
     0
1070
     1
  0
ATTDEF
  5
3A01
  8
HILF
 10
227.7442688553065011
 20
44.4280519706778421
 30
0.0
 40
2.254
  1

 41
0.8
  3

  2
INDEX_G
 70
     0
1001
AcDbAttr
1070
     0
1070
     1
  0
ATTDEF
  5
3A02
  8
TEXT25
 10
232.819414425096312
 20
44.3868818253201596
 30
0.0
 40
1.9599999999999991
  1

 41
0.65
  3

  2
ÄNDERUNG_G
 70
     0
1001
AcDbAttr
1070
     0
1070
     1
  0
ATTDEF
  5
3A03
  8
TEXT25
 10
252.0583971775940881
 20
44.1666270347870622
 30
0.0
 40
1.9599999999999991
  1

 41
0.7
  3

  2
TAG_G
 70
     0
1001
AcDbAttr
1070
     0
1070
     1
  0
ATTDEF
  5
3A04
  8
TEXT25
 10
263.4115615088438744
 20
44.1247831532046177
 30
0.0
 40
1.9599999999999991
  1

 41
0.7
  3

  2
NAME_G
 70
     0
1001
AcDbAttr
1070
     0
1070
     1
  0
ENDBLK
  5
3A08
  8
0
  0
BLOCK
  8
0
  2
*U9
 70
     1
 10
0.0
 20
0.0
 30
0.0
  3
*U9
  1

  0
ENDBLK
  5
3EBB
  8
0
  0
BLOCK
  8
0
  2
DIN_A4_NEU
 70
     2
 10
0.0
 20
0.0
 30
0.0
  3
DIN_A4_NEU
  1

  0
LINE
  5
3F11
  8
STEMPEL
 10
200.9000000000000057
 20
53.900000000000027
 30
0.0
 11
19.5999999999999908
 21
53.8999999999999986
 31
0.0
  0
LINE
  5
3F12
  8
STEMPEL
 10
66.6400000000000432
 20
53.8999999999999702
 30
0.0
 11
66.6400000000000006
 21
4.8999999999999861
 31
0.0
  0
LINE
  5
3F13
  8
STEMPEL
 10
107.7999999999999972
 20
53.900000000000027
 30
0.0
 11
107.7999999999999972
 21
4.8999999999999861
 31
0.0
  0
LINE
  5
3F14
  8
STEMPEL
 10
162.6800000000000068
 20
53.899999999999892
 30
0.0
 11
162.6800000000000068
 21
19.6000000000000014
 31
0.0
  0
LINE
  5
3F15
  8
STEMPEL
 10
66.6399999999999437
 20
14.6999999999999797
 30
0.0
 11
19.5999999999999908
 21
14.6999999999999797
 31
0.0
  0
LINE
  5
3F16
  8
STEMPEL
 10
200.9000000000000057
 20
19.6000000000000014
 30
0.0
 11
66.6400000000000432
 21
19.5999999999999908
 31
0.0
  0
LINE
  5
3F17
  8
STEMPEL
 10
200.9000000000000057
 20
39.2000000000000028
 30
0.0
 11
66.6400000000000432
 21
39.1999999999999815
 31
0.0
  0
LINE
  5
3F18
  8
VOLL
 10
26.4600000000000399
 20
53.900000000000027
 30
0.0
 11
26.4599999999999902
 21
4.8999999999999861
 31
0.0
  0
LINE
  5
3F19
  8
VOLL
 10
46.060000000000052
 20
53.8999999999999702
 30
0.0
 11
46.0600000000000023
 21
4.8999999999999861
 31
0.0
  0
LINE
  5
3F1A
  8
VOLL
 10
55.8600000000000492
 20
53.8999999999999702
 30
0.0
 11
55.8599999999999994
 21
4.8999999999999861
 31
0.0
  0
LINE
  5
3F1B
  8
VOLL
 10
75.4600000000000506
 20
39.1999999999999815
 30
0.0
 11
75.4600000000000506
 21
19.5999999999999908
 31
0.0
  0
LINE
  5
3F1C
  8
VOLL
 10
88.2000000000000455
 20
53.8999999999999133
 30
0.0
 11
88.2000000000000028
 21
19.5999999999999908
 31
0.0
  0
LINE
  5
3F1D
  8
HILF
 10
19.6000000000000405
 20
49.0000000000000284
 30
0.0
 11
66.6400000000000432
 21
49.0000000000000284
 31
0.0
  0
LINE
  5
3F1E
  8
HILF
 10
19.6000000000000405
 20
44.1000000000000227
 30
0.0
 11
66.6400000000000432
 21
44.1000000000000227
 31
0.0
  0
LINE
  5
3F1F
  8
HILF
 10
19.6000000000000405
 20
39.1999999999999815
 30
0.0
 11
66.6400000000000432
 21
39.1999999999999815
 31
0.0
  0
LINE
  5
3F20
  8
HILF
 10
19.6000000000000405
 20
34.2999999999999687
 30
0.0
 11
66.6400000000000432
 21
34.2999999999999687
 31
0.0
  0
LINE
  5
3F21
  8
HILF
 10
19.6000000000000405
 20
29.3999999999999915
 30
0.0
 11
66.6400000000000432
 21
29.3999999999999915
 31
0.0
  0
LINE
  5
3F22
  8
HILF
 10
19.6000000000000405
 20
24.4999999999999893
 30
0.0
 11
66.6400000000000432
 21
24.4999999999999893
 31
0.0
  0
LINE
  5
3F23
  8
HILF
 10
19.6000000000000405
 20
19.5999999999999908
 30
0.0
 11
66.6400000000000432
 21
19.5999999999999908
 31
0.0
  0
LINE
  5
3F24
  8
HILF
 10
66.6400000000000432
 20
34.2999999999999687
 30
0.0
 11
107.7999999999999972
 21
34.2999999999999687
 31
0.0
  0
LINE
  5
3F25
  8
HILF
 10
66.6400000000000432
 20
29.3999999999999915
 30
0.0
 11
107.7999999999999972
 21
29.3999999999999915
 31
0.0
  0
LINE
  5
3F26
  8
HILF
 10
66.6400000000000432
 20
24.4999999999999893
 30
0.0
 11
107.7999999999999972
 21
24.4999999999999893
 31
0.0
  0
LINE
  5
3F27
  8
HILF
 10
110.139103253750406
 20
41.178415413064279
 30
0.0
 11
159.1693419112592096
 21
41.178415413064279
 31
0.0
  0
LINE
  5
3F28
  8
HILF
 10
110.139103253750406
 20
34.2999999999999687
 30
0.0
 11
159.1693419112590959
 21
34.2999999999999687
 31
0.0
  0
LINE
  5
3F29
  8
HILF
 10
110.139103253750406
 20
29.3999999999999915
 30
0.0
 11
159.1693419112590959
 21
29.3999999999999915
 31
0.0
  0
LINE
  5
3F2A
  8
HILF
 10
110.139103253750406
 20
24.4999999999999893
 30
0.0
 11
159.1693419112590959
 21
24.4999999999999893
 31
0.0
  0
LINE
  5
3F2B
  8
VOLL
 10
162.6800000000000068
 20
29.3999999999999986
 30
0.0
 11
200.9000000000000057
 21
29.3999999999999986
 31
0.0
  0
LINE
  5
3F2C
  8
HILF
 10
164.9946921985525989
 20
41.0521198210835507
 30
0.0
 11
198.3808531270096864
 21
41.0521198210835507
 31
0.0
  0
LINE
  5
3F2D
  8
HILF
 10
109.5105752652042952
 20
7.2980514643387373
 30
0.0
 11
198.3808531270096864
 21
7.2980514643387373
 31
0.0
  0
TEXT
  5
3F2E
  8
TEXT25
 10
30.9959999999999987
 20
8.9599999999999937
 30
0.0
 40
1.9599999999999991
  1
Änderung
 41
0.8
 72
     4
 11
36.259999999999998
 21
9.7999999999999936
 31
0.0
  0
TEXT
  5
3F2F
  8
TEXT25
 10
110.1901907866414945
 20
50.2489770725771976
 30
0.0
 40
2.4500000000000002
  1
Benennung
 41
0.8
  0
TEXT
  5
3F30
  8
TEXT25
 10
164.7275899292407075
 20
50.1334696923196788
 30
0.0
 40
2.4500000000000002
  1
Zeichnungs Nr.
 41
0.8
  0
TEXT
  5
3F31
  8
TEXT25
 10
110.1236968116566004
 20
15.1143467939459804
 30
0.0
 40
2.4500000000000002
  1
Bauvorhaben
 41
0.8
  0
TEXT
  5
3F32
  8
TEXT25
 10
164.9946921985525989
 20
35.8587793617898498
 30
0.0
 40
2.4500000000000002
  1
Ersatz für:
 41
0.8
  0
TEXT
  5
3F33
  8
TEXT25
 10
23.65054142452421
 20
6.6907826455332389
 30
0.0
 40
1.9599999999999991
  1
Index
 50
90.0
 41
0.8
  0
TEXT
  5
3F34
  8
TEXT25
 10
49.1306666666666771
 20
9.1466666666666612
 30
0.0
 40
1.9599999999999991
  1
Tag
 41
0.8
 72
     4
 11
50.9600000000000009
 21
9.7999999999999936
 31
0.0
  0
TEXT
  5
3F35
  8
TEXT25
 10
58.1513333333333406
 20
8.8199999999999932
 30
0.0
 40
1.9599999999999991
  1
Name
 41
0.8
 72
     4
 11
61.25
 21
9.7999999999999936
 31
0.0
  0
TEXT
  5
3F36
  8
TEXT25
 10
67.4159702312131515
 20
31.1786528111280212
 30
0.0
 40
1.9599999999999991
  1
Gez.
 41
0.8
  0
TEXT
  5
3F37
  8
TEXT25
 10
67.4002392420119492
 20
26.3077388279990494
 30
0.0
 40
1.9599999999999991
  1
Gepr.
 41
0.8
  0
TEXT
  5
3F38
  8
TEXT25
 10
67.4243320919778739
 20
21.3294373092840601
 30
0.0
 40
1.9599999999999991
  1
Norm.
 41
0.8
  0
LINE
  5
3F39
  8
STEMPEL
 10
24.4999999999999396
 20
4.9000000000000004
 30
0.0
 11
200.9000000000000057
 21
4.9000000000000004
 31
0.0
  0
LINE
  5
3F3A
  8
STEMPEL
 10
200.9000000000000057
 20
53.900000000000027
 30
0.0
 11
200.9000000000000057
 21
4.9000000000000004
 31
0.0
  0
TEXT
  5
3F3B
  8
TEXT25
 10
165.2476422133532878
 20
25.5163392716051511
 30
0.0
 40
2.4500000000000002
  1
ersetzt durch:
 41
0.8
  0
LINE
  5
3F3C
  8
STEMPEL
 10
200.9000000000000057
 20
4.9000000000000004
 30
0.0
 11
19.599999999999941
 21
4.9000000000000004
 31
0.0
  0
LINE
  5
3F3D
  8
STEMPEL
 10
200.9000000000000057
 20
53.900000000000027
 30
0.0
 11
200.9000000000000057
 21
286.160000000000025
 31
0.0
  0
LINE
  5
3F3E
  8
STEMPEL
 10
19.6000000000000014
 20
4.9000000000000004
 30
0.0
 11
19.599999999999941
 21
286.160000000000025
 31
0.0
  0
LINE
  5
3F3F
  8
STEMPEL
 10
200.9000000000000057
 20
286.160000000000025
 30
0.0
 11
19.599999999999941
 21
286.160000000000025
 31
0.0
  0
LINE
  5
3F40
  8
HILF
 10
0.0
 20
0.0
 30
0.0
 11
-0.0000000000000557
 21
291.0600000000000023
 31
0.0
  0
LINE
  5
3F41
  8
HILF
 10
205.7999999999998977
 20
291.060000000000116
 30
0.0
 11
0.0
 21
291.0600000000000023
 31
0.0
  0
LINE
  5
3F42
  8
HILF
 10
205.8000000000000114
 20
0.0
 30
0.0
 11
0.0
 21
0.0
 31
0.0
  0
LINE
  5
3F43
  8
HILF
 10
15.2329589649978896
 20
145.5300000000000011
 30
0.0
 11
0.0000000000000557
 21
145.5300000000000011
 31
0.0
  0
LINE
  5
3F44
  8
HILF
 10
205.8000000000000114
 20
-0.0000000000000557
 30
0.0
 11
205.7999999999998977
 21
291.0600000000000023
 31
0.0
  0
TEXT
  5
3F45
  8
TEXT25
 10
91.4200000000001154
 20
50.2489770725771834
 30
0.0
 40
2.4500000000000002
  1
Zul. Abw.
 41
0.8
 72
     1
 11
98.0000000000001137
 21
50.2489770725771834
 31
0.0
  0
TEXT
  5
3F46
  8
TEXT25
 10
71.6333333333335531
 20
50.2489770725772118
 30
0.0
 40
2.4500000000000002
  1
Maßstab
 41
0.8
 72
     1
 11
77.4200000000002149
 21
50.2489770725772118
 31
0.0
  0
TEXT
  5
3F47
  8
TEXT25
 10
94.9013333333334543
 20
35.7700000000000173
 30
0.0
 40
1.9599999999999991
  1
Name
 41
0.8
 72
     4
 11
98.0000000000001137
 21
36.7500000000000213
 31
0.0
  0
TEXT
  5
3F48
  8
TEXT25
 10
80.0006666666667741
 20
36.0966666666666782
 30
0.0
 40
1.9599999999999991
  1
Tag
 41
0.8
 72
     4
 11
81.8300000000001262
 21
36.7500000000000213
 31
0.0
  0
TEXT
  5
3F49
  8
TEXT25
 10
204.124765530434388
 20
5.9525435951576844
 30
0.0
 40
2.4500000000000002
  1
Diese Zeichnung ist urheberrechtlich geschützt und bleibt unser Eigentum. Sie darf weder ganz noch teilweise vervielfältigt und nicht an Dritte weitergegeben werden.
 50
90.0
 41
0.8
  0
INSERT
  5
3F4A
  8
0
  2
*U39
 10
0.0
 20
0.0
 30
0.0
  0
LINE
  5
3F4F
  8
HILF
 10
66.6400012093927927
 20
53.9000003441807607
 30
0.0
 11
66.6400012093927927
 21
66.9000003441809952
 31
0.0
  0
LINE
  5
3F50
  8
HILF
 10
66.6400012093927927
 20
66.9000003441807536
 30
0.0
 11
200.9000000000000057
 21
66.9000003441808815
 31
0.0
  0
INSERT
  5
3F51
  8
0
  2
*U40
 10
0.0
 20
0.0
 30
0.0
  0
CIRCLE
  5
3F52
  8
LOGO
 62
   150
 10
79.8871445668319211
 20
12.5286734970310292
 30
0.0
 40
2.7999999999999989
  0
CIRCLE
  5
3F53
  8
LOGO
 62
   150
 10
97.8766403459376306
 20
12.5286734970310594
 30
0.0
 40
2.7999999999999989
  0
CIRCLE
  5
3F54
  8
HILF
 62
   150
 10
103.8618516001497056
 20
15.6326513461633798
 30
0.0
 40
1.25
  0
INSERT
  5
3F55
  8
0
  2
*U41
 10
0.0
 20
0.0
 30
0.0
  0
POLYLINE
  5
3F56
  8
LOGO
 62
   150
 66
     1
 10
0.0
 20
0.0
 30
0.0
 70
     1
  0
VERTEX
  5
361C8
  8
LOGO
 62
   150
 10
89.4630371313914878
 20
13.7286734970310604
 30
0.0
 42
0.9999999999999998
  0
VERTEX
  5
361C9
  8
LOGO
 62
   150
 10
89.4630371313914878
 20
15.3286734970310601
 30
0.0
  0
VERTEX
  5
361CA
  8
LOGO
 62
   150
 10
86.1630371313915475
 20
15.3286734970310601
 30
0.0
  0
VERTEX
  5
361CB
  8
LOGO
 62
   150
 10
86.1630371313915475
 20
13.7286734970310604
 30
0.0
  0
SEQEND
  5
361CC
  8
LOGO
 62
   150
  0
POLYLINE
  5
3F57
  8
LOGO
 62
   150
 66
     1
 10
0.0
 20
0.0
 30
0.0
 70
     1
  0
VERTEX
  5
361CD
  8
LOGO
 62
   150
 10
72.5871445668319666
 20
11.02867349703107
 30
0.0
  0
VERTEX
  5
361CE
  8
LOGO
 62
   150
 10
72.5871445668319666
 20
17.0286734970310611
 30
0.0
  0
VERTEX
  5
361CF
  8
LOGO
 62
   150
 10
70.8871445668319211
 20
17.0286734970310611
 30
0.0
  0
VERTEX
  5
361D0
  8
LOGO
 62
   150
 10
70.8871445668319211
 20
11.02867349703107
 30
0.0
 42
0.4142135623730961
  0
VERTEX
  5
361D1
  8
LOGO
 62
   150
 10
73.8871445668319211
 20
8.0286734970310718
 30
0.0
  0
VERTEX
  5
361D2
  8
LOGO
 62
   150
 10
79.8871445668319211
 20
8.0286734970310931
 30
0.0
 42
4.3731202552251798
  0
VERTEX
  5
361D3
  8
LOGO
 62
   150
 10
76.3643615760699959
 20
9.7286734970312381
 30
0.0
  0
VERTEX
  5
361D4
  8
LOGO
 62
   150
 10
73.8871445668319211
 20
9.7286734970312025
 30
0.0
 42
-0.4142135623730961
  0
SEQEND
  5
361D5
  8
LOGO
 62
   150
  0
POLYLINE
  5
3F58
  8
LOGO
 62
   150
 66
     1
 10
0.0
 20
0.0
 30
0.0
 70
     1
  0
VERTEX
  5
361D6
  8
LOGO
 62
   150
 10
84.4630371313914878
 20
8.0286734970310647
 30
0.0
  0
VERTEX
  5
361D7
  8
LOGO
 62
   150
 10
84.4630371313914878
 20
17.0286734970310611
 30
0.0
  0
VERTEX
  5
361D8
  8
LOGO
 62
   150
 10
89.4630371313914878
 20
17.0286734970310611
 30
0.0
 42
-0.7007983443495949
  0
VERTEX
  5
361D9
  8
LOGO
 62
   150
 10
91.0669680978755878
 20
12.6110172570460204
 30
0.0
  0
VERTEX
  5
361DA
  8
LOGO
 62
   150
 10
91.5811112908770468
 20
10.6922087383977793
 30
0.0
 42
0.3394542588633795
  0
VERTEX
  5
361DB
  8
LOGO
 62
   150
 10
92.836814865052915
 20
9.7286734970310889
 30
0.0
  0
VERTEX
  5
361DC
  8
LOGO
 62
   150
 10
94.3538573551759328
 20
9.7286734970310746
 30
0.0
 42
-4.3731202552254533
  0
VERTEX
  5
361DD
  8
LOGO
 62
   150
 10
97.8766403459376306
 20
8.0286734970310647
 30
0.0
  0
VERTEX
  5
361DE
  8
LOGO
 62
   150
 10
92.836814865052915
 20
8.028673497031086
 30
0.0
 42
-0.3394542588633795
  0
VERTEX
  5
361DF
  8
LOGO
 62
   150
 10
89.939037386185646
 20
10.2522163617235407
 30
0.0
  0
VERTEX
  5
361E0
  8
LOGO
 62
   150
 10
89.4630371313914878
 20
12.0286734970310594
 30
0.0
  0
VERTEX
  5
361E1
  8
LOGO
 62
   150
 10
89.4630371313914878
 20
12.0286734970310594
 30
0.0
  0
VERTEX
  5
361E2
  8
LOGO
 62
   150
 10
86.1630371313915475
 20
12.0286734970310594
 30
0.0
  0
VERTEX
  5
361E3
  8
LOGO
 62
   150
 10
86.1630371313915475
 20
8.0286734970310931
 30
0.0
  0
SEQEND
  5
361E4
  8
LOGO
 62
   150
  0
ATTDEF
  5
3F59
  8
HILF
 10
71.804193276628439
 20
54.8532296660084668
 30
0.0
 40
2.6000000000000001
  1

 41
0.8
  3

  2
WERKSTOFF_2
 70
     0
1001
AcDbAttr
1070
     0
1070
     1
  0
ATTDEF
  5
3F5A
  8
HILF
 10
71.804193276628439
 20
58.8303029785038234
 30
0.0
 40
2.6000000000000001
  1

 41
0.8
  3

  2
WERKSTOFF_1
 70
     0
1001
AcDbAttr
1070
     0
1070
     1
  0
ATTDEF
  5
3F5B
  8
TEXT25
 10
57.7603166922715516
 20
15.7072681706571302
 30
0.0
 40
2.0
  1

 41
0.8
  3

  2
ÄND_NAME
 70
     0
1001
AcDbAttr
1070
     0
1070
     1
  0
ATTDEF
  5
3F5C
  8
TEXT25
 10
92.772693331704204
 20
30.4884752053747015
 30
0.0
 40
2.2000000000000002
  1

 41
0.8
  3

  2
ZEICHNER
 70
     0
1001
AcDbAttr
1070
     0
1070
     1
  0
ATTDEF
  5
3F5D
  8
TEXT25
 10
67.8773048488910717
 20
35.3353833582884818
 30
0.0
 40
2.2000000000000002
  1

 41
0.8
  3

  2
JAHR
 70
     0
1001
AcDbAttr
1070
     0
1070
     1
  0
ATTDEF
  5
3F5E
  8
0
 10
46.4352501330427927
 20
15.7415470646047702
 30
0.0
 40
2.4500000000000002
  1

 41
0.7
  3

  2
TAG
 70
     0
1001
AcDbAttr
1070
     0
1070
     1
  0
ATTDEF
  5
3F5F
  8
0
 10
27.6026856194505008
 20
15.8128031968979403
 30
0.0
 40
2.4500000000000002
  1

 41
0.7
  3

  2
ÄNDERUNG
 70
     0
1001
AcDbAttr
1070
     0
1070
     1
  0
ATTDEF
  5
3F60
  8
0
 10
21.9056491564498295
 20
15.8840586130851893
 30
0.0
 40
2.4500000000000002
  1

 41
0.8
  3

  2
INDEX
 70
     0
1001
AcDbAttr
1070
     0
1070
     1
  0
ATTDEF
  5
3F61
  8
VOLL
 10
193.1976154690590874
 20
42.1759709732798314
 30
0.0
 40
3.4299999999999988
  1

 41
0.8
 72
     2
 11
193.1976154690590874
 21
42.1759709732798314
 31
0.0
  3

  2
ZEICHNUNGSNUMMER
 70
     0
1001
AcDbAttr
1070
     0
1070
     1
  0
ATTDEF
  5
3F62
  8
VOLL
 10
110.139103253750406
 20
42.2429599503070392
 30
0.0
 40
3.4299999999999988
  1

 41
0.8
  3

  2
BENENNUNG
 70
     0
1001
AcDbAttr
1070
     0
1070
     1
  0
ATTDEF
  5
3F63
  8
TEXT25
 10
110.139103253750406
 20
35.1264253875100394
 30
0.0
 40
2.4500000000000002
  1

 41
0.8
  3

  2
ZEILE1
 70
     0
1001
AcDbAttr
1070
     0
1070
     1
  0
ATTDEF
  5
3F64
  8
TEXT25
 10
110.139103253750406
 20
30.2362375865521606
 30
0.0
 40
2.4500000000000002
  1

 41
0.8
  3

  2
ZEILE2
 70
     0
1001
AcDbAttr
1070
     0
1070
     1
  0
ATTDEF
  5
3F65
  8
EDV_NR
 10
110.139103253750406
 20
25.3460497855943814
 30
0.0
 40
2.4500000000000002
  1

 41
0.8
  3

  2
EDV_NR
 70
     0
1001
AcDbAttr
1070
     0
1070
     1
  0
ATTDEF
  5
3F66
  8
TEXT25
 10
89.1259431426662445
 20
42.9478474875623135
 30
0.0
 40
2.4500000000000002
  1

 41
0.8
  3

  2
DIN
 70
     0
1001
AcDbAttr
1070
     0
1070
     1
  0
ATTDEF
  5
3F67
  8
HILF
 10
75.1751600258172346
 20
42.9478474875623135
 30
0.0
 40
2.9399999999999991
  1

 41
0.8
  3

  2
MAßSTAB
 70
     0
1001
AcDbAttr
1070
     0
1070
     1
  0
ATTDEF
  5
3F68
  8
TEXT25
 10
77.6500604997917065
 20
30.4085004363898506
 30
0.0
 40
2.2999999999999989
  1

 41
0.8
  3

  2
DATUM
 70
     0
1001
AcDbAttr
1070
     0
1070
     1
  0
ATTDEF
  5
3F69
  8
TEXT25
 10
197.7919810182966103
 20
30.8613130142421888
 30
0.0
 40
2.6000000000000001
  1

 41
0.8
 72
     2
 11
197.7919810182966103
 21
30.8613130142421888
 31
0.0
  3

  2
ERSATZFÜR
 70
     0
1001
AcDbAttr
1070
     0
1070
     1
  0
ENDBLK
  5
3F6A
  8
0
  0
BLOCK
  8
0
  2
DIN_A3
 70
     2
 10
0.0
 20
0.0
 30
0.0
  3
DIN_A3
  1

  0
LINE
  5
53B1
  8
HILF
 10
0.0
 20
0.0
 30
0.0
 11
411.4353599999998892
 21
0.0
 31
0.0
  0
LINE
  5
53B2
  8
HILF
 10
411.4353599999998892
 20
0.0
 30
0.0
 11
411.4353599999998892
 21
290.9435760000000073
 31
0.0
  0
LINE
  5
53B3
  8
HILF
 10
411.4353599999998892
 20
290.9435760000000073
 30
0.0
 11
0.0
 21
290.9435760000000073
 31
0.0
  0
LINE
  5
53B4
  8
HILF
 10
0.0
 20
290.9435760000000073
 30
0.0
 11
0.0
 21
0.0
 31
0.0
  0
LINE
  5
53B5
  8
STEMPEL
 10
406.5373200000000224
 20
286.0455359999999132
 30
0.0
 11
19.592160000000149
 21
286.0455359999999132
 31
0.0
  0
LINE
  5
53B6
  8
STEMPEL
 10
19.592160000000149
 20
4.8980399999999662
 30
0.0
 11
406.5373200000000224
 21
4.8980399999999662
 31
0.0
  0
LINE
  5
53B7
  8
STEMPEL
 10
406.5373200000000224
 20
4.8980399999999662
 30
0.0
 11
406.5373200000000224
 21
286.0455359999999132
 31
0.0
  0
LINE
  5
53B8
  8
STEMPEL
 10
19.592160000000149
 20
286.0455359999999132
 30
0.0
 11
19.592160000000149
 21
4.8980399999999662
 31
0.0
  0
TEXT
  5
53B9
  8
TEXT25
 10
409.6785337252396175
 20
5.1692839616613213
 30
0.0
 40
2.44902
  1
Diese Zeichnung ist urheberrechtlich geschuetzt und bleibt unser Eigentum. Sie darf weder ganz noch teilweise vervielfaeltigt und nicht an Dritte weitergegeben werden.
 50
90.0
 41
0.8
  7
GREEKS
  0
LINE
  5
53BA
  8
HILF
 10
225.3098400000000936
 20
0.0
 30
0.0
 11
225.3098400000000936
 21
4.8980399999999662
 31
0.0
  0
LINE
  5
53BB
  8
HILF
 10
225.3098400000000936
 20
286.0455359999999132
 30
0.0
 11
225.3098400000000936
 21
290.9435760000000073
 31
0.0
  0
LINE
  5
53BC
  8
STEMPEL
 10
406.5373200000000224
 20
53.1203541795765091
 30
0.0
 11
228.1147575355668096
 21
53.1203541795764806
 31
0.0
  0
LINE
  5
53BD
  8
STEMPEL
 10
274.4081791479604249
 20
53.1203541795764522
 30
0.0
 11
274.4081791479604249
 21
4.8980399999999511
 31
0.0
  0
LINE
  5
53BE
  8
STEMPEL
 10
314.9149230588046748
 20
53.1203541795765091
 30
0.0
 11
314.9149230588046748
 21
4.8980399999999511
 31
0.0
  0
LINE
  5
53BF
  8
STEMPEL
 10
368.9239149399301141
 20
53.120354179576367
 30
0.0
 11
368.9239149399301141
 21
19.3647342538729212
 31
0.0
  0
LINE
  5
53C0
  8
STEMPEL
 10
274.4081791479603112
 20
14.5425028359152595
 30
0.0
 11
228.1147575355668096
 21
14.5425028359152595
 31
0.0
  0
LINE
  5
53C1
  8
STEMPEL
 10
406.5373200000000224
 20
19.3647342538729212
 30
0.0
 11
274.4081791479604249
 21
19.3647342538729106
 31
0.0
  0
LINE
  5
53C2
  8
STEMPEL
 10
406.5373200000000224
 20
38.6536599257035292
 30
0.0
 11
274.4081791479604249
 21
38.6536599257035078
 31
0.0
  0
LINE
  5
53C3
  8
VOLL
 10
234.8658815207076032
 20
53.1203541795765091
 30
0.0
 11
234.8658815207074895
 21
4.8980399999999511
 31
0.0
  0
LINE
  5
53C4
  8
VOLL
 10
254.1548071925381862
 20
53.1203541795764522
 30
0.0
 11
254.1548071925381009
 21
4.8980399999999511
 31
0.0
  0
LINE
  5
53C5
  8
VOLL
 10
263.7992700284535204
 20
53.1203541795764522
 30
0.0
 11
263.7992700284534067
 21
4.8980399999999511
 31
0.0
  0
LINE
  5
53C6
  8
VOLL
 10
283.088195700284075
 20
38.6536599257035078
 30
0.0
 11
283.088195700284075
 21
19.3647342538729106
 31
0.0
  0
LINE
  5
53C7
  8
VOLL
 10
295.6259973869741202
 20
53.1203541795763883
 30
0.0
 11
295.6259973869740065
 21
19.3647342538729106
 31
0.0
  0
LINE
  5
53C8
  8
HILF
 10
228.1147575355668096
 20
48.2981227616188491
 30
0.0
 11
274.4081791479604249
 21
48.2981227616188491
 31
0.0
  0
LINE
  5
53C9
  8
HILF
 10
228.1147575355668096
 20
43.4758913436612033
 30
0.0
 11
274.4081791479604249
 21
43.4758913436612033
 31
0.0
  0
LINE
  5
53CA
  8
HILF
 10
228.1147575355668096
 20
38.6536599257035078
 30
0.0
 11
274.4081791479604249
 21
38.6536599257035078
 31
0.0
  0
LINE
  5
53CB
  8
HILF
 10
228.1147575355668096
 20
33.8314285077458621
 30
0.0
 11
274.4081791479604249
 21
33.8314285077458621
 31
0.0
  0
LINE
  5
53CC
  8
HILF
 10
228.1147575355668096
 20
29.0091970897882199
 30
0.0
 11
274.4081791479604249
 21
29.0091970897882199
 31
0.0
  0
LINE
  5
53CD
  8
HILF
 10
228.1147575355668096
 20
24.1869656718305492
 30
0.0
 11
274.4081791479604249
 21
24.1869656718305492
 31
0.0
  0
LINE
  5
53CE
  8
HILF
 10
228.1147575355668096
 20
19.3647342538729106
 30
0.0
 11
274.4081791479604249
 21
19.3647342538729106
 31
0.0
  0
LINE
  5
53CF
  8
HILF
 10
274.4081791479604249
 20
33.8314285077458621
 30
0.0
 11
314.9149230588046748
 21
33.8314285077458621
 31
0.0
  0
LINE
  5
53D0
  8
HILF
 10
274.4081791479604249
 20
29.0091970897882199
 30
0.0
 11
314.9149230588046748
 21
29.0091970897882199
 31
0.0
  0
LINE
  5
53D1
  8
HILF
 10
274.4081791479604249
 20
24.1869656718305492
 30
0.0
 11
314.9149230588046748
 21
24.1869656718305492
 31
0.0
  0
LINE
  5
53D2
  8
HILF
 10
316.9149230588046748
 20
40.600675632366837
 30
0.0
 11
366.9239149399302278
 21
40.600675632366837
 31
0.0
  0
LINE
  5
53D3
  8
HILF
 10
316.9149230588046748
 20
33.8314285077458621
 30
0.0
 11
366.9239149399302278
 21
33.8314285077458621
 31
0.0
  0
LINE
  5
53D4
  8
HILF
 10
316.9149230588046748
 20
29.0091970897882092
 30
0.0
 11
366.9239149399302278
 21
29.0091970897882199
 31
0.0
  0
LINE
  5
53D5
  8
HILF
 10
316.9149230588046748
 20
24.1869656718305492
 30
0.0
 11
366.9239149399302278
 21
24.1869656718305492
 31
0.0
  0
LINE
  5
53D6
  8
VOLL
 10
368.9239149399301141
 20
29.0091970897882305
 30
0.0
 11
406.5373200000000224
 21
29.0091970897882305
 31
0.0
  0
LINE
  5
53D7
  8
HILF
 10
370.9239149399300004
 20
40.4763844953060996
 30
0.0
 11
404.5373200000000224
 21
40.4763844953060996
 31
0.0
  0
LINE
  5
53D8
  8
HILF
 10
316.9149230588046748
 20
7.2580316557578479
 30
0.0
 11
392.5373200000000224
 21
7.2580316557572404
 31
0.0
  0
TEXT
  5
53D9
  8
TEXT25
 10
239.3298900333311963
 20
8.8936031748791482
 30
0.0
 40
1.9288925671830599
  1
Änderung
 41
0.8
  7
GREEKS
 72
     4
 11
244.5103443566227952
 21
9.7202714179576049
 31
0.0
  0
TEXT
  5
53DA
  8
TEXT25
 10
316.9651997743501965
 20
49.5272771452291423
 30
0.0
 40
2.411115708978826
  1
Benennung
 41
0.8
  7
GREEKS
  0
TEXT
  5
53DB
  8
TEXT25
 10
370.9390072843951884
 20
49.4136029986814265
 30
0.0
 40
2.411115708978826
  1
Zeichnungs Nr.
 41
0.8
  7
GREEKS
  0
TEXT
  5
53DC
  8
TEXT25
 10
316.899761134497794
 20
14.9502734742206407
 30
0.0
 40
2.411115708978826
  1
Bauvorhaben
 41
0.8
  7
GREEKS
  0
TEXT
  5
53DD
  8
TEXT25
 10
370.9239149399298867
 20
35.3654682653146608
 30
0.0
 40
2.411115708978826
  1
Ersatz für:
 41
0.8
  7
GREEKS
  0
TEXT
  5
53DE
  8
TEXT25
 10
232.1010122533382116
 20
6.6604008849027556
 30
0.0
 40
1.9288925671830599
  1
Index
 50
90.0
 41
0.8
  7
GREEKS
  0
TEXT
  5
53DF
  8
TEXT25
 10
257.176738881124777
 20
9.0773072288965846
 30
0.0
 40
1.9288925671830599
  1
Tag
 41
0.8
  7
GREEKS
 72
     4
 11
258.977038610495697
 21
9.7202714179576049
 31
0.0
  0
TEXT
  5
53E0
  8
TEXT25
 10
266.0542372915174951
 20
8.7558251343660736
 30
0.0
 40
1.9288925671830599
  1
Name
 41
0.8
  7
GREEKS
 72
     4
 11
269.1037245882068873
 21
9.7202714179576049
 31
0.0
  0
TEXT
  5
53E1
  8
TEXT25
 10
275.4081791479604249
 20
30.0091970897882199
 30
0.0
 40
1.9288925671830599
  1
Gez.
 41
0.8
  7
GREEKS
  0
TEXT
  5
53E2
  8
TEXT25
 10
275.4081791479604249
 20
25.1869656718305492
 30
0.0
 40
1.9288925671830599
  1
Gepr.
 41
0.8
  7
GREEKS
  0
TEXT
  5
53E3
  8
TEXT25
 10
275.4081791479604249
 20
20.3647342538729212
 30
0.0
 40
1.9288925671830599
  1
Norm.
 41
0.8
  7
GREEKS
  0
TEXT
  5
53E4
  8
TEXT25
 10
370.9239149399298867
 20
25.1871744813894693
 30
0.0
 40
2.411115708978826
  1
ersetzt durch:
 41
0.8
  7
GREEKS
  0
LINE
  5
53E5
  8
HILF
 10
228.1147575355666959
 20
4.8980399999999662
 30
0.0
 11
228.1147575355666959
 21
65.9140297087946152
 31
0.0000000000000568
  0
LINE
  5
53E6
  8
HILF
 10
14.9911945529536297
 20
143.2202731133423015
 30
0.0
 11
0.0
 21
143.2202731133423015
 31
0.0
  0
TEXT
  5
53E7
  8
TEXT25
 10
298.7948923187748278
 20
49.5272771452291209
 30
0.0
 40
2.411115708978826
  1
Zul. Abw.
 41
0.8
  7
GREEKS
 72
     1
 11
305.2704602228894259
 21
49.5272771452291209
 31
0.0
  0
TEXT
  5
53E8
  8
TEXT25
 10
279.3222625929267906
 20
49.5272771452291423
 30
0.0
 40
2.411115708978826
  1
Maßstab
 41
0.8
  7
GREEKS
 72
     1
 11
285.0170882674672725
 21
49.5272771452291423
 31
0.0
  0
TEXT
  5
53E9
  8
TEXT25
 10
302.2209729261999769
 20
35.2780979331331892
 30
0.0
 40
1.9288925671830599
  1
Name
 41
0.8
  7
GREEKS
 72
     4
 11
305.2704602228894259
 21
36.2425442167247098
 31
0.0
  0
TEXT
  5
53EA
  8
TEXT25
 10
287.5567968142582913
 20
35.5995800276636913
 30
0.0
 40
1.9288925671830599
  1
Tag
 41
0.8
  7
GREEKS
 72
     4
 11
289.3570965436292113
 21
36.2425442167247098
 31
0.0
  0
LINE
  5
53EB
  8
HILF
 10
274.4081803381586724
 20
53.1203545182947181
 30
0.0
 11
274.4081803381586724
 21
65.9140297087948142
 31
0.0
  0
LINE
  5
53EC
  8
HILF
 10
274.4081803381586724
 20
65.914029708794601
 30
0.0
 11
406.5373200000000224
 21
65.9140297087947147
 31
0.0
  0
INSERT
  5
53ED
  8
0
  2
*U42
 10
0.0
 20
0.0
 30
0.0
  0
CIRCLE
  5
53EE
  8
LOGO
 62
   150
 10
287.4450764394712223
 20
12.4056377581068897
 30
0.0
 40
2.7555608102615148
  0
CIRCLE
  5
53EF
  8
LOGO
 62
   150
 10
305.1490584270671889
 20
12.4056377581069199
 30
0.0
 40
2.7555608102615148
  0
CIRCLE
  5
53F0
  8
0
 10
311.0392775603683049
 20
15.4603519427457901
 30
0.0
 40
1.2301610760096049
  0
INSERT
  5
53F1
  8
0
  2
*U43
 10
0.0
 20
0.0
 30
0.0
  0
POLYLINE
  5
53F2
  8
LOGO
 62
   150
 66
     1
 10
0.0
 20
0.0
 30
0.0
 70
     1
  0
VERTEX
  5
361F0
  8
LOGO
 62
   150
 10
296.8689886802480942
 20
13.5865923910761399
 30
0.0
 42
0.9999999999999998
  0
VERTEX
  5
361F1
  8
LOGO
 62
   150
 10
296.8689886802480942
 20
15.1611985683684303
 30
0.0
  0
VERTEX
  5
361F2
  8
LOGO
 62
   150
 10
293.6213634395826944
 20
15.1611985683684303
 30
0.0
  0
VERTEX
  5
361F3
  8
LOGO
 62
   150
 10
293.6213634395826944
 20
13.5865923910761399
 30
0.0
  0
SEQEND
  5
361F4
  8
LOGO
 62
   150
  0
POLYLINE
  5
53F3
  8
LOGO
 62
   150
 66
     1
 10
0.0
 20
0.0
 30
0.0
 70
     1
  0
VERTEX
  5
361F5
  8
LOGO
 62
   150
 10
280.2609357555751899
 20
10.9294444668953901
 30
0.0
  0
VERTEX
  5
361F6
  8
LOGO
 62
   150
 10
280.2609357555751899
 20
16.8342176317414918
 30
0.0
  0
VERTEX
  5
361F7
  8
LOGO
 62
   150
 10
278.5879166922021
 20
16.8342176317414918
 30
0.0
  0
VERTEX
  5
361F8
  8
LOGO
 62
   150
 10
278.5879166922021
 20
10.9294444668953901
 30
0.0
 42
0.4142135623730961
  0
VERTEX
  5
361F9
  8
LOGO
 62
   150
 10
281.5403032746251029
 20
7.9770578844723437
 30
0.0
  0
VERTEX
  5
361FA
  8
LOGO
 62
   150
 10
287.4450764394712223
 20
7.9770578844723579
 30
0.0
 42
4.3731202552251798
  0
VERTEX
  5
361FB
  8
LOGO
 62
   150
 10
283.9782040279000057
 20
9.6500769478455766
 30
0.0
  0
VERTEX
  5
361FC
  8
LOGO
 62
   150
 10
281.5403032746251029
 20
9.6500769478455322
 30
0.0
 42
-0.4142135623730961
  0
SEQEND
  5
361FD
  8
LOGO
 62
   150
  0
POLYLINE
  5
53F4
  8
LOGO
 62
   150
 66
     1
 10
0.0
 20
0.0
 30
0.0
 70
     1
  0
VERTEX
  5
361FE
  8
LOGO
 62
   150
 10
291.9483443762096044
 20
7.9770578844723303
 30
0.0
  0
VERTEX
  5
361FF
  8
LOGO
 62
   150
 10
291.9483443762096044
 20
16.8342176317414918
 30
0.0
  0
VERTEX
  5
36200
  8
LOGO
 62
   150
 10
296.8689886802480942
 20
16.8342176317414918
 30
0.0
 42
-0.7007983443495949
  0
VERTEX
  5
36201
  8
LOGO
 62
   150
 10
298.4474634351082045
 20
12.4866746288450603
 30
0.0
  0
VERTEX
  5
36202
  8
LOGO
 62
   150
 10
298.9534465899287738
 20
10.5983197872796904
 30
0.0
 42
0.3394542588633795
  0
VERTEX
  5
36203
  8
LOGO
 62
   150
 10
300.1892207178946137
 20
9.6500769478454345
 30
0.0
  0
VERTEX
  5
36204
  8
LOGO
 62
   150
 10
301.6821860154961996
 20
9.6500769478454202
 30
0.0
 42
-4.3731202552254533
  0
VERTEX
  5
36205
  8
LOGO
 62
   150
 10
305.1490584270671889
 20
7.9770578844723303
 30
0.0
  0
VERTEX
  5
36206
  8
LOGO
 62
   150
 10
300.1892207178946137
 20
7.9770578844723579
 30
0.0
 42
-0.3394542588633795
  0
VERTEX
  5
36207
  8
LOGO
 62
   150
 10
297.3374342687429248
 20
10.1653105908591996
 30
0.0
  0
VERTEX
  5
36208
  8
LOGO
 62
   150
 10
296.8689886802480942
 20
11.9135733277030695
 30
0.0
  0
VERTEX
  5
36209
  8
LOGO
 62
   150
 10
296.8689886802480942
 20
11.9135733277030695
 30
0.0
  0
VERTEX
  5
3620A
  8
LOGO
 62
   150
 10
293.6213634395826944
 20
11.9135733277030695
 30
0.0
  0
VERTEX
  5
3620B
  8
LOGO
 62
   150
 10
293.6213634395826944
 20
7.9770578844723579
 30
0.0
  0
SEQEND
  5
3620C
  8
LOGO
 62
   150
  0
INSERT
  5
53F5
  8
0
  2
*U44
 10
0.0
 20
0.0
 30
0.0
  0
LINE
  5
53F6
  8
HILF
 10
274.4081803381586724
 20
65.9140297087946152
 30
0.0000000000000568
 11
228.1147575355668096
 21
65.9140297087946152
 31
0.0000000000000568
  0
ATTDEF
  5
53F7
  8
TEXT25
 10
297.1259973869740065
 20
30.0091970897882199
 30
0.0
 40
2.0
  1

 41
0.8
  3
ERST_NAME
  2
ERST_NAME
 70
     0
  0
ATTDEF
  5
53F8
  8
TEXT25
 10
284.088195700284075
 20
30.0091970897882092
 30
0.0
 40
2.0
  1

 41
0.8
  3
ERST_TAG
  2
ERST_TAG
 70
     0
  0
ATTDEF
  5
53F9
  8
TEXT25
 10
275.1581791479604249
 20
34.8503791526375508
 30
0.0
 40
2.1650834937769048
  1

 41
0.8
  3

  2
JAHR
 70
     0
1001
AcDbAttr
1070
     0
1070
     1
  0
ATTDEF
  5
53FB
  8
HILF
 10
285.0170882674672725
 20
47.120354179576502
 30
0.0
 40
2.5
  1

 41
0.8
 72
     4
 11
285.0170882674672725
 21
47.120354179576502
 31
0.0
  3

  2
MAßSTAB
 70
     0
1001
AcDbAttr
1070
     0
1070
     1
  0
ATTDEF
  5
53FC
  8
HILF
 10
279.4904107942793985
 20
57.9724076332483733
 30
-0.0000000000000568
 40
2.2000000000000002
  1

 41
0.8
  3

  2
WERKSTOFF_1
 70
     0
1001
AcDbAttr
1070
     0
1070
     1
  0
ATTDEF
  5
53FD
  8
HILF
 10
279.4904107942793985
 20
54.0584550048734798
 30
-0.0000000000000568
 40
2.2000000000000002
  1

 41
0.8
  3

  2
WERKSTOFF_2
 70
     0
1001
AcDbAttr
1070
     0
1070
     1
  0
ATTDEF
  5
53FF
  8
TEXT25
 10
296.1343203568113722
 20
45.5522802426557405
 30
0.0
 40
1.8360000000000001
  1

 41
0.8
 11
296.1343203568113722
 21
47.388280242655739
 31
0.0
  3
DIN
  2
DIN
 70
     0
 74
     3
  0
ATTDEF
  5
5400
  8
VOLL
 10
316.9149230588046748
 20
41.6483246350824032
 30
0.0
 40
3.0
  1

 41
0.8
  3

  2
BENENNUNG
 70
     0
1001
AcDbAttr
1070
     0
1070
     1
  0
ATTDEF
  5
5401
  8
HILF
 10
316.9149230588046748
 20
34.8800092561459678
 30
0.0
 40
2.5
  1

 41
0.8
  3

  2
ZEILE_1
 70
     0
  0
ATTDEF
  5
5402
  8
HILF
 10
316.8948144143760146
 20
29.8757187531356685
 30
0.0
 40
2.5
  1

 41
0.8
  3
ZEILE_2
  2
ZEILE_2
 70
     0
  0
ATTDEF
  5
5407
  8
BEM
 10
317.1144003232550972
 20
20.1316956195092409
 30
-411.1988790163717908
 40
2.0
  1
19140.000X - Kopie.dxf
 41
0.8
  3
DATEINAME
  2
DATEINAME
 70
     0
1001
AcDbAttr
1070
     0
1070
     1
  0
ATTDEF
  5
5408
  8
VOLL
 10
387.6300125970445265
 20
41.4763844953058083
 30
0.0
 40
3.0
  1

 41
0.8
 72
     1
 11
387.6300125970445265
 21
42.9763844953058012
 31
0.0
  3
ZG_NR
  2
ZG_NR
 70
     0
 74
     2
  0
ATTDEF
  5
5409
  8
VOLL
 10
387.6300125970445265
 20
30.2591970897880209
 30
0.0
 40
2.5
  1

 41
0.8
 72
     1
 11
387.6300125970445265
 21
31.5091970897880209
 31
0.0
  3
ZG_Ersatz_für:
  2
ZG_ERSATZ_FÜR:
 70
     0
 74
     2
  0
ATTDEF
  5
540A
  8
VOLL
 10
387.6300125970445265
 20
20.6147342538729212
 30
0.0
 40
2.5
  1

 41
0.8
 72
     1
 11
387.6300125970445265
 21
21.8647342538729212
 31
0.0
  3
ZG Ersetzt durch:
  2
ZG_ERSETZT_DURCH:
 70
     0
 74
     2
  0
INSERT
  5
540C
  8
0
  2
*U45
 10
0.0
 20
0.0
 30
0.0
  0
ATTDEF
  5
540D
  8
EDV-ART_NR_
 10
339.1141804825061854
 20
25.1198057737134803
 30
0.0
 40
2.5
  1

 41
0.8
  3
EDV_ART
  2
EDV_ART
 70
     0
  0
ATTDEF
  5
540E
  8
HILF
 10
229.6147575355666959
 20
57.9819557718739631
 30
0.0000000000000555
 40
2.2000000000000002
  1

 41
0.8
 11
229.6147575355666959
 21
60.1819557718739588
 31
0.0000000000000555
  3
Prüfantragsnummer:
  2
PRÜFANTRAGSNUMMER:
 70
     0
 74
     3
  0
ATTDEF
  5
540F
  8
HILF
 10
400.5373200000000793
 20
9.3889840367103758
 30
0.0
 40
2.5
  1

 41
0.8
 72
     4
 11
400.5373200000000793
 21
9.3889840367103758
 31
0.0
  3

  2
GEWICHT:
 70
     0
  0
ATTDEF
  5
5410
  8
TEXT25
 10
297.1105160664920959
 20
25.1869656718305492
 30
0.0
 40
2.0
  1

 41
0.8
  3
Gepr._NAME
  2
GEPR._NAME
 70
     0
  0
ATTDEF
  5
5411
  8
TEXT25
 10
284.088195700284075
 20
25.1869656718305492
 30
0.0
 40
2.0
  1

 41
0.8
  3
Gepr._TAG
  2
GEPR._TAG
 70
     0
  0
ATTDEF
  5
5412
  8
TEXT25
 10
297.1342265354825827
 20
20.3647342538729212
 30
0.0
 40
2.0
  1

 41
0.8
  3
Norm._NAME
  2
NORM._NAME
 70
     0
  0
ATTDEF
  5
5413
  8
TEXT25
 10
284.088195700284075
 20
20.3647342538729106
 30
0.0
 40
2.0
  1

 41
0.8
  3
Norm._TAG
  2
NORM._TAG
 70
     0
  0
ATTDEF
  5
5414
  8
VOLL
 10
316.9149230588046748
 20
8.3056806584734062
 30
0.0
 40
3.0
  1

 41
0.8
  3
BAUVORHABEN:
  2
BAUVORHABEN:
 70
     0
1001
AcDbAttr
1070
     0
1070
     1
  0
ATTDEF
  5
5415
  8
INDEX
 10
264.2992700284535204
 20
15.5425028359152595
 30
0.0
 40
1.8360000000000001
  1

 41
0.8
  3
ÄND_NAME_A
  2
ÄND_NAME_A
 70
     0
  0
ATTDEF
  5
5416
  8
INDEX
 10
254.6548071925381009
 20
15.5425028359152595
 30
0.0
 40
1.8360000000000001
  1

 41
0.7
  3
ÄND_TAG_A
  2
ÄND_TAG_A
 70
     0
  0
ATTDEF
  5
5417
  8
INDEX
 10
235.3658815207074895
 20
15.5425028359152595
 30
0.0
 40
1.8360000000000001
  1

 41
0.8
  3
ÄNDER_TEXT_A
  2
ÄNDER_TEXT_A
 70
     0
  0
ATTDEF
  5
5418
  8
INDEX
 10
231.4903195281372064
 20
15.5425028359152595
 30
-0.0000000000001137
 40
2.0
  1

 41
0.8
 72
     1
 11
231.4903195281372064
 21
15.5425028359152595
 31
-0.0000000000001137
  3
INDEX_A
  2
INDEX_A
 70
     0
  0
ATTDEF
  5
5419
  8
INDEX
 10
264.2992700284535204
 20
20.3647342538729212
 30
0.0
 40
1.8360000000000001
  1

 41
0.8
  3
ÄND_NAME_B
  2
ÄND_NAME_B
 70
     0
  0
ATTDEF
  5
541A
  8
INDEX
 10
254.6548071925381009
 20
20.3647342538729106
 30
0.0
 40
1.8360000000000001
  1

 41
0.7
  3
ÄND_TAG_B
  2
ÄND_TAG_B
 70
     0
  0
ATTDEF
  5
541B
  8
INDEX
 10
235.3658815207074895
 20
20.3647342538729106
 30
0.0
 40
1.8360000000000001
  1

 41
0.8
  3
ÄNDER_TEXT_B
  2
ÄNDER_TEXT_B
 70
     0
  0
ATTDEF
  5
541C
  8
INDEX
 10
231.4903195281372916
 20
20.3647342538729106
 30
-0.0000000000001137
 40
2.0
  1

 41
0.8
 72
     1
 11
231.4903195281372916
 21
20.3647342538729106
 31
-0.0000000000001137
  3
INDEX_B
  2
INDEX_B
 70
     0
  0
ATTDEF
  5
541D
  8
INDEX
 10
264.2992700284535204
 20
25.1869656718305492
 30
0.0
 40
1.8360000000000001
  1

 41
0.8
  3
ÄND_NAME_C
  2
ÄND_NAME_C
 70
     0
  0
ATTDEF
  5
541E
  8
INDEX
 10
254.6548071925381862
 20
25.1869656718305492
 30
0.0
 40
1.8360000000000001
  1

 41
0.7
  3
ÄND_TAG_C
  2
ÄND_TAG_C
 70
     0
  0
ATTDEF
  5
541F
  8
INDEX
 10
235.3658815207076032
 20
25.1869656718305492
 30
0.0
 40
1.8360000000000001
  1

 41
0.8
  3
ÄNDER_TEXT_C
  2
ÄNDER_TEXT_C
 70
     0
  0
ATTDEF
  5
5420
  8
INDEX
 10
231.4903195281372916
 20
25.1869656718305492
 30
-0.0000000000001137
 40
2.0
  1

 41
0.8
 72
     1
 11
231.4903195281372916
 21
25.1869656718305492
 31
-0.0000000000001137
  3
INDEX_C
  2
INDEX_C
 70
     0
  0
ATTDEF
  5
5421
  8
INDEX
 10
264.2992700284535204
 20
30.0091970897882199
 30
0.0
 40
1.8360000000000001
  1

 41
0.8
  3
ÄND_NAME_D
  2
ÄND_NAME_D
 70
     0
  0
ATTDEF
  5
5422
  8
INDEX
 10
254.6548071925381862
 20
30.0091970897882199
 30
0.0
 40
1.8360000000000001
  1

 41
0.7
  3
ÄND_TAG_D
  2
ÄND_TAG_D
 70
     0
  0
ATTDEF
  5
5423
  8
INDEX
 10
235.3658815207076032
 20
30.0091970897882199
 30
0.0
 40
1.8360000000000001
  1

 41
0.8
  3
ÄNDER_TEXT_D
  2
ÄNDER_TEXT_D
 70
     0
  0
ATTDEF
  5
5424
  8
INDEX
 10
231.4903195281372916
 20
30.0091970897882199
 30
-0.0000000000001137
 40
2.0
  1

 41
0.8
 72
     1
 11
231.4903195281372916
 21
30.0091970897882199
 31
-0.0000000000001137
  3
INDEX_D
  2
INDEX_D
 70
     0
  0
ATTDEF
  5
5425
  8
INDEX
 10
264.2992700284535204
 20
34.8314285077458621
 30
0.0
 40
1.8360000000000001
  1

 41
0.8
  3
ÄND_NAME_E
  2
ÄND_NAME_E
 70
     0
  0
ATTDEF
  5
5426
  8
INDEX
 10
254.6548071925381862
 20
34.8314285077458621
 30
0.0
 40
1.8360000000000001
  1

 41
0.7
  3
ÄND_TAG_E
  2
ÄND_TAG_E
 70
     0
  0
ATTDEF
  5
5427
  8
INDEX
 10
235.3658815207076032
 20
34.8314285077458621
 30
0.0
 40
1.8360000000000001
  1

 41
0.8
  3
ÄNDER_TEXT_E
  2
ÄNDER_TEXT_E
 70
     0
  0
ATTDEF
  5
5428
  8
INDEX
 10
231.4903195281372916
 20
34.8314285077458621
 30
-0.0000000000001137
 40
2.0
  1

 41
0.8
 72
     1
 11
231.4903195281372916
 21
34.8314285077458621
 31
-0.0000000000001137
  3
INDEX_E
  2
INDEX_E
 70
     0
  0
ATTDEF
  5
5429
  8
INDEX
 10
264.2992700284535204
 20
39.6536599257035078
 30
0.0
 40
1.8360000000000001
  1

 41
0.8
  3
ÄND_NAME_F
  2
ÄND_NAME_F
 70
     0
  0
ATTDEF
  5
542A
  8
INDEX
 10
254.6548071925381862
 20
39.6536599257035078
 30
0.0
 40
1.8360000000000001
  1

 41
0.7
  3
ÄND_TAG_F
  2
ÄND_TAG_F
 70
     0
  0
ATTDEF
  5
542B
  8
INDEX
 10
235.3658815207076032
 20
39.6536599257035078
 30
0.0
 40
1.8360000000000001
  1

 41
0.8
  3
ÄNDER_TEXT_F
  2
ÄNDER_TEXT_F
 70
     0
  0
ATTDEF
  5
542C
  8
INDEX
 10
231.4903195281372916
 20
39.6536599257035078
 30
-0.0000000000001137
 40
2.0
  1

 41
0.8
 72
     1
 11
231.4903195281372916
 21
39.6536599257035078
 31
-0.0000000000001137
  3
INDEX_F
  2
INDEX_F
 70
     0
  0
ATTDEF
  5
542D
  8
INDEX
 10
264.2992700284535204
 20
44.4758913436612033
 30
0.0
 40
1.8360000000000001
  1

 41
0.8
  3
ÄND_NAME_G
  2
ÄND_NAME_G
 70
     0
  0
ATTDEF
  5
542E
  8
INDEX
 10
254.6548071925382999
 20
44.4758913436612033
 30
0.0
 40
1.8360000000000001
  1

 41
0.7
  3
ÄND_TAG_G
  2
ÄND_TAG_G
 70
     0
  0
ATTDEF
  5
542F
  8
INDEX
 10
235.3658815207076032
 20
44.4758913436612033
 30
0.0
 40
1.8360000000000001
  1

 41
0.8
  3
ÄNDER_TEXT_G
  2
ÄNDER_TEXT_G
 70
     0
  0
ATTDEF
  5
5430
  8
INDEX
 10
231.4903195281372916
 20
44.4758913436612033
 30
-0.0000000000001137
 40
2.0
  1

 41
0.8
 72
     1
 11
231.4903195281372916
 21
44.4758913436612033
 31
-0.0000000000001137
  3
INDEX_G
  2
INDEX_G
 70
     0
  0
ATTDEF
  5
5431
  8
INDEX
 10
264.2992700284535204
 20
49.2981227616188633
 30
0.0
 40
1.8360000000000001
  1

 41
0.8
  3
ÄND_NAME_H
  2
ÄND_NAME_H
 70
     0
  0
ATTDEF
  5
5432
  8
INDEX
 10
254.6548071925382999
 20
49.2981227616188633
 30
0.0
 40
1.8360000000000001
  1

 41
0.7
  3
ÄND_TAG_H
  2
ÄND_TAG_H
 70
     0
  0
ATTDEF
  5
5450
  8
INDEX
 10
235.3658815207076032
 20
49.2981227616188633
 30
0.0
 40
1.8360000000000001
  1

 41
0.8
  3
ÄNDER_TEXT_H
  2
ÄNDER_TEXT_H
 70
     0
  0
LINE
  5
5451
  8
STEMPEL
 10
394.537320000000193
 20
19.364734253872939
 30
0.0
 11
394.5373200000000224
 21
4.8980399999999662
 31
0.0
  0
INSERT
  5
5452
  8
0
  2
*U46
 10
0.0
 20
0.0
 30
0.0
  0
LINE
  5
5453
  8
HILF
 10
274.4081791479604249
 20
44.6536599257035007
 30
0.0
 11
295.6259973869740065
 21
44.6536599257035078
 31
0.0
  0
LINE
  5
5454
  8
HILF
 10
278.4081791479604249
 20
42.6830713102111972
 30
0.0
 11
278.4081791479604249
 21
40.6242485411957901
 31
0.0
  0
LINE
  5
5455
  8
HILF
 10
283.9126607173297998
 20
43.6536599257035007
 30
0.0
 11
283.9126607173299135
 21
39.6536599257034723
 31
0.0
  0
LINE
  5
5456
  8
HILF
 10
278.4081791479604249
 20
42.6830713102111972
 30
0.0
 11
283.9126607173297998
 21
43.6536599257035007
 31
0.0
  0
LINE
  5
5457
  8
HILF
 10
278.4081791479604249
 20
40.6242485411957901
 30
0.0
 11
283.9126607173297998
 21
39.6536599257034794
 31
0.0
  0
LINE
  5
5458
  8
MITTEL
 10
277.9081791479604249
 20
41.6536599257035007
 30
0.0
 11
292.1259973869740065
 21
41.6536599257035007
 31
0.0
  0
LINE
  5
5459
  8
MITTEL
 10
289.6259973869740065
 20
44.1536599257034865
 30
0.0
 11
289.6259973869740065
 21
39.153659925703522
 31
0.0
  0
CIRCLE
  5
545A
  8
HILF
 10
289.6259973869740065
 20
41.6536599257035007
 30
0.0
 40
1.029411384507696
  0
CIRCLE
  5
545B
  8
HILF
 10
289.6259973869740065
 20
41.6536599257035007
 30
0.0
 40
1.9999999999999849
  0
ATTDEF
  5
545C
  8
INDEX
 10
231.4903195281372916
 20
49.2981227616188633
 30
-0.0000000000001137
 40
2.0
  1

 41
0.8
 72
     1
 11
231.4903195281372916
 21
49.2981227616188633
 31
-0.0000000000001137
  3
INDEX_H
  2
INDEX_H
 70
     0
  0
LINE
  5
545D
  8
HILF
 10
396.5373200000000224
 20
7.2580316557572502
 30
0.0
 11
404.5373200000000224
 21
7.2580316557572644
 31
0.0
  0
ENDBLK
  5
45D4
  8
0
  0
BLOCK
  8
0
  2
DIN_A3_2022_05
 70
     2
 10
0.0
 20
0.0
 30
0.0
  3
DIN_A3_2022_05
  1

  0
LINE
  5
D550
  8
HILF
 10
4.750000000000056
 20
4.75
 30
0.0
 11
414.7499999999998863
 21
4.75
 31
0.0
  0
LINE
  5
D551
  8
HILF
 10
414.7499999999998863
 20
4.75
 30
0.0
 11
414.7499999999998863
 21
291.75
 31
0.0
  0
LINE
  5
D552
  8
HILF
 10
414.7499999999998863
 20
291.75
 30
0.0
 11
4.750000000000056
 21
291.75
 31
0.0
  0
LINE
  5
D553
  8
HILF
 10
4.750000000000056
 20
291.75
 30
0.0
 11
4.750000000000056
 21
4.75
 31
0.0
  0
LINE
  5
D554
  8
STEMPEL
 10
409.75
 20
286.75
 30
0.0
 11
19.7500000000000604
 21
286.75
 31
0.0
  0
LINE
  5
D555
  8
STEMPEL
 10
19.7500000000000604
 20
9.7499999999999858
 30
0.0
 11
409.75
 21
9.7499999999999858
 31
0.0
  0
LINE
  5
D556
  8
STEMPEL
 10
409.75
 20
9.7499999999999858
 30
0.0
 11
409.75
 21
286.75
 31
0.0
  0
LINE
  5
D557
  8
STEMPEL
 10
19.7500000000000604
 20
286.75
 30
0.0
 11
19.7500000000000604
 21
9.7499999999999858
 31
0.0
  0
TEXT
  5
D558
  8
TEXT25
 10
413.4999999999998863
 20
9.7499999999999893
 30
0.0
 40
2.44902
  1
Diese Zeichnung ist urheberrechtlich geschuetzt und bleibt unser Eigentum. Sie darf weder ganz noch teilweise vervielfaeltigt und nicht an Dritte weitergegeben werden.
 50
90.0
 41
0.8
  7
GREEKS
  0
LINE
  5
D559
  8
HILF
 10
229.5
 20
4.7500000000000071
 30
0.0
 11
229.5
 21
9.7499999999999911
 31
0.0
  0
LINE
  5
D55A
  8
HILF
 10
229.5
 20
286.75
 30
0.0
 11
229.5
 21
291.75
 31
0.0
  0
LINE
  5
D55B
  8
STEMPEL
 10
409.7499999999997158
 20
57.7500781049011422
 30
0.0000000000000568
 11
229.749999999999801
 21
57.7500781049011067
 31
0.0
  0
LINE
  5
D55C
  8
STEMPEL
 10
277.7499988098015251
 20
57.7500781049010925
 30
0.0000000000000568
 11
277.6810656359419909
 21
9.7500967682715416
 31
0.0
  0
LINE
  5
D55D
  8
STEMPEL
 10
317.7499999999997726
 20
57.7500781049011422
 30
0.0000000000000568
 11
317.75
 21
9.7499999999999716
 31
0.0
  0
LINE
  5
D55E
  8
STEMPEL
 10
371.7499999999998863
 20
57.7500781049010001
 30
0.0000000000000568
 11
371.75
 21
24.5000038863982006
 31
0.0
  0
LINE
  5
D55F
  8
STEMPEL
 10
277.6953605084941046
 20
19.7500781049011103
 30
0.0
 11
229.75
 21
19.7499999999999787
 31
-0.0000000000001227
  0
LINE
  5
D560
  8
STEMPEL
 10
409.75
 20
24.5000038863982006
 30
0.0
 11
277.7017455898720755
 21
24.5000728638898408
 31
0.0
  0
LINE
  5
D561
  8
STEMPEL
 10
409.75
 20
43.5056199257035487
 30
0.0
 11
277.7293188584033032
 21
43.5056494874856625
 31
0.0
  0
LINE
  5
D562
  8
VOLL
 10
235.749999999999801
 20
57.7500781049011422
 30
0.0
 11
235.7499999999998863
 21
9.7499999999999716
 31
-0.0000000000000568
  0
LINE
  5
D563
  8
VOLL
 10
257.7499999999997726
 20
57.7500781049011209
 30
0.0
 11
257.7499999999998863
 21
9.7500000000000071
 31
-0.0000000000000568
  0
LINE
  5
D564
  8
VOLL
 10
267.7499999999997726
 20
57.7500781049011422
 30
0.0
 11
267.7499999999998863
 21
9.7500000000000284
 31
-0.0000000000000568
  0
LINE
  5
D565
  8
VOLL
 10
286.25
 20
43.5056199257035203
 30
0.0
 11
286.25
 21
24.5000038863981899
 31
0.0
  0
LINE
  5
D566
  8
VOLL
 10
298.7499999999997726
 20
57.7500781049010286
 30
0.0000000000000568
 11
298.7499999999998863
 21
24.5000038863981899
 31
0.0
  0
LINE
  5
D567
  8
HILF
 10
229.75
 20
53.0000682509737331
 30
-0.0000000000000568
 11
277.743105492668974
 21
53.0000781049011067
 31
0.0
  0
LINE
  5
D568
  8
HILF
 10
229.75
 20
48.2500583970463524
 30
-0.0000000000000568
 11
277.7362121755360818
 21
48.2500781049011067
 31
0.0
  0
LINE
  5
D569
  8
HILF
 10
229.75
 20
43.5000194241379603
 30
-0.0000000000000568
 11
277.7293188584033032
 21
43.5000489859200883
 31
0.0
  0
LINE
  5
D56A
  8
HILF
 10
229.7500952757627886
 20
38.750038689191598
 30
-0.0000000000000568
 11
277.722520817033228
 21
38.7500781049011209
 31
0.0
  0
LINE
  5
D56B
  8
HILF
 10
229.75
 20
33.9999999999999929
 30
-0.0000000000001226
 11
277.7157306982730915
 21
34.0000489859201096
 31
0.0
  0
LINE
  5
D56C
  8
HILF
 10
229.75
 20
29.2499999999999893
 30
-0.0000000000001226
 11
277.708940635013505
 21
29.2500586922471086
 31
0.0
  0
LINE
  5
D56D
  8
HILF
 10
229.75
 20
24.4999999999999893
 30
-0.0000000000001226
 11
277.7021505717536911
 21
24.5000683985741112
 31
0.0
  0
LINE
  5
D56E
  8
HILF
 10
277.7224255412705247
 20
38.7501175206106225
 30
0.0
 11
317.75
 21
38.7500781049011067
 31
0.0
  0
LINE
  5
D56F
  8
HILF
 10
277.7155322241375757
 20
34.0000982555569919
 30
0.0
 11
317.75
 21
34.0000489859201096
 31
0.0
  0
LINE
  5
D570
  8
HILF
 10
277.7499988098016956
 20
29.2500586922471086
 30
0.0
 11
317.75
 21
29.2500586922471086
 31
0.0
  0
LINE
  5
D571
  8
HILF
 10
319.75
 20
45.3283444953061192
 30
0.0
 11
369.7500000000001137
 21
45.3283444953061192
 31
0.0
  0
LINE
  5
D572
  8
HILF
 10
319.75
 20
38.7500781049011067
 30
0.0
 11
369.7500000000001137
 21
38.7500781049011209
 31
0.0
  0
LINE
  5
D573
  8
HILF
 10
319.75
 20
34.0000489859201025
 30
0.0
 11
369.7500000000001137
 21
34.0000489859201096
 31
0.0
  0
LINE
  5
D574
  8
HILF
 10
319.75
 20
29.2500586922471086
 30
0.0
 11
369.7500000000001137
 21
29.2500586922471086
 31
0.0
  0
LINE
  5
D575
  8
VOLL
 10
371.75
 20
34.0000489859201096
 30
0.0
 11
409.75
 21
34.0000489859201096
 31
0.0
  0
LINE
  5
D576
  8
HILF
 10
373.75
 20
45.3283444953061192
 30
0.0
 11
407.7499999999998863
 21
45.3283444953061192
 31
0.0
  0
LINE
  5
D577
  8
HILF
 10
319.75
 20
12.1099916557578702
 30
0.0
 11
395.75
 21
12.1099916557572609
 31
0.0
  0
TEXT
  5
D578
  8
TEXT25
 10
240.3785714285712061
 20
13.7500050998555707
 30
-0.0000000000000225
 40
2.0
  1
Änderung
 41
0.8
  7
GREEKS
 72
     4
 11
245.749999999999801
 21
14.6071479569984195
 31
-0.0000000000000225
  0
TEXT
  5
D579
  8
TEXT25
 10
319.800276715545408
 20
54.500078104901128
 30
0.0000000000000281
 40
2.399999999999999
  1
Benennung
 41
0.8
  7
GREEKS
  0
TEXT
  5
D57A
  8
TEXT25
 10
373.7650923444650743
 20
54.500078104901128
 30
0.0000000000000454
 40
2.399999999999999
  1
Zeichnungs Nr.
 41
0.8
  7
GREEKS
  0
TEXT
  5
D57B
  8
TEXT25
 10
319.8002593468684722
 20
21.2500508730661615
 30
0.0
 40
2.399999999999999
  1
Bauvorhaben
 41
0.8
  7
GREEKS
  0
TEXT
  5
D57C
  8
TEXT25
 10
373.7500007213533877
 20
40.255627986744642
 30
0.0
 40
2.399999999999999
  1
Ersatz für:
 41
0.8
  7
GREEKS
  0
TEXT
  5
D57D
  8
TEXT25
 10
233.749999999999801
 20
11.7499999999999805
 30
0.0
 40
2.0
  1
Index
 50
90.0
 41
0.8
  7
GREEKS
  0
TEXT
  5
D57E
  8
TEXT25
 10
260.6333333333330984
 20
13.7500050998555707
 30
-0.0000000000000225
 40
2.0
  1
Tag
 41
0.8
  7
GREEKS
 72
     4
 11
262.4999999999997726
 21
14.4166717665222297
 31
-0.0000000000000225
  0
TEXT
  5
D57F
  8
TEXT25
 10
269.8380952380949793
 20
13.7500050998555707
 30
-0.0000000000000225
 40
2.0
  1
Name
 41
0.8
  7
GREEKS
 72
     4
 11
272.9999999999997726
 21
14.7500050998555601
 31
-0.0000000000000225
  0
TEXT
  5
D580
  8
TEXT25
 10
278.5699834476761794
 20
35.0000489859201025
 30
0.0
 40
1.9288925671830599
  1
Gez.
 41
0.8
  7
GREEKS
  0
TEXT
  5
D581
  8
TEXT25
 10
278.5699834476761794
 20
30.2500586922471086
 30
0.0
 40
1.9288925671830599
  1
Gepr.
 41
0.8
  7
GREEKS
  0
TEXT
  5
D582
  8
TEXT25
 10
278.5699834476761794
 20
25.2166942538729302
 30
0.0
 40
1.9288925671830599
  1
Norm.
 41
0.8
  7
GREEKS
  0
TEXT
  5
D583
  8
TEXT25
 10
373.7499999999997726
 20
30.7500489859200989
 30
0.0
 40
2.399999999999999
  1
ersetzt durch:
 41
0.8
  7
GREEKS
  0
LINE
  5
D584
  8
HILF
 10
229.7499999999998863
 20
9.7499999999999858
 30
-0.0000000000000568
 11
229.749999999999801
 21
69.7499999999999858
 31
0.0
  0
LINE
  5
D585
  8
HILF
 10
19.7500000000000604
 20
148.25
 30
0.0
 11
4.750000000000056
 21
148.25
 31
0.0
  0
TEXT
  5
D586
  8
TEXT25
 10
301.8042857142856974
 20
54.500078104901128
 30
0.0
 40
2.399999999999999
  1
Zul. Abw.
 41
0.8
  7
GREEKS
 72
     1
 11
308.25
 21
54.500078104901128
 31
0.0
  0
TEXT
  5
D587
  8
TEXT25
 10
282.5814279763292802
 20
54.5000781049011209
 30
0.0
 40
2.399999999999999
  1
Maßstab
 41
0.8
  7
GREEKS
 72
     1
 11
288.249999404900791
 21
54.5000781049011209
 31
0.0
  0
TEXT
  5
D588
  8
TEXT25
 10
305.0880952380953204
 20
40.1611938138799331
 30
0.0
 40
2.0
  1
Name
 41
0.8
  7
GREEKS
 72
     4
 11
308.25
 21
41.1611938138799331
 31
0.0
  0
TEXT
  5
D589
  8
TEXT25
 10
290.6333333333333258
 20
40.1730450526827809
 30
0.0
 40
2.0
  1
Tag
 41
0.8
  7
GREEKS
 72
     4
 11
292.5
 21
40.8397117193494523
 31
0.0
  0
LINE
  5
D58A
  8
HILF
 10
277.7499999999997726
 20
57.7500784436193513
 30
0.0000000000000568
 11
277.7499999999998863
 21
69.7500000000001847
 31
0.0
  0
INSERT
  5
D58B
  8
0
  2
*U52
 10
0.0
 20
0.0
 30
0.0
  0
CIRCLE
  5
D58C
  8
LOGO
 62
   150
 10
289.7663981800819784
 20
17.1250263088037009
 30
0.0
 40
2.7555608102615148
  0
CIRCLE
  5
D58D
  8
LOGO
 62
   150
 10
307.4703801676780017
 20
17.1250263088037293
 30
0.0
 40
2.7555608102615148
  0
CIRCLE
  5
D58E
  8
LOGO
 62
   150
 10
313.3605993009791746
 20
20.1797404934426012
 30
0.0
 40
1.2301610760096049
  0
INSERT
  5
D58F
  8
0
  2
*U53
 10
0.0
 20
0.0
 30
0.0
  0
POLYLINE
  5
D590
  8
LOGO
 62
   150
 66
     1
 10
0.0
 20
0.0
 30
0.0
 70
     1
  0
VERTEX
  5
36257
  8
LOGO
 62
   150
 10
299.190310420858907
 20
18.3059809417729511
 30
0.0
 42
0.9999999999999998
  0
VERTEX
  5
36258
  8
LOGO
 62
   150
 10
299.190310420858907
 20
19.8805871190652503
 30
0.0
  0
VERTEX
  5
36259
  8
LOGO
 62
   150
 10
295.9426851801936209
 20
19.8805871190652503
 30
0.0
  0
VERTEX
  5
3625A
  8
LOGO
 62
   150
 10
295.9426851801936209
 20
18.3059809417729511
 30
0.0
  0
SEQEND
  5
3625B
  8
LOGO
 62
   150
  0
POLYLINE
  5
D591
  8
LOGO
 62
   150
 66
     1
 10
0.0
 20
0.0
 30
0.0
 70
     1
  0
VERTEX
  5
3625C
  8
LOGO
 62
   150
 10
282.5822574961860028
 20
15.6488330175921995
 30
0.0
  0
VERTEX
  5
3625D
  8
LOGO
 62
   150
 10
282.5822574961860028
 20
21.5536061824383083
 30
0.0
  0
VERTEX
  5
3625E
  8
LOGO
 62
   150
 10
280.9092384328130265
 20
21.5536061824383083
 30
0.0
  0
VERTEX
  5
3625F
  8
LOGO
 62
   150
 10
280.9092384328130265
 20
15.6488330175921995
 30
0.0
 42
0.4142135623730961
  0
VERTEX
  5
36260
  8
LOGO
 62
   150
 10
283.8616250152359157
 20
12.6964464351691504
 30
0.0
  0
VERTEX
  5
36261
  8
LOGO
 62
   150
 10
289.7663981800819784
 20
12.6964464351691699
 30
0.0
 42
4.3731202552251798
  0
VERTEX
  5
36262
  8
LOGO
 62
   150
 10
286.2995257685108754
 20
14.3694654985423895
 30
0.0
  0
VERTEX
  5
36263
  8
LOGO
 62
   150
 10
283.8616250152359157
 20
14.3694654985423504
 30
0.0
 42
-0.4142135623730961
  0
SEQEND
  5
36264
  8
LOGO
 62
   150
  0
POLYLINE
  5
D592
  8
LOGO
 62
   150
 66
     1
 10
0.0
 20
0.0
 30
0.0
 70
     1
  0
VERTEX
  5
36265
  8
LOGO
 62
   150
 10
294.2696661168204173
 20
12.6964464351691397
 30
0.0
  0
VERTEX
  5
36266
  8
LOGO
 62
   150
 10
294.2696661168204173
 20
21.5536061824383083
 30
0.0
  0
VERTEX
  5
36267
  8
LOGO
 62
   150
 10
299.190310420858907
 20
21.5536061824383083
 30
0.0
 42
-0.7007983443495949
  0
VERTEX
  5
36268
  8
LOGO
 62
   150
 10
300.7687851757189037
 20
17.2060631795418786
 30
0.0
  0
VERTEX
  5
36269
  8
LOGO
 62
   150
 10
301.2747683305397004
 20
15.3177083379764998
 30
0.0
 42
0.3394542588633795
  0
VERTEX
  5
3626A
  8
LOGO
 62
   150
 10
302.5105424585054266
 20
14.3694654985422492
 30
0.0
  0
VERTEX
  5
3626B
  8
LOGO
 62
   150
 10
304.0035077561070125
 20
14.3694654985422297
 30
0.0
 42
-4.3731202552254533
  0
VERTEX
  5
3626C
  8
LOGO
 62
   150
 10
307.4703801676780017
 20
12.6964464351691397
 30
0.0
  0
VERTEX
  5
3626D
  8
LOGO
 62
   150
 10
302.5105424585054266
 20
12.6964464351691699
 30
0.0
 42
-0.3394542588633795
  0
VERTEX
  5
3626E
  8
LOGO
 62
   150
 10
299.6587560093537945
 20
14.8846991415560197
 30
0.0
  0
VERTEX
  5
3626F
  8
LOGO
 62
   150
 10
299.190310420858907
 20
16.6329618783998896
 30
0.0
  0
VERTEX
  5
36270
  8
LOGO
 62
   150
 10
299.190310420858907
 20
16.6329618783998896
 30
0.0
  0
VERTEX
  5
36271
  8
LOGO
 62
   150
 10
295.9426851801936209
 20
16.6329618783998896
 30
0.0
  0
VERTEX
  5
36272
  8
LOGO
 62
   150
 10
295.9426851801936209
 20
12.6964464351691699
 30
0.0
  0
SEQEND
  5
36273
  8
LOGO
 62
   150
  0
INSERT
  5
D593
  8
0
  2
*U54
 10
0.0
 20
0.0
 30
0.0
  0
LINE
  5
D594
  8
HILF
 10
409.7499999999998863
 20
69.7499999999999858
 30
0.0
 11
229.7499999999998863
 21
69.7499999999999858
 31
0.0
  0
INSERT
  5
D595
  8
0
  2
*U55
 10
0.0
 20
0.0
 30
0.0
  0
LINE
  5
D596
  8
STEMPEL
 10
397.7500000000001137
 20
24.5000038863982184
 30
0.0
 11
397.75
 21
9.7499999999999858
 31
0.0
  0
INSERT
  5
D597
  8
0
  2
*U56
 10
0.0
 20
0.0
 30
0.0
  0
LINE
  5
D598
  8
HILF
 10
277.7499988098016956
 20
49.5056199257035274
 30
0.0
 11
298.75
 21
49.5056199257035274
 31
0.0
  0
LINE
  5
D599
  8
HILF
 10
281.6788925671830839
 20
47.5350313102112167
 30
0.0
 11
281.6788925671830839
 21
45.4762085411958097
 31
0.0
  0
LINE
  5
D59A
  8
HILF
 10
287.1833741365525157
 20
48.5056199257035203
 30
0.0
 11
287.1833741365525725
 21
44.5056199257034919
 31
0.0
  0
LINE
  5
D59B
  8
HILF
 10
281.6788925671830839
 20
47.5350313102112167
 30
0.0
 11
287.1833741365525157
 21
48.5056199257035203
 31
0.0
  0
LINE
  5
D59C
  8
HILF
 10
281.6788925671830839
 20
45.4762085411958097
 30
0.0
 11
287.1833741365525725
 21
44.5056199257034919
 31
0.0
  0
LINE
  5
D59D
  8
MITTEL
 10
281.1788925671830839
 20
46.5056199257035203
 30
0.0
 11
295.1788925671830839
 21
46.5056199257035203
 31
0.0
  0
LINE
  5
D59E
  8
MITTEL
 10
292.6788925671830839
 20
49.0056199257035203
 30
0.0
 11
292.6788925671830839
 21
44.0056199257035416
 31
0.0
  0
CIRCLE
  5
D59F
  8
HILF
 10
292.6788925671830839
 20
46.5056199257035203
 30
0.0
 40
1.029411384507696
  0
CIRCLE
  5
D5A0
  8
HILF
 10
292.6788925671830839
 20
46.5056199257035203
 30
0.0
 40
1.9999999999999849
  0
ATTDEF
  5
D5A1
  8
TEXT25
 10
301.278571428571297
 20
35.0000489859200599
 30
0.0000000000000195
 40
2.0
  1

 41
0.8
 72
     1
 11
308.2499999999998863
 21
34.3333823192534027
 31
0.0000000000000195
  3
ERST_NAME
  2
ERST_NAME
 70
     0
 74
     1
  0
ATTDEF
  5
D5A2
  8
TEXT25
 10
287.25
 20
35.0000489859201025
 30
0.0
 40
2.0
  1

 41
0.8
  3
ERST_TAG
  2
ERST_TAG
 70
     0
  0
ATTDEF
  5
D5A3
  8
TEXT25
 10
279.1809517858530967
 20
40.2792892771768507
 30
0.0
 40
2.0
  1

 41
0.8
 72
     4
 11
281.999999404900791
 21
41.2792892771768507
 31
0.0
  3

  2
JAHR
 70
     0
1001
AcDbAttr
1070
     0
1070
     1
  0
ATTDEF
  5
D5A4
  8
HILF
 10
281.8957136906150822
 20
50.7424285354663525
 30
0.0
 40
2.399999999999999
  1

 41
0.8
 72
     4
 11
288.249999404900791
 21
51.9424285354663482
 31
0.0
  3

  2
MAßSTAB
 70
     0
1001
AcDbAttr
1070
     0
1070
     1
  0
ATTDEF
  5
D5A5
  8
HILF
 10
282.6522150939950961
 20
62.5999999999999801
 30
0.0
 40
2.2000000000000002
  1

 41
0.8
  3

  2
WERKSTOFF_1
 70
     0
1001
AcDbAttr
1070
     0
1070
     1
  0
ATTDEF
  5
D5A6
  8
HILF
 10
282.6522150939950961
 20
59.0999999999999801
 30
0.0
 40
2.2000000000000002
  1

 41
0.8
  3

  2
WERKSTOFF_2
 70
     0
1001
AcDbAttr
1070
     0
1070
     1
  0
ATTDEF
  5
D5A7
  8
TEXT25
 10
299.75
 20
50.4042402426557601
 30
0.0
 40
1.8360000000000001
  1

 41
0.8
 11
299.75
 21
52.2402402426557586
 31
0.0
  3
DIN
  2
DIN
 70
     0
 74
     3
  0
ATTDEF
  5
D5A9
  8
VOLL
 10
319.75
 20
46.3283444953061121
 30
0.0
 40
3.0
  1

 41
0.8
  3

  2
BENENNUNG
 70
     0
1001
AcDbAttr
1070
     0
1070
     1
  0
ATTDEF
  5
D5AA
  8
HILF
 10
319.75
 20
39.7500781049011067
 30
0.0
 40
2.5
  1

 41
0.8
  3

  2
ZEILE_1
 70
     0
  0
ATTDEF
  5
D5AB
  8
HILF
 10
319.75
 20
35.0000489859201025
 30
0.0
 40
2.5
  1

 41
0.8
  3
ZEILE_2
  2
ZEILE_2
 70
     0
  0
ATTDEF
  5
D5AC
  8
BEM
 10
319.7499995993900939
 20
25.5000508993201294
 30
0.0
 40
2.0
  1
19140.000X - Kopie.dxf
 41
0.8
  3
DATEINAME
  2
DATEINAME
 70
     0
1001
AcDbAttr
1070
     0
1070
     1
  0
ATTDEF
  5
D5B1
  8
VOLL
 10
384.9785714285713993
 20
46.3283444953061121
 30
0.0
 40
3.0
  1

 41
0.8
 72
     1
 11
390.75
 21
47.8283444953061192
 31
0.0
  3
ZG_NR
  2
ZG_NR
 70
     0
 74
     2
  0
ATTDEF
  5
D5B2
  8
VOLL
 10
377.7976190476190936
 20
35.0000489859201167
 30
0.0
 40
2.5
  1

 41
0.8
 72
     1
 11
390.75
 21
36.2500489859201167
 31
0.0
  3
ZG_Ersatz_für:
  2
ZG_ERSATZ_FÜR:
 70
     0
 74
     2
  0
ATTDEF
  5
D5B3
  8
VOLL
 10
374.8928571428572241
 20
25.5000038863982006
 30
0.0
 40
2.5
  1

 41
0.8
 72
     1
 11
390.75
 21
26.7500038863982006
 31
0.0
  3
ZG Ersetzt durch:
  2
ZG_ERSETZT_DURCH:
 70
     0
 74
     2
  0
ATTDEF
  5
D5B4
  8
EDV-ART_NR_
 10
340.75
 20
30.2500586922471086
 30
0.0
 40
2.5
  1

 41
0.8
  3
EDV_ART
  2
EDV_ART
 70
     0
  0
ATTDEF
  5
D5B5
  8
HILF
 10
231.249999999999801
 20
62.5999999999999801
 30
-0.0000000000000014
 40
2.2000000000000002
  1

 41
0.8
 11
231.249999999999801
 21
64.7999999999999829
 31
-0.0000000000000014
  3
Prüfantragsnummer:
  2
PRÜFANTRAGSNUMMER:
 70
     0
 74
     3
  0
ATTDEF
  5
D5B7
  8
HILF
 10
397.321428571428612
 20
13.1099916557578595
 30
0.0
 40
2.5
  1

 41
0.8
 72
     4
 11
403.7499999999998863
 21
14.3599916557578595
 31
0.0
  3

  2
GEWICHT:
 70
     0
  0
ATTDEF
  5
D5B8
  8
TEXT25
 10
300.7297567747560265
 20
30.2500586922470696
 30
0.0000000000000195
 40
2.0
  1

 41
0.8
 72
     1
 11
308.2345186795179188
 21
29.5833920255804017
 31
0.0000000000000195
  3
Gepr._NAME
  2
GEPR._NAME
 70
     0
 74
     1
  0
ATTDEF
  5
D5B9
  8
TEXT25
 10
287.25
 20
30.2500586922471015
 30
0.0
 40
2.0
  1

 41
0.8
  3
Gepr._TAG
  2
GEPR._TAG
 70
     0
  0
ATTDEF
  5
D5BA
  8
TEXT25
 10
300.486800577079805
 20
25.5000038863981615
 30
0.0000000000000195
 40
2.0
  1

 41
0.8
 72
     1
 11
308.2582291485084056
 21
24.8333372197314901
 31
0.0000000000000195
  3
Norm._NAME
  2
NORM._NAME
 70
     0
 74
     1
  0
ATTDEF
  5
D5BB
  8
TEXT25
 10
287.25
 20
25.5000038863981899
 30
0.0
 40
2.0
  1

 41
0.8
  3
Norm._TAG
  2
NORM._TAG
 70
     0
  0
ATTDEF
  5
D5BC
  8
VOLL
 10
319.75
 20
13.1099916557578595
 30
0.0
 40
3.0
  1

 41
0.8
  3

  2
BAUVORHABEN:
 70
     0
1001
AcDbAttr
1070
     0
1070
     1
  0
ATTDEF
  5
D5BD
  8
INDEX
 10
268.75
 20
20.7500000000002416
 30
-0.0000000000001795
 40
1.8
  1

 41
0.8
  3
ÄND_NAME_A
  2
ÄND_NAME_A
 70
     0
  0
ATTDEF
  5
D5BE
  8
INDEX
 10
258.7499999999998863
 20
20.7500000000000107
 30
-0.0000000000001795
 40
1.8
  1

 41
0.7
  3
ÄND_TAG_A
  2
ÄND_TAG_A
 70
     0
  0
ATTDEF
  5
D5BF
  8
INDEX
 10
236.7499999999998863
 20
20.7499999999999716
 30
-0.0000000000001795
 40
1.8
  1

 41
0.8
  3
ÄNDER_TEXT_A
  2
ÄNDER_TEXT_A
 70
     0
  0
ATTDEF
  5
D5C0
  8
INDEX
 10
227.7976190476188094
 20
20.7499999999999787
 30
-0.0000000000000658
 40
2.0
  1

 41
0.8
 72
     1
 11
232.749999999999801
 21
20.7499999999999787
 31
-0.0000000000000658
  3
INDEX_A
  2
INDEX_A
 70
     0
  0
ATTDEF
  5
D5C1
  8
INDEX
 10
268.75
 20
25.5000076984379795
 30
-0.0000000000000658
 40
1.8
  1

 41
0.8
  3
ÄND_NAME_B
  2
ÄND_NAME_B
 70
     0
  0
ATTDEF
  5
D5C2
  8
INDEX
 10
258.7499999999998863
 20
25.4999999999998117
 30
-0.0000000000001226
 40
1.8
  1

 41
0.7
  3
ÄND_TAG_B
  2
ÄND_TAG_B
 70
     0
  0
ATTDEF
  5
D5C3
  8
INDEX
 10
236.7499999999998863
 20
25.5000000000001812
 30
-0.0000000000001795
 40
1.8
  1

 41
0.8
  3
ÄNDER_TEXT_B
  2
ÄNDER_TEXT_B
 70
     0
  0
ATTDEF
  5
D5C4
  8
INDEX
 10
227.8738095238093138
 20
25.5000000000001812
 30
-0.0000000000001226
 40
2.0
  1

 41
0.8
 72
     1
 11
232.749999999999801
 21
25.5000000000001812
 31
-0.0000000000001226
  3
INDEX_B
  2
INDEX_B
 70
     0
  0
ATTDEF
  5
D5C5
  8
INDEX
 10
268.75
 20
30.2500000000000391
 30
-0.0000000000001226
 40
1.8
  1

 41
0.8
  3
ÄND_NAME_C
  2
ÄND_NAME_C
 70
     0
  0
ATTDEF
  5
D5C6
  8
INDEX
 10
258.75
 20
30.2500000000000213
 30
-0.0000000000001226
 40
1.8
  1

 41
0.7
  3
ÄND_TAG_C
  2
ÄND_TAG_C
 70
     0
  0
ATTDEF
  5
D5C7
  8
INDEX
 10
236.75
 20
30.2499999999997691
 30
-0.0000000000001226
 40
1.8
  1

 41
0.8
  3
ÄNDER_TEXT_C
  2
ÄNDER_TEXT_C
 70
     0
  0
ATTDEF
  5
D5C8
  8
INDEX
 10
227.8357142857140047
 20
30.2499999999999893
 30
-0.0000000000000658
 40
2.0
  1

 41
0.8
 72
     1
 11
232.749999999999801
 21
30.2499999999999893
 31
-0.0000000000000658
  3
INDEX_C
  2
INDEX_C
 70
     0
  0
ATTDEF
  5
D5C9
  8
INDEX
 10
268.75
 20
34.9999999999998295
 30
-0.0000000000001226
 40
1.8
  1

 41
0.8
  3
ÄND_NAME_D
  2
ÄND_NAME_D
 70
     0
  0
ATTDEF
  5
D5CA
  8
INDEX
 10
258.75
 20
35.0000000000000071
 30
-0.0000000000001795
 40
1.8
  1

 41
0.7
  3
ÄND_TAG_D
  2
ÄND_TAG_D
 70
     0
  0
ATTDEF
  5
D5CB
  8
INDEX
 10
236.75
 20
34.9999999999999716
 30
-0.0000000000001795
 40
1.8
  1

 41
0.8
  3
ÄNDER_TEXT_D
  2
ÄNDER_TEXT_D
 70
     0
  0
ATTDEF
  5
D5CC
  8
INDEX
 10
227.8738095238093138
 20
34.9999999999999716
 30
-0.0000000000001226
 40
2.0
  1

 41
0.8
 72
     1
 11
232.749999999999801
 21
34.9999999999999716
 31
-0.0000000000001226
  3
INDEX_D
  2
INDEX_D
 70
     0
  0
ATTDEF
  5
D5CD
  8
INDEX
 10
268.7500952757627033
 20
39.7500386891918609
 30
-0.0000000000001137
 40
1.8
  1

 41
0.8
  3
ÄND_NAME_E
  2
ÄND_NAME_E
 70
     0
  0
ATTDEF
  5
D5CE
  8
INDEX
 10
258.750095275762817
 20
39.7500386891916193
 30
-0.0000000000001137
 40
1.8
  1

 41
0.7
  3
ÄND_TAG_E
  2
ÄND_TAG_E
 70
     0
  0
ATTDEF
  5
D5CF
  8
INDEX
 10
236.7500952757627886
 20
39.7500386891913777
 30
-0.0000000000000568
 40
1.8
  1

 41
0.8
  3
ÄNDER_TEXT_E
  2
ÄNDER_TEXT_E
 70
     0
  0
ATTDEF
  5
D5D0
  8
INDEX
 10
227.9120000376672976
 20
39.7500386891913777
 30
0.0
 40
2.0
  1

 41
0.8
 72
     1
 11
232.7500952757625043
 21
39.7500386891913777
 31
0.0
  3
INDEX_E
  2
INDEX_E
 70
     0
  0
ATTDEF
  5
D5D1
  8
INDEX
 10
268.75
 20
44.5000194241377969
 30
-0.0000000000000568
 40
1.8
  1

 41
0.8
  3
ÄND_NAME_F
  2
ÄND_NAME_F
 70
     0
  0
ATTDEF
  5
D5D2
  8
INDEX
 10
258.75
 20
44.5000194241379674
 30
-0.0000000000001137
 40
1.8
  1

 41
0.7
  3
ÄND_TAG_F
  2
ÄND_TAG_F
 70
     0
  0
ATTDEF
  5
D5D3
  8
INDEX
 10
236.75
 20
44.500019424137939
 30
-0.0000000000001137
 40
1.8
  1

 41
0.8
  3
ÄNDER_TEXT_F
  2
ÄNDER_TEXT_F
 70
     0
  0
ATTDEF
  5
D5D4
  8
INDEX
 10
227.9119047619045091
 20
44.5000194241379603
 30
0.0
 40
2.0
  1

 41
0.8
 72
     1
 11
232.749999999999801
 21
44.5000194241379603
 31
0.0
  3
INDEX_F
  2
INDEX_F
 70
     0
  0
ATTDEF
  5
D5D5
  8
INDEX
 10
268.75
 20
49.2500583970462031
 30
-0.0000000000000568
 40
1.8
  1

 41
0.8
  3
ÄND_NAME_G
  2
ÄND_NAME_G
 70
     0
  0
ATTDEF
  5
D5D6
  8
INDEX
 10
258.75
 20
49.2500583970461676
 30
-0.0000000000000568
 40
1.8
  1

 41
0.7
  3
ÄND_TAG_G
  2
ÄND_TAG_G
 70
     0
  0
ATTDEF
  5
D5D7
  8
INDEX
 10
236.75
 20
49.2500583970461321
 30
-0.0000000000000568
 40
1.8
  1

 41
0.8
  3
ÄNDER_TEXT_G
  2
ÄNDER_TEXT_G
 70
     0
  0
ATTDEF
  5
D5D8
  8
INDEX
 10
227.8357142857140047
 20
49.2500583970461321
 30
0.0
 40
2.0
  1

 41
0.8
 72
     1
 11
232.749999999999801
 21
49.2500583970461321
 31
0.0
  3
INDEX_G
  2
INDEX_G
 70
     0
  0
ATTDEF
  5
D5D9
  8
INDEX
 10
268.75
 20
54.0000682509737828
 30
-0.0000000000001137
 40
1.8
  1

 41
0.8
  3
ÄND_NAME_H
  2
ÄND_NAME_H
 70
     0
  0
ATTDEF
  5
D5DA
  8
INDEX
 10
258.75
 20
54.0000682509735626
 30
-0.0000000000000568
 40
1.8
  1

 41
0.7
  3
ÄND_TAG_H
  2
ÄND_TAG_H
 70
     0
  0
ATTDEF
  5
D5DB
  8
INDEX
 10
236.75
 20
54.0000682509735199
 30
-0.0000000000000568
 40
1.8
  1

 41
0.8
  3
ÄNDER_TEXT_H
  2
ÄNDER_TEXT_H
 70
     0
  0
ATTDEF
  5
D5DC
  8
INDEX
 10
227.8738095238093138
 20
54.0000682509735199
 30
0.0
 40
2.0
  1

 41
0.8
 72
     1
 11
232.749999999999801
 21
54.0000682509735199
 31
0.0
  3
INDEX_H
  2
INDEX_H
 70
     0
  0
POLYLINE
  5
D5F7
  8
DEFPOINTS
  6
STRICHPUNKT
 62
     6
 66
     1
 10
0.0
 20
0.0
 30
0.0
 70
     1
  0
VERTEX
  5
36281
  8
DEFPOINTS
  6
STRICHPUNKT
 62
     6
 10
0.0
 20
296.5
 30
0.0
  0
VERTEX
  5
36282
  8
DEFPOINTS
  6
STRICHPUNKT
 62
     6
 10
419.5
 20
296.5
 30
0.0
  0
VERTEX
  5
36283
  8
DEFPOINTS
  6
STRICHPUNKT
 62
     6
 10
419.5
 20
0.0
 30
0.0
  0
VERTEX
  5
36284
  8
DEFPOINTS
  6
STRICHPUNKT
 62
     6
 10
0.0
 20
0.0
 30
0.0
  0
SEQEND
  5
36285
  8
DEFPOINTS
  6
STRICHPUNKT
 62
     6
  0
INSERT
  5
D5F8
  8
0
  2
*U57
 10
0.0
 20
0.0
 30
0.0
  0
INSERT
  5
D5F9
  8
0
  2
*U58
 10
0.0
 20
0.0
 30
0.0
  0
ENDBLK
  5
5511
  8
0
  0
BLOCK
  8
0
  2
DIN_A4_2022_05
 70
     2
 10
0.0
 20
0.0
 30
0.0
  3
DIN_A4_2022_05
  1

  0
LINE
  5
57FB
  8
HILF
 10
0.0
 20
0.0
 30
0.0
 11
198.7328322904544962
 21
-0.0000000000000142
 31
0.0
  0
LINE
  5
57FC
  8
HILF
 10
198.7328322904544962
 20
-0.0000000000000142
 30
0.0
 11
198.7328322904544962
 21
290.9435760000000073
 31
0.0
  0
LINE
  5
57FD
  8
HILF
 10
198.7328322904544962
 20
290.9435760000000073
 30
0.0
 11
0.0000000000001137
 21
290.9435760000000073
 31
0.0
  0
LINE
  5
57FE
  8
STEMPEL
 10
193.834792290454601
 20
286.0455359999999132
 30
0.0
 11
18.9107114429713192
 21
286.0455359999999132
 31
0.0
  0
LINE
  5
57FF
  8
STEMPEL
 10
18.9107114429713192
 20
4.8980399999999662
 30
0.0
 11
193.834792290454601
 21
4.8980399999999511
 31
0.0
  0
LINE
  5
5800
  8
STEMPEL
 10
193.834792290454601
 20
4.8980399999999511
 30
0.0
 11
193.834792290454601
 21
286.0455359999999132
 31
0.0
  0
TEXT
  5
5801
  8
TEXT25
 10
196.9760060156941961
 20
5.1692839616613071
 30
0.0
 40
2.44902
  1
Diese Zeichnung ist urheberrechtlich geschuetzt und bleibt unser Eigentum. Sie darf weder ganz noch teilweise vervielfaeltigt und nicht an Dritte weitergegeben werden.
 50
90.0
 41
0.8
  0
LINE
  5
5802
  8
STEMPEL
 10
193.834792290454601
 20
53.1203541795765091
 30
0.0
 11
18.9122298260214201
 21
53.1203541795764593
 31
0.0
  0
LINE
  5
5803
  8
STEMPEL
 10
65.205651438414975
 20
53.120354179576438
 30
0.0
 11
65.205651438414975
 21
4.8980399999999369
 31
0.0
  0
LINE
  5
5804
  8
STEMPEL
 10
105.712395349259296
 20
53.1203541795764878
 30
0.0
 11
105.712395349259296
 21
4.8980399999999369
 31
0.0
  0
LINE
  5
5805
  8
STEMPEL
 10
159.7213872303846927
 20
53.1203541795763527
 30
0.0
 11
159.7213872303846927
 21
19.3647342538729106
 31
0.0
  0
LINE
  5
5806
  8
STEMPEL
 10
65.2056514384148613
 20
14.54250283591524
 30
0.0
 11
18.9122298260214201
 21
14.54250283591524
 31
0.0
  0
LINE
  5
5807
  8
STEMPEL
 10
193.8347922904546863
 20
19.3647342538729212
 30
0.0
 11
65.205651438414975
 21
19.3647342538728893
 31
0.0
  0
LINE
  5
5808
  8
STEMPEL
 10
193.8347922904546863
 20
38.6536599257035292
 30
0.0
 11
65.205651438414975
 21
38.6536599257035007
 31
0.0
  0
LINE
  5
5809
  8
VOLL
 10
25.6633538111622101
 20
53.1203541795764878
 30
0.0
 11
25.6633538111621
 21
4.8980399999999369
 31
0.0
  0
LINE
  5
580A
  8
VOLL
 10
44.9522794829928216
 20
53.120354179576438
 30
0.0
 11
44.9522794829927008
 21
4.8980399999999369
 31
0.0
  0
LINE
  5
580B
  8
VOLL
 10
54.5967423189081202
 20
53.120354179576438
 30
0.0
 11
54.5967423189080066
 21
4.8980399999999369
 31
0.0
  0
LINE
  5
580C
  8
VOLL
 10
73.8856679907387388
 20
38.6536599257035007
 30
0.0
 11
73.8856679907387388
 21
19.3647342538728893
 31
0.0
  0
LINE
  5
580D
  8
VOLL
 10
86.4234696774286704
 20
53.1203541795763812
 30
0.0
 11
86.4234696774285567
 21
19.3647342538728893
 31
0.0
  0
LINE
  5
580E
  8
HILF
 10
18.9122298260214201
 20
48.298122761618842
 30
0.0
 11
65.205651438414975
 21
48.298122761618842
 31
0.0
  0
LINE
  5
580F
  8
HILF
 10
18.9122298260214201
 20
43.4758913436611891
 30
0.0
 11
65.205651438414975
 21
43.4758913436611891
 31
0.0
  0
LINE
  5
5810
  8
HILF
 10
18.9122298260214201
 20
38.6536599257035007
 30
0.0
 11
65.205651438414975
 21
38.6536599257035007
 31
0.0
  0
LINE
  5
5811
  8
HILF
 10
18.9122298260214201
 20
33.8314285077458408
 30
0.0
 11
65.205651438414975
 21
33.8314285077458408
 31
0.0
  0
LINE
  5
5812
  8
HILF
 10
18.9122298260214201
 20
29.0091970897881986
 30
0.0
 11
65.205651438414975
 21
29.0091970897881986
 31
0.0
  0
LINE
  5
5813
  8
HILF
 10
18.9122298260214201
 20
24.1869656718305386
 30
0.0
 11
65.205651438414975
 21
24.1869656718305386
 31
0.0
  0
LINE
  5
5814
  8
HILF
 10
18.9122298260214201
 20
19.3647342538728893
 30
0.0
 11
65.205651438414975
 21
19.3647342538728893
 31
0.0
  0
LINE
  5
5815
  8
HILF
 10
65.205651438414975
 20
33.8314285077458408
 30
0.0
 11
105.712395349259296
 21
33.8314285077458408
 31
0.0
  0
LINE
  5
5816
  8
HILF
 10
65.205651438414975
 20
29.0091970897881986
 30
0.0
 11
105.712395349259296
 21
29.0091970897881986
 31
0.0
  0
LINE
  5
5817
  8
HILF
 10
65.205651438414975
 20
24.1869656718305386
 30
0.0
 11
105.712395349259296
 21
24.1869656718305386
 31
0.0
  0
LINE
  5
5818
  8
HILF
 10
107.712395349259296
 20
40.6006756323668299
 30
0.0
 11
157.7213872303846927
 21
40.6006756323668299
 31
0.0
  0
LINE
  5
5819
  8
HILF
 10
107.712395349259296
 20
33.8314285077458408
 30
0.0
 11
157.7213872303846927
 21
33.8314285077458408
 31
0.0
  0
LINE
  5
581A
  8
HILF
 10
107.712395349259296
 20
29.0091970897881986
 30
0.0
 11
157.7213872303846927
 21
29.0091970897881986
 31
0.0
  0
LINE
  5
581B
  8
HILF
 10
107.712395349259296
 20
24.1869656718305386
 30
0.0
 11
157.7213872303846927
 21
24.1869656718305386
 31
0.0
  0
LINE
  5
581C
  8
VOLL
 10
159.7213872303846927
 20
29.0091970897882199
 30
0.0
 11
193.834792290454601
 21
29.0091970897882305
 31
0.0
  0
LINE
  5
581D
  8
HILF
 10
161.9993426268669054
 20
40.476384495305787
 30
0.0
 11
193.8347922904544873
 21
40.4763844953058012
 31
0.0
  0
LINE
  5
581E
  8
HILF
 10
107.712395349259296
 20
7.2580316557578319
 30
0.0
 11
179.834792290454601
 21
7.2580316557572502
 31
0.0
  0
TEXT
  5
581F
  8
TEXT25
 10
29.9363880756488285
 20
8.8631285608147312
 30
0.0
 40
2.0
  1
Änderung
 41
0.8
  7
GREEKS
 72
     4
 11
35.3078166470774093
 21
9.7202714179575906
 31
0.0
  0
TEXT
  5
5820
  8
TEXT25
 10
107.7626720648047041
 20
49.5272771452291423
 30
0.0
 40
2.399999999999999
  1
Benennung
 41
0.8
  7
GREEKS
  0
TEXT
  5
5821
  8
TEXT25
 10
161.7364795748497954
 20
49.4136029986814123
 30
0.0
 40
2.399999999999999
  1
Zeichnungs Nr.:
 41
0.8
  7
GREEKS
  0
TEXT
  5
5822
  8
TEXT25
 10
107.697233424952401
 20
14.9502734742206194
 30
0.0
 40
2.399999999999999
  1
Bauvorhaben:
 41
0.8
  7
GREEKS
  0
TEXT
  5
5823
  8
TEXT25
 10
161.9993426268669054
 20
35.3654682653146466
 30
0.0
 40
2.399999999999999
  1
Ersatz für:
 41
0.8
  7
GREEKS
  0
TEXT
  5
5824
  8
TEXT25
 10
22.8984845437928506
 20
6.6604008849027423
 30
0.0
 40
2.0
  1
Index
 50
90.0
 41
0.8
  7
GREEKS
  0
TEXT
  5
5825
  8
TEXT25
 10
47.9078442342836297
 20
9.0536047512909246
 30
0.0
 40
2.0
  1
Tag
 41
0.8
  7
GREEKS
 72
     4
 11
49.7745109009502968
 21
9.7202714179575906
 31
0.0
  0
TEXT
  5
5826
  8
TEXT25
 10
56.7392921167567295
 20
8.7202714179575906
 30
0.0
 40
2.0
  1
Name
 41
0.8
  7
GREEKS
 72
     4
 11
59.9011968786614872
 21
9.7202714179575906
 31
0.0
  0
TEXT
  5
5827
  8
TEXT25
 10
65.9693061380793324
 20
30.7596206545760111
 30
0.0
 40
2.0
  1
Gez.
 41
0.8
  7
GREEKS
  0
TEXT
  5
5828
  8
TEXT25
 10
65.9538248175973649
 20
25.966013625267081
 30
0.0
 40
2.0
  1
Gepr.
 41
0.8
  7
GREEKS
  0
TEXT
  5
5829
  8
TEXT25
 10
65.9775352865879086
 20
21.0667234228969313
 30
0.0
 40
2.0
  1
Norm.
 41
0.8
  7
GREEKS
  0
TEXT
  5
582A
  8
TEXT25
 10
162.24827803677411
 20
25.1871744813894516
 30
0.0
 40
2.399999999999999
  1
ersetzt durch:
 41
0.8
  7
GREEKS
  0
LINE
  5
582B
  8
HILF
 10
18.9122298260212993
 20
4.8980399999999511
 30
0.0
 11
18.9122298260212993
 21
65.914029708794601
 31
0.0000000000000568
  0
LINE
  5
582C
  8
HILF
 10
14.9911945529536297
 20
143.2202731133421878
 30
0.0
 11
0.0
 21
143.2202731133421878
 31
0.0
  0
TEXT
  5
582D
  8
TEXT25
 10
89.6222182276296735
 20
49.5272771452291067
 30
0.0
 40
2.399999999999999
  1
Zul. Abw.
 41
0.8
  7
GREEKS
 72
     1
 11
96.0679325133439761
 21
49.5272771452291067
 31
0.0
  0
TEXT
  5
582E
  8
TEXT25
 10
70.1459891293505109
 20
49.5272771452291423
 30
0.0
 40
2.399999999999999
  1
Maßstab
 41
0.8
  7
GREEKS
 72
     1
 11
75.8145605579219364
 21
49.5272771452291423
 31
0.0
  0
TEXT
  5
582F
  8
TEXT25
 10
92.9060277514392254
 20
35.2425442167247027
 30
0.0
 40
2.0
  1
Name
 41
0.8
  7
GREEKS
 72
     4
 11
96.0679325133439761
 21
36.2425442167247027
 31
0.0
  0
TEXT
  5
5830
  8
TEXT25
 10
78.2879021674171014
 20
35.5758775500580313
 30
0.0
 40
2.0
  1
Tag
 41
0.8
  7
GREEKS
 72
     4
 11
80.1545688340837614
 21
36.2425442167247027
 31
0.0
  0
LINE
  5
5831
  8
HILF
 10
65.2056526286132794
 20
53.1203545182946968
 30
0.0
 11
65.2056526286132794
 21
65.9140297087947999
 31
0.0
  0
LINE
  5
5832
  8
HILF
 10
65.2056526286132794
 20
65.9140297087945868
 30
0.0
 11
193.8347922904546863
 21
65.9140297087947005
 31
0.0
  0
INSERT
  5
5833
  8
0
  2
*U47
 10
0.0
 20
0.0
 30
0.0
  0
CIRCLE
  5
5834
  8
LOGO
 62
   150
 10
78.2425487299258151
 20
12.4056377581068702
 30
0.0
 40
2.7555608102615148
  0
CIRCLE
  5
5835
  8
LOGO
 62
   150
 10
95.9465307175217959
 20
12.4056377581069004
 30
0.0
 40
2.7555608102615148
  0
CIRCLE
  5
5836
  8
0
 10
101.8367498508228977
 20
15.4603519427457705
 30
0.0
 40
1.2301610760096049
  0
INSERT
  5
5837
  8
0
  2
*U48
 10
0.0
 20
0.0
 30
0.0
  0
POLYLINE
  5
5838
  8
LOGO
 62
   150
 66
     1
 10
0.0
 20
0.0
 30
0.0
 70
     1
  0
VERTEX
  5
36225
  8
LOGO
 62
   150
 10
87.666460970702687
 20
13.5865923910761204
 30
0.0
 42
0.9999999999999998
  0
VERTEX
  5
36226
  8
LOGO
 62
   150
 10
87.666460970702687
 20
15.1611985683684196
 30
0.0
  0
VERTEX
  5
36227
  8
LOGO
 62
   150
 10
84.418835730037344
 20
15.1611985683684196
 30
0.0
  0
VERTEX
  5
36228
  8
LOGO
 62
   150
 10
84.418835730037344
 20
13.5865923910761204
 30
0.0
  0
SEQEND
  5
36229
  8
LOGO
 62
   150
  0
POLYLINE
  5
5839
  8
LOGO
 62
   150
 66
     1
 10
0.0
 20
0.0
 30
0.0
 70
     1
  0
VERTEX
  5
3622A
  8
LOGO
 62
   150
 10
71.05840804602974
 20
10.9294444668953705
 30
0.0
  0
VERTEX
  5
3622B
  8
LOGO
 62
   150
 10
71.05840804602974
 20
16.8342176317414811
 30
0.0
  0
VERTEX
  5
3622C
  8
LOGO
 62
   150
 10
69.3853889826567638
 20
16.8342176317414811
 30
0.0
  0
VERTEX
  5
3622D
  8
LOGO
 62
   150
 10
69.3853889826567638
 20
10.9294444668953705
 30
0.0
 42
0.4142135623730961
  0
VERTEX
  5
3622E
  8
LOGO
 62
   150
 10
72.3377755650797098
 20
7.9770578844723303
 30
0.0
  0
VERTEX
  5
3622F
  8
LOGO
 62
   150
 10
78.2425487299258151
 20
7.9770578844723437
 30
0.0
 42
4.3731202552251798
  0
VERTEX
  5
36230
  8
LOGO
 62
   150
 10
74.7756763183546127
 20
9.6500769478455624
 30
0.0
  0
VERTEX
  5
36231
  8
LOGO
 62
   150
 10
72.3377755650797098
 20
9.6500769478455197
 30
0.0
 42
-0.4142135623730961
  0
SEQEND
  5
36232
  8
LOGO
 62
   150
  0
POLYLINE
  5
583A
  8
LOGO
 62
   150
 66
     1
 10
0.0
 20
0.0
 30
0.0
 70
     1
  0
VERTEX
  5
36233
  8
LOGO
 62
   150
 10
82.7458166666642541
 20
7.9770578844723161
 30
0.0
  0
VERTEX
  5
36234
  8
LOGO
 62
   150
 10
82.7458166666642541
 20
16.8342176317414811
 30
0.0
  0
VERTEX
  5
36235
  8
LOGO
 62
   150
 10
87.666460970702687
 20
16.8342176317414811
 30
0.0
 42
-0.7007983443495949
  0
VERTEX
  5
36236
  8
LOGO
 62
   150
 10
89.2449357255627547
 20
12.4866746288450496
 30
0.0
  0
VERTEX
  5
36237
  8
LOGO
 62
   150
 10
89.7509188803834377
 20
10.5983197872796708
 30
0.0
 42
0.3394542588633795
  0
VERTEX
  5
36238
  8
LOGO
 62
   150
 10
90.9866930083492207
 20
9.6500769478454202
 30
0.0
  0
VERTEX
  5
36239
  8
LOGO
 62
   150
 10
92.4796583059508066
 20
9.650076947845406
 30
0.0
 42
-4.3731202552254533
  0
VERTEX
  5
3623A
  8
LOGO
 62
   150
 10
95.9465307175217959
 20
7.9770578844723161
 30
0.0
  0
VERTEX
  5
3623B
  8
LOGO
 62
   150
 10
90.9866930083492207
 20
7.9770578844723437
 30
0.0
 42
-0.3394542588633795
  0
VERTEX
  5
3623C
  8
LOGO
 62
   150
 10
88.134906559197475
 20
10.1653105908591908
 30
0.0
  0
VERTEX
  5
3623D
  8
LOGO
 62
   150
 10
87.666460970702687
 20
11.9135733277030607
 30
0.0
  0
VERTEX
  5
3623E
  8
LOGO
 62
   150
 10
87.666460970702687
 20
11.9135733277030607
 30
0.0
  0
VERTEX
  5
3623F
  8
LOGO
 62
   150
 10
84.418835730037344
 20
11.9135733277030607
 30
0.0
  0
VERTEX
  5
36240
  8
LOGO
 62
   150
 10
84.418835730037344
 20
7.9770578844723437
 30
0.0
  0
SEQEND
  5
36241
  8
LOGO
 62
   150
  0
INSERT
  5
583B
  8
0
  2
*U49
 10
0.0
 20
0.0
 30
0.0
  0
LINE
  5
583C
  8
HILF
 10
65.2056526286132794
 20
65.914029708794601
 30
0.0000000000000568
 11
18.9122298260214201
 21
65.914029708794601
 31
0.0000000000000568
  0
LINE
  5
583D
  8
STEMPEL
 10
18.9107114429713192
 20
4.8980399999999662
 30
0.0
 11
18.9107114429713192
 21
286.0455359999999132
 31
-0.0000000000001705
  0
LINE
  5
583E
  8
HILF
 10
0.0
 20
0.0
 30
0.0
 11
0.0000000000001137
 21
290.9435760000000073
 31
-0.0000000000001705
  0
INSERT
  5
583F
  8
0
  2
*U50
 10
0.0
 20
0.0
 30
0.0
  0
LINE
  5
5840
  8
STEMPEL
 10
181.8347922904546863
 20
19.3647342538729212
 30
0.0
 11
181.834792290454601
 21
4.8980399999999511
 31
0.0
  0
INSERT
  5
5841
  8
0
  2
*U51
 10
0.0
 20
0.0
 30
0.0
  0
LINE
  5
5842
  8
HILF
 10
65.205651438414975
 20
44.6536599257034865
 30
0.0
 11
86.4234696774286277
 21
44.6536599257035007
 31
0.0
  0
LINE
  5
5843
  8
HILF
 10
69.205651438414975
 20
42.6830713102111901
 30
0.0
 11
69.2056514384150319
 21
40.6242485411957688
 31
0.0
  0
LINE
  5
5844
  8
HILF
 10
74.7101330077844068
 20
43.6536599257034865
 30
0.0
 11
74.7101330077845205
 21
39.6536599257034581
 31
0.0
  0
LINE
  5
5845
  8
HILF
 10
69.205651438414975
 20
42.6830713102111901
 30
0.0
 11
74.7101330077844068
 21
43.6536599257034865
 31
0.0
  0
LINE
  5
5846
  8
HILF
 10
69.2056514384150319
 20
40.6242485411957688
 30
0.0
 11
74.7101330077844636
 21
39.6536599257034723
 31
0.0
  0
LINE
  5
5847
  8
MITTEL
 10
68.705651438414975
 20
41.6536599257034865
 30
0.0
 11
82.9234696774286277
 21
41.6536599257034865
 31
0.0
  0
LINE
  5
5848
  8
MITTEL
 10
80.4234696774286277
 20
44.1536599257034865
 30
0.0
 11
80.4234696774286277
 21
39.1536599257035078
 31
0.0
  0
CIRCLE
  5
5849
  8
HILF
 10
80.4234696774286277
 20
41.6536599257034865
 30
0.0
 40
1.029411384507696
  0
CIRCLE
  5
584A
  8
HILF
 10
80.4234696774286277
 20
41.6536599257034865
 30
0.0
 40
1.9999999999999849
  0
LINE
  5
584B
  8
HILF
 10
183.834792290454601
 20
7.2580316557572351
 30
0.0
 11
191.834792290454601
 21
7.2580316557572511
 31
0.0
  0
ATTDEF
  5
584C
  8
TEXT25
 10
95.8785153016825547
 20
30.3204475077702007
 30
0.0
 40
2.0
  1

 41
0.8
 72
     1
 11
95.8785153016825547
 21
30.3204475077702007
 31
0.0
  3
ERST_NAME
  2
ERST_NAME
 70
     0
  0
ATTDEF
  5
584D
  8
TEXT25
 10
78.8027669208919406
 20
30.3204475077683497
 30
0.0
 40
2.0
  1

 41
0.8
 72
     1
 11
78.8027669208919406
 21
30.3204475077683497
 31
0.0
  3
ERST_TAG
  2
ERST_TAG
 70
     0
  0
ATTDEF
  5
584E
  8
TEXT25
 10
69.5456597145768569
 20
35.2425442167246672
 30
0.0
 40
2.0
  1

 41
0.8
 72
     1
 11
69.5456597145768569
 21
36.2425442167246672
 31
0.0
  3

  2
JAHR
 70
     0
 74
     2
1001
AcDbAttr
1070
     0
1070
     1
  0
ATTDEF
  5
584F
  8
HILF
 10
75.8145605579219364
 20
47.1203541795764806
 30
0.0
 40
2.5
  1

 41
0.8
 72
     4
 11
75.8145605579219364
 21
47.1203541795764806
 31
0.0
  3

  2
MAßSTAB
 70
     0
1001
AcDbAttr
1070
     0
1070
     1
  0
ATTDEF
  5
5850
  8
HILF
 10
70.2878830847339344
 20
57.9724076332481602
 30
0.0
 40
2.2000000000000002
  1

 41
0.8
  3

  2
WERKSTOFF_1
 70
     0
1001
AcDbAttr
1070
     0
1070
     1
  0
ATTDEF
  5
5851
  8
HILF
 10
70.2878830847339344
 20
54.0584550048734727
 30
0.0
 40
2.2000000000000002
  1

 41
0.8
  3

  2
WERKSTOFF_2
 70
     0
1001
AcDbAttr
1070
     0
1070
     1
  0
ATTDEF
  5
5852
  8
TEXT25
 10
86.9317926472659792
 20
45.5522802426557334
 30
0.0
 40
1.8360000000000001
  1

 41
0.8
 11
86.9317926472659792
 21
47.3882802426557177
 31
0.0
  3
DIN
  2
DIN
 70
     0
 74
     3
  0
ATTDEF
  5
5854
  8
VOLL
 10
107.712395349259296
 20
41.6483246350826022
 30
0.0
 40
3.0
  1

 41
0.8
  3

  2
BENENNUNG
 70
     0
1001
AcDbAttr
1070
     0
1070
     1
  0
ATTDEF
  5
5855
  8
HILF
 10
107.712395349259296
 20
34.8800092561461668
 30
0.0
 40
2.5
  1

 41
0.8
  3

  2
ZEILE_1
 70
     0
  0
ATTDEF
  5
5856
  8
HILF
 10
107.6922867048305932
 20
29.8757187531356507
 30
0.0
 40
2.5
  1

 41
0.8
  3
ZEILE_2
  2
ZEILE_2
 70
     0
  0
ATTDEF
  5
5857
  8
TEXT25
 10
107.9118726137096047
 20
20.1316956195092303
 30
-411.1988790163717908
 40
2.0
  1
19140.000X - KOPIE.DXF
 41
0.8
  3
DATEINAME
  2
DATEINAME
 70
     0
1001
AcDbAttr
1070
     0
1070
     1
  0
ATTDEF
  5
585C
  8
VOLL
 10
177.9170674586607106
 20
41.4763844953059433
 30
0.0
 40
3.0
  1

 41
0.8
 72
     1
 11
177.9170674586607106
 21
42.9763844953059433
 31
0.0
  3
ZG_Nummer:
  2
ZG_NUMMER:
 70
     0
 74
     2
  0
ATTDEF
  5
585D
  8
VOLL
 10
177.9170674586607106
 20
30.2591970897882305
 30
0.0
 40
2.5
  1

 41
0.8
 72
     1
 11
177.9170674586607106
 21
31.5091970897882305
 31
0.0
  3
ZG Ersatz für:
  2
ZG_ERSATZ_FÜR:
 70
     0
 74
     2
  0
ATTDEF
  5
585E
  8
VOLL
 10
177.9170674586607106
 20
20.6147342538729212
 30
0.0
 40
2.5
  1

 41
0.8
 72
     1
 11
177.9170674586607106
 21
21.8647342538729212
 31
0.0
  3
ZG_Ersetzt durch
  2
ZG_ERSETZT_DURCH:
 70
     0
 74
     2
  0
ATTDEF
  5
585F
  8
EDV-ART_NR_
 10
129.9116527729607924
 20
25.1198057737134697
 30
0.0
 40
2.5
  1

 41
0.8
  3
EDV_ART
  2
EDV_ART
 70
     0
  0
ATTDEF
  5
5860
  8
HILF
 10
20.4122298260212993
 20
57.9600092054397322
 30
0.0
 40
2.2000000000000002
  1

 41
0.8
 11
20.4122298260212993
 21
60.160009205439728
 31
0.0
  3
Prüfungsnummer
  2
PRÜFUNGSNUMMER
 70
     0
 74
     3
  0
ATTDEF
  5
5862
  8
HILF
 10
187.8347922904546863
 20
9.3889840367103634
 30
0.0
 40
2.5
  1

 41
0.8
 72
     4
 11
187.8347922904546863
 21
9.3889840367103634
 31
0.0
  3
GEWICHT:
  2
GEWICHT:
 70
     0
  0
ATTDEF
  5
5863
  8
TEXT25
 10
95.8630339812006014
 20
25.5268404784596292
 30
0.0
 40
2.0
  1

 41
0.8
 72
     1
 11
95.8630339812006014
 21
25.5268404784596292
 31
0.0
  3
Gepr._NAME
  2
GEPR._NAME
 70
     0
  0
ATTDEF
  5
5864
  8
TEXT25
 10
78.7872856004099731
 20
25.5268404784596292
 30
0.0
 40
2.0
  1

 41
0.8
 72
     1
 11
78.7872856004099731
 21
25.5268404784596292
 31
0.0
  3
Gepr._TAG
  2
GEPR._TAG
 70
     0
  0
ATTDEF
  5
5865
  8
TEXT25
 10
95.886744450191145
 20
20.6275502760894796
 30
0.0
 40
2.0
  1

 41
0.8
 72
     1
 11
95.886744450191145
 21
20.6275502760894796
 31
0.0
  3
Norm._NAME
  2
NORM._NAME
 70
     0
  0
ATTDEF
  5
5866
  8
TEXT25
 10
78.8109960694005167
 20
20.6275502760894796
 30
0.0
 40
2.0
  1

 41
0.8
 72
     1
 11
78.8109960694005167
 21
20.6275502760894796
 31
0.0
  3
Norm._TAG
  2
NORM._TAG
 70
     0
  0
ATTDEF
  5
5867
  8
VOLL
 10
107.712395349259296
 20
8.2580316557579962
 30
0.0000000000000568
 40
3.0
  1

 41
0.8
  3
Bauvorhaben:
  2
BAUVORHABEN:
 70
     0
1001
AcDbAttr
1070
     0
1070
     1
  0
ATTDEF
  5
5868
  8
TEXT25
 10
55.5967423189080066
 20
15.4352316579789903
 30
0.0
 40
2.0
  1

 41
0.8
  3
ÄND_NAME_A
  2
ÄND_NAME_A
 70
     0
  0
ATTDEF
  5
5869
  8
TEXT25
 10
45.4058063906236384
 20
15.6100230869995809
 30
0.0
 40
2.0
  1

 41
0.7
  3
ÄND_TAG_A
  2
ÄND_TAG_A
 70
     0
  0
ATTDEF
  5
586A
  8
TEXT25
 10
26.1084195051728294
 20
15.7998852980643392
 30
0.0
 40
2.0
  1

 41
0.8
  3
ÄNDER_TEXT_A
  2
ÄNDER_TEXT_A
 70
     0
  0
ATTDEF
  5
586B
  8
TEXT25
 10
22.2877918185918098
 20
15.7998852980645808
 30
0.0
 40
2.0
  1

 41
0.8
 72
     1
 11
22.2877918185918098
 21
15.7998852980645808
 31
0.0
  3
INDEX_A
  2
INDEX_A
 70
     0
  0
ATTDEF
  5
586C
  8
TEXT25
 10
55.5982607019579973
 20
20.3872968758620807
 30
0.0000000000001137
 40
2.0
  1

 41
0.8
  3
ÄND_NAME_B
  2
ÄND_NAME_B
 70
     0
  0
ATTDEF
  5
586D
  8
TEXT25
 10
45.4178913208958193
 20
20.5281481373451484
 30
0.0000000000001705
 40
2.0
  1

 41
0.7
  3
ÄND_TAG_B
  2
ÄND_TAG_B
 70
     0
  0
ATTDEF
  5
586E
  8
TEXT25
 10
26.0714025127148297
 20
20.7475366457446206
 30
0.0
 40
2.0
  1

 41
0.8
  3
ÄNDER_TEXT_B
  2
ÄNDER_TEXT_B
 70
     0
  0
ATTDEF
  5
586F
  8
TEXT25
 10
22.2862734355418297
 20
20.622116716022191
 30
0.0000000000001137
 40
2.0
  1

 41
0.8
 72
     1
 11
22.2862734355418297
 21
20.622116716022191
 31
0.0000000000001137
  3
INDEX_B
  2
INDEX_B
 70
     0
  0
ATTDEF
  5
5870
  8
TEXT25
 10
55.5967423189080066
 20
25.0071599793052606
 30
0.0
 40
2.0
  1

 41
0.8
  3
ÄND_NAME_C
  2
ÄND_NAME_C
 70
     0
  0
ATTDEF
  5
5871
  8
TEXT25
 10
45.3734959810328675
 20
25.1471783532413689
 30
0.0
 40
2.0
  1

 41
0.7
  3
ÄND_TAG_C
  2
ÄND_TAG_C
 70
     0
  0
ATTDEF
  5
5872
  8
TEXT25
 10
26.0544818820229693
 20
25.3960165217522515
 30
0.0
 40
2.0
  1

 41
0.8
  3
ÄNDER_TEXT_C
  2
ÄNDER_TEXT_C
 70
     0
  0
ATTDEF
  5
5873
  8
TEXT25
 10
22.3277289632714009
 20
25.289768911447819
 30
0.0000000000001137
 40
2.0
  1

 41
0.8
 72
     1
 11
22.3277289632714009
 21
25.289768911447819
 31
0.0000000000001137
  3
INDEX_C
  2
INDEX_C
 70
     0
  0
ATTDEF
  5
5874
  8
TEXT25
 10
55.5967423189080066
 20
29.9267613806670987
 30
0.0000000000001137
 40
2.0
  1

 41
0.8
  3
ÄND_NAME_D
  2
ÄND_NAME_D
 70
     0
  0
ATTDEF
  5
5875
  8
TEXT25
 10
45.2755686500663614
 20
30.067097871375001
 30
0.0
 40
2.0
  1

 41
0.7
  3
ÄND_TAG_D
  2
ÄND_TAG_D
 70
     0
  0
ATTDEF
  5
5876
  8
TEXT25
 10
26.1034330787630289
 20
30.2878109023311914
 30
0.0
 40
2.0
  1

 41
0.8
  3
ÄNDER_TEXT_D
  2
ÄNDER_TEXT_D
 70
     0
  0
ATTDEF
  5
5877
  8
TEXT25
 10
22.3735889840233995
 20
30.1623909726094013
 30
0.0000000000001137
 40
2.0
  1

 41
0.8
 72
     1
 11
22.3735889840233995
 21
30.1623909726094013
 31
0.0000000000001137
  3
INDEX_D
  2
INDEX_D
 70
     0
  0
ATTDEF
  5
5878
  8
TEXT25
 10
55.5967423189080066
 20
34.680853132807222
 30
0.0
 40
2.0
  1

 41
0.8
  3
ÄND_NAME_E
  2
ÄND_NAME_E
 70
     0
  0
ATTDEF
  5
5879
  8
TEXT25
 10
45.2830794091416919
 20
34.8213277151137675
 30
0.0
 40
2.0
  1

 41
0.7
  3
ÄND_TAG_E
  2
ÄND_TAG_E
 70
     0
  0
ATTDEF
  5
587A
  8
TEXT25
 10
26.0616728398673594
 20
35.0541761779059513
 30
0.0000000000000568
 40
2.0
  1

 41
0.8
  3
ÄNDER_TEXT_E
  2
ÄNDER_TEXT_E
 70
     0
  0
ATTDEF
  5
587B
  8
TEXT25
 10
22.3914631029683697
 20
34.9186473647798294
 30
0.0000000000002274
 40
2.0
  1

 41
0.8
 72
     1
 11
22.3914631029683697
 21
34.9186473647798294
 31
0.0000000000002274
  3
INDEX_E
  2
INDEX_E
 70
     0
  0
ATTDEF
  5
587C
  8
TEXT25
 10
55.5982607019579973
 20
39.5114346166433208
 30
0.0000000000000568
 40
2.0
  1

 41
0.8
  3
ÄND_NAME_F
  2
ÄND_NAME_F
 70
     0
  0
ATTDEF
  5
587D
  8
TEXT25
 10
45.3633967018449766
 20
39.6791530084493189
 30
0.0
 40
2.0
  1

 41
0.7
  3
ÄND_TAG_F
  2
ÄND_TAG_F
 70
     0
  0
ATTDEF
  5
587E
  8
TEXT25
 10
26.1914891855176393
 20
39.9568660579052377
 30
0.0
 40
2.0
  1

 41
0.8
  3
ÄNDER_TEXT_F
  2
ÄNDER_TEXT_F
 70
     0
  0
ATTDEF
  5
587F
  8
TEXT25
 10
22.4316138853555493
 20
39.801744143631943
 30
0.0000000000002274
 40
2.0
  1

 41
0.8
 72
     1
 11
22.4316138853555493
 21
39.801744143631943
 31
0.0000000000002274
  3
INDEX_F
  2
INDEX_F
 70
     0
  0
ATTDEF
  5
5880
  8
TEXT25
 10
55.59522393585803
 20
44.3694211373428473
 30
0.0
 40
2.0
  1

 41
0.8
  3
ÄND_NAME_G
  2
ÄND_NAME_G
 70
     0
  0
ATTDEF
  5
5881
  8
TEXT25
 10
45.336727341327439
 20
44.54732288079623
 30
0.0000000000001137
 40
2.0
  1

 41
0.7
  3
ÄND_TAG_G
  2
ÄND_TAG_G
 70
     0
  0
ATTDEF
  5
5882
  8
TEXT25
 10
26.242503397259501
 20
44.6362741140192014
 30
0.0
 40
2.0
  1

 41
0.8
  3
ÄNDER_TEXT_G
  2
ÄNDER_TEXT_G
 70
     0
  0
ATTDEF
  5
5883
  8
TEXT25
 10
22.4461333854952692
 20
44.460042982986181
 30
0.0000000000002274
 40
2.0
  1

 41
0.8
 72
     1
 11
22.4461333854952692
 21
44.460042982986181
 31
0.0000000000002274
  3
INDEX_G
  2
INDEX_G
 70
     0
  0
ATTDEF
  5
5884
  8
TEXT25
 10
55.5967423189080066
 20
48.8169726765969898
 30
0.0
 40
2.0
  1

 41
0.8
  3
ÄND_NAME_H
  2
ÄND_NAME_H
 70
     0
  0
ATTDEF
  5
5885
  8
TEXT25
 10
45.290708092755942
 20
48.9948751430431031
 30
0.0
 40
2.0
  1

 41
0.7
  3
ÄND_TAG_H
  2
ÄND_TAG_H
 70
     0
  0
ATTDEF
  5
5886
  8
TEXT25
 10
26.0660156969018999
 20
49.3062037363311987
 30
0.0
 40
2.0
  1

 41
0.8
  3
ÄNDER_TEXT_H
  2
ÄNDER_TEXT_H
 70
     0
  0
ATTDEF
  5
5887
  8
TEXT25
 10
22.4642709821886193
 20
49.1363081899972016
 30
0.0000000000001137
 40
2.0
  1

 41
0.8
 72
     1
 11
22.4642709821886193
 21
49.1363081899972016
 31
0.0000000000001137
  3
INDEX_H
  2
INDEX_H
 70
     0
  0
ENDBLK
  5
5888
  8
0
  0
BLOCK
  8
0
  2
A$C7EB31683
 70
     0
 10
0.0
 20
0.0
 30
0.0
  3
A$C7EB31683
  1

  0
INSERT
  5
588A
  8
STEMPEL
 66
     1
  2
DIN_A4_2022_05
 10
0.0
 20
0.0
 30
0.0
  0
ATTRIB
  5
588B
  8
TEXT25
 10
95.8785153016825547
 20
30.3204475077702007
 30
0.0
 40
2.0
  1

 41
0.8
 72
     1
 11
95.8785153016825547
 21
30.3204475077702007
 31
0.0
  2
ERST_NAME
 70
     0
  0
ATTRIB
  5
588C
  8
TEXT25
 10
78.8027669208919406
 20
30.3204475077683497
 30
0.0
 40
2.0
  1

 41
0.8
 72
     1
 11
78.8027669208919406
 21
30.3204475077683497
 31
0.0
  2
ERST_TAG
 70
     0
  0
ATTRIB
  5
588D
  8
TEXT25
 10
69.5456597145768569
 20
35.2425442167246672
 30
0.0
 40
2.0
  1

 41
0.8
 72
     1
 11
69.5456597145768569
 21
36.2425442167246672
 31
0.0
  2
JAHR
 70
     0
 74
     2
1001
AcDbAttr
1070
     0
1070
     1
  0
ATTRIB
  5
588E
  8
HILF
 10
75.8145605579219364
 20
47.1203541795764806
 30
0.0
 40
2.5
  1

 41
0.8
 72
     4
 11
75.8145605579219364
 21
47.1203541795764806
 31
0.0
  2
MAßSTAB
 70
     0
1001
AcDbAttr
1070
     0
1070
     1
  0
ATTRIB
  5
588F
  8
HILF
 10
70.2878830847339344
 20
57.9724076332481602
 30
0.0
 40
2.2000000000000002
  1

 41
0.8
  2
WERKSTOFF_1
 70
     0
1001
AcDbAttr
1070
     0
1070
     1
  0
ATTRIB
  5
5890
  8
HILF
 10
70.2878830847339344
 20
54.0584550048734727
 30
0.0
 40
2.2000000000000002
  1

 41
0.8
  2
WERKSTOFF_2
 70
     0
1001
AcDbAttr
1070
     0
1070
     1
  0
ATTRIB
  5
5891
  8
TEXT25
 10
86.9317926472659792
 20
45.5522802426557334
 30
0.0
 40
1.8360000000000001
  1

 41
0.8
 11
86.9317926472659792
 21
47.3882802426557177
 31
0.0
  2
DIN
 70
     0
 74
     3
  0
ATTRIB
  5
5892
  8
VOLL
 10
107.712395349259296
 20
41.6483246350826022
 30
0.0
 40
3.0
  1

 41
0.8000000000000002
  2
BENENNUNG
 70
     0
1001
AcDbAttr
1070
     0
1070
     1
  0
ATTRIB
  5
5893
  8
HILF
 10
107.712395349259296
 20
34.8800092561461668
 30
0.0
 40
2.5
  1

 41
0.8
  2
ZEILE_1
 70
     0
  0
ATTRIB
  5
5894
  8
HILF
 10
107.6922867048305932
 20
29.8757187531356507
 30
0.0
 40
2.5
  1

 41
0.8
  2
ZEILE_2
 70
     0
  0
ATTRIB
  5
5895
  8
TEXT25
 10
107.9118726137096047
 20
20.1316956195092303
 30
-411.1988790163717908
 40
2.0
  1
19140.000X - KOPIE.DXF
 41
0.8
  2
DATEINAME
 70
     0
1001
AcDbAttr
1070
     0
1070
     1
  0
ATTRIB
  5
589A
  8
VOLL
 10
177.9170674586607106
 20
41.4763844953059433
 30
0.0
 40
3.0
  1

 41
0.8000000000000002
 72
     1
 11
177.9170674586607106
 21
42.9763844953059433
 31
0.0
  2
ZG_NUMMER:
 70
     0
 74
     2
  0
ATTRIB
  5
589B
  8
VOLL
 10
177.9170674586607106
 20
30.2591970897882305
 30
0.0
 40
2.5
  1

 41
0.8
 72
     1
 11
177.9170674586607106
 21
31.5091970897882305
 31
0.0
  2
ZG_ERSATZ_FÜR:
 70
     0
 74
     2
  0
ATTRIB
  5
589C
  8
VOLL
 10
177.9170674586607106
 20
20.6147342538729212
 30
0.0
 40
2.5
  1

 41
0.8
 72
     1
 11
177.9170674586607106
 21
21.8647342538729212
 31
0.0
  2
ZG_ERSETZT_DURCH:
 70
     0
 74
     2
  0
ATTRIB
  5
589D
  8
EDV-ART_NR_
 10
129.9116527729607924
 20
25.1198057737134697
 30
0.0
 40
2.5
  1

 41
0.8
  2
EDV_ART
 70
     0
  0
ATTRIB
  5
589E
  8
HILF
 10
20.4122298260212993
 20
57.9600092054397322
 30
0.0
 40
2.2000000000000002
  1

 41
0.8
 11
20.4122298260212993
 21
60.160009205439728
 31
0.0
  2
PRÜFUNGSNUMMER
 70
     0
 74
     3
  0
ATTRIB
  5
589F
  8
HILF
 10
187.8347922904546863
 20
9.3889840367103634
 30
0.0
 40
2.5
  1

 41
0.8
 72
     4
 11
187.8347922904546863
 21
9.3889840367103634
 31
0.0
  2
GEWICHT:
 70
     0
  0
ATTRIB
  5
58A0
  8
TEXT25
 10
95.8630339812006014
 20
25.5268404784596292
 30
0.0
 40
2.0
  1

 41
0.8
 72
     1
 11
95.8630339812006014
 21
25.5268404784596292
 31
0.0
  2
GEPR._NAME
 70
     0
  0
ATTRIB
  5
58A1
  8
TEXT25
 10
78.7872856004099731
 20
25.5268404784596292
 30
0.0
 40
2.0
  1

 41
0.8
 72
     1
 11
78.7872856004099731
 21
25.5268404784596292
 31
0.0
  2
GEPR._TAG
 70
     0
  0
ATTRIB
  5
58A2
  8
TEXT25
 10
95.886744450191145
 20
20.6275502760894796
 30
0.0
 40
2.0
  1

 41
0.8
 72
     1
 11
95.886744450191145
 21
20.6275502760894796
 31
0.0
  2
NORM._NAME
 70
     0
  0
ATTRIB
  5
58A3
  8
TEXT25
 10
78.8109960694005167
 20
20.6275502760894796
 30
0.0
 40
2.0
  1

 41
0.8
 72
     1
 11
78.8109960694005167
 21
20.6275502760894796
 31
0.0
  2
NORM._TAG
 70
     0
  0
ATTRIB
  5
58A4
  8
VOLL
 10
107.712395349259296
 20
8.2580316557579962
 30
0.0000000000000568
 40
3.0
  1

 41
0.8000000000000002
  2
BAUVORHABEN:
 70
     0
1001
AcDbAttr
1070
     0
1070
     1
  0
ATTRIB
  5
58A5
  8
TEXT25
 10
55.5967423189080066
 20
15.4352316579789903
 30
0.0
 40
2.0
  1

 41
0.8
  2
ÄND_NAME_A
 70
     0
  0
ATTRIB
  5
58A6
  8
TEXT25
 10
45.4058063906236384
 20
15.6100230869995809
 30
0.0
 40
2.0
  1

 41
0.7
  2
ÄND_TAG_A
 70
     0
  0
ATTRIB
  5
58A7
  8
TEXT25
 10
26.1084195051728294
 20
15.7998852980643392
 30
0.0
 40
2.0
  1

 41
0.8
  2
ÄNDER_TEXT_A
 70
     0
  0
ATTRIB
  5
58A8
  8
TEXT25
 10
22.2877918185918098
 20
15.7998852980645808
 30
0.0
 40
2.0
  1

 41
0.8
 72
     1
 11
22.2877918185918098
 21
15.7998852980645808
 31
0.0
  2
INDEX_A
 70
     0
  0
ATTRIB
  5
58A9
  8
TEXT25
 10
55.5982607019579973
 20
20.3872968758620807
 30
0.0000000000001137
 40
2.0
  1

 41
0.8
  2
ÄND_NAME_B
 70
     0
  0
ATTRIB
  5
58AA
  8
TEXT25
 10
45.4178913208958193
 20
20.5281481373451484
 30
0.0000000000001705
 40
2.0
  1

 41
0.7
  2
ÄND_TAG_B
 70
     0
  0
ATTRIB
  5
58AB
  8
TEXT25
 10
26.0714025127148297
 20
20.7475366457446206
 30
0.0
 40
2.0
  1

 41
0.8
  2
ÄNDER_TEXT_B
 70
     0
  0
ATTRIB
  5
58AC
  8
TEXT25
 10
22.2862734355418297
 20
20.622116716022191
 30
0.0000000000001137
 40
2.0
  1

 41
0.8
 72
     1
 11
22.2862734355418297
 21
20.622116716022191
 31
0.0000000000001137
  2
INDEX_B
 70
     0
  0
ATTRIB
  5
58AD
  8
TEXT25
 10
55.5967423189080066
 20
25.0071599793052606
 30
0.0
 40
2.0
  1

 41
0.8
  2
ÄND_NAME_C
 70
     0
  0
ATTRIB
  5
58AE
  8
TEXT25
 10
45.3734959810328675
 20
25.1471783532413689
 30
0.0
 40
2.0
  1

 41
0.7
  2
ÄND_TAG_C
 70
     0
  0
ATTRIB
  5
58AF
  8
TEXT25
 10
26.0544818820229693
 20
25.3960165217522515
 30
0.0
 40
2.0
  1

 41
0.8
  2
ÄNDER_TEXT_C
 70
     0
  0
ATTRIB
  5
58B0
  8
TEXT25
 10
22.3277289632714009
 20
25.289768911447819
 30
0.0000000000001137
 40
2.0
  1

 41
0.8
 72
     1
 11
22.3277289632714009
 21
25.289768911447819
 31
0.0000000000001137
  2
INDEX_C
 70
     0
  0
ATTRIB
  5
58B1
  8
TEXT25
 10
55.5967423189080066
 20
29.9267613806670987
 30
0.0000000000001137
 40
2.0
  1

 41
0.8
  2
ÄND_NAME_D
 70
     0
  0
ATTRIB
  5
58B2
  8
TEXT25
 10
45.2755686500663614
 20
30.067097871375001
 30
0.0
 40
2.0
  1

 41
0.7
  2
ÄND_TAG_D
 70
     0
  0
ATTRIB
  5
58B3
  8
TEXT25
 10
26.1034330787630289
 20
30.2878109023311914
 30
0.0
 40
2.0
  1

 41
0.8
  2
ÄNDER_TEXT_D
 70
     0
  0
ATTRIB
  5
58B4
  8
TEXT25
 10
22.3735889840233995
 20
30.1623909726094013
 30
0.0000000000001137
 40
2.0
  1

 41
0.8
 72
     1
 11
22.3735889840233995
 21
30.1623909726094013
 31
0.0000000000001137
  2
INDEX_D
 70
     0
  0
ATTRIB
  5
58B5
  8
TEXT25
 10
55.5967423189080066
 20
34.680853132807222
 30
0.0
 40
2.0
  1

 41
0.8
  2
ÄND_NAME_E
 70
     0
  0
ATTRIB
  5
58B6
  8
TEXT25
 10
45.2830794091416919
 20
34.8213277151137675
 30
0.0
 40
2.0
  1

 41
0.7
  2
ÄND_TAG_E
 70
     0
  0
ATTRIB
  5
58B7
  8
TEXT25
 10
26.0616728398673594
 20
35.0541761779059513
 30
0.0000000000000568
 40
2.0
  1

 41
0.8
  2
ÄNDER_TEXT_E
 70
     0
  0
ATTRIB
  5
58B8
  8
TEXT25
 10
22.3914631029683697
 20
34.9186473647798294
 30
0.0000000000002274
 40
2.0
  1

 41
0.8
 72
     1
 11
22.3914631029683697
 21
34.9186473647798294
 31
0.0000000000002274
  2
INDEX_E
 70
     0
  0
ATTRIB
  5
58B9
  8
TEXT25
 10
55.5982607019579973
 20
39.5114346166433208
 30
0.0000000000000568
 40
2.0
  1

 41
0.8
  2
ÄND_NAME_F
 70
     0
  0
ATTRIB
  5
58BA
  8
TEXT25
 10
45.3633967018449766
 20
39.6791530084493189
 30
0.0
 40
2.0
  1

 41
0.7
  2
ÄND_TAG_F
 70
     0
  0
ATTRIB
  5
58BB
  8
TEXT25
 10
26.1914891855176393
 20
39.9568660579052377
 30
0.0
 40
2.0
  1

 41
0.8
  2
ÄNDER_TEXT_F
 70
     0
  0
ATTRIB
  5
58BC
  8
TEXT25
 10
22.4316138853555493
 20
39.801744143631943
 30
0.0000000000002274
 40
2.0
  1

 41
0.8
 72
     1
 11
22.4316138853555493
 21
39.801744143631943
 31
0.0000000000002274
  2
INDEX_F
 70
     0
  0
ATTRIB
  5
58BD
  8
TEXT25
 10
55.59522393585803
 20
44.3694211373428473
 30
0.0
 40
2.0
  1

 41
0.8
  2
ÄND_NAME_G
 70
     0
  0
ATTRIB
  5
58BE
  8
TEXT25
 10
45.336727341327439
 20
44.54732288079623
 30
0.0000000000001137
 40
2.0
  1

 41
0.7
  2
ÄND_TAG_G
 70
     0
  0
ATTRIB
  5
58BF
  8
TEXT25
 10
26.242503397259501
 20
44.6362741140192014
 30
0.0
 40
2.0
  1

 41
0.8
  2
ÄNDER_TEXT_G
 70
     0
  0
ATTRIB
  5
58C0
  8
TEXT25
 10
22.4461333854952692
 20
44.460042982986181
 30
0.0000000000002274
 40
2.0
  1

 41
0.8
 72
     1
 11
22.4461333854952692
 21
44.460042982986181
 31
0.0000000000002274
  2
INDEX_G
 70
     0
  0
ATTRIB
  5
58C1
  8
TEXT25
 10
55.5967423189080066
 20
48.8169726765969898
 30
0.0
 40
2.0
  1

 41
0.8
  2
ÄND_NAME_H
 70
     0
  0
ATTRIB
  5
58C2
  8
TEXT25
 10
45.290708092755942
 20
48.9948751430431031
 30
0.0
 40
2.0
  1

 41
0.7
  2
ÄND_TAG_H
 70
     0
  0
ATTRIB
  5
58C3
  8
TEXT25
 10
26.0660156969018999
 20
49.3062037363311987
 30
0.0
 40
2.0
  1

 41
0.8
  2
ÄNDER_TEXT_H
 70
     0
  0
ATTRIB
  5
58C4
  8
TEXT25
 10
22.4642709821886193
 20
49.1363081899972016
 30
0.0000000000001137
 40
2.0
  1

 41
0.8
 72
     1
 11
22.4642709821886193
 21
49.1363081899972016
 31
0.0000000000001137
  2
INDEX_H
 70
     0
  0
SEQEND
  5
58C5
  8
STEMPEL
  0
ENDBLK
  5
58C9
  8
0
  0
BLOCK
  8
0
  2
DIN_A3_2023_06_RUDOLPH
 70
     2
 10
0.0
 20
0.0
 30
0.0
  3
DIN_A3_2023_06_RUDOLPH
  1

  0
LINE
  5
DFF5
  8
HILF
 10
4.750000000000056
 20
4.75
 30
0.0
 11
414.7499999999998863
 21
4.75
 31
0.0
  0
LINE
  5
DFF6
  8
HILF
 10
414.7499999999998863
 20
4.75
 30
0.0
 11
414.7499999999998863
 21
291.75
 31
0.0
  0
LINE
  5
DFF7
  8
HILF
 10
414.7499999999998863
 20
291.75
 30
0.0
 11
4.750000000000056
 21
291.75
 31
0.0
  0
LINE
  5
DFF8
  8
HILF
 10
4.750000000000056
 20
291.75
 30
0.0
 11
4.750000000000056
 21
4.75
 31
0.0
  0
LINE
  5
DFF9
  8
STEMPEL
 10
409.75
 20
286.75
 30
0.0
 11
19.7500000000000604
 21
286.75
 31
0.0
  0
LINE
  5
DFFA
  8
STEMPEL
 10
19.7500000000000604
 20
9.7499999999999858
 30
0.0
 11
409.75
 21
9.7499999999999858
 31
0.0
  0
LINE
  5
DFFB
  8
STEMPEL
 10
409.75
 20
9.7499999999999858
 30
0.0
 11
409.75
 21
286.75
 31
0.0
  0
LINE
  5
DFFC
  8
STEMPEL
 10
19.7500000000000604
 20
286.75
 30
0.0
 11
19.7500000000000604
 21
9.7499999999999858
 31
0.0
  0
TEXT
  5
DFFD
  8
TEXT25
 10
413.4999999999998863
 20
9.7499999999999893
 30
0.0
 40
2.44902
  1
Diese Zeichnung ist urheberrechtlich geschuetzt und bleibt unser Eigentum. Sie darf weder ganz noch teilweise vervielfaeltigt und nicht an Dritte weitergegeben werden.
 50
90.0
 41
0.8
  7
GREEKS
  0
LINE
  5
DFFE
  8
HILF
 10
229.7499999999998863
 20
4.75
 30
-0.0000000000000568
 11
229.7499999999998863
 21
9.7499999999999858
 31
-0.0000000000000568
  0
LINE
  5
DFFF
  8
HILF
 10
229.7499999999998863
 20
286.75
 30
-0.0000000000000568
 11
229.7499999999998863
 21
291.75
 31
-0.0000000000000568
  0
LINE
  5
E000
  8
STEMPEL
 10
409.7499999999997158
 20
57.7500781049011422
 30
0.0000000000000568
 11
229.749999999999801
 21
57.7500781049011067
 31
0.0
  0
LINE
  5
E001
  8
STEMPEL
 10
277.7499988098015251
 20
57.7500781049010925
 30
0.0000000000000568
 11
277.6810656359419909
 21
9.7500967682715416
 31
0.0
  0
LINE
  5
E002
  8
STEMPEL
 10
317.7499999999997726
 20
57.7500781049011422
 30
0.0000000000000568
 11
317.75
 21
9.7499999999999716
 31
0.0
  0
LINE
  5
E003
  8
STEMPEL
 10
371.7499999999998863
 20
57.7500781049010001
 30
0.0000000000000568
 11
371.75
 21
24.5000038863982006
 31
0.0
  0
LINE
  5
E004
  8
STEMPEL
 10
277.6953605084941046
 20
19.7500781049011103
 30
0.0
 11
229.75
 21
19.7499999999999787
 31
-0.0000000000001227
  0
LINE
  5
E005
  8
STEMPEL
 10
409.75
 20
24.5000038863982006
 30
0.0
 11
277.7017455898720755
 21
24.5000728638898408
 31
0.0
  0
LINE
  5
E006
  8
STEMPEL
 10
409.75
 20
43.5056199257035487
 30
0.0
 11
277.7293188584033032
 21
43.5056494874856625
 31
0.0
  0
LINE
  5
E007
  8
VOLL
 10
235.749999999999801
 20
57.7500781049011422
 30
0.0
 11
235.7499999999998863
 21
9.7499999999999716
 31
-0.0000000000000568
  0
LINE
  5
E008
  8
VOLL
 10
257.7499999999997726
 20
57.7500781049011209
 30
0.0
 11
257.7499999999998863
 21
9.7500000000000071
 31
-0.0000000000000568
  0
LINE
  5
E009
  8
VOLL
 10
267.7499999999997726
 20
57.7500781049011422
 30
0.0
 11
267.7499999999998863
 21
9.7500000000000284
 31
-0.0000000000000568
  0
LINE
  5
E00A
  8
VOLL
 10
286.25
 20
43.5056199257035203
 30
0.0
 11
286.25
 21
24.5000038863981899
 31
0.0
  0
LINE
  5
E00B
  8
VOLL
 10
298.7499999999997726
 20
57.7500781049010286
 30
0.0000000000000568
 11
298.7499999999998863
 21
24.5000038863981899
 31
0.0
  0
LINE
  5
E00C
  8
HILF
 10
229.75
 20
53.0000682509737331
 30
-0.0000000000000568
 11
277.743105492668974
 21
53.0000781049011067
 31
0.0
  0
LINE
  5
E00D
  8
HILF
 10
229.75
 20
48.2500583970463524
 30
-0.0000000000000568
 11
277.7362121755360818
 21
48.2500781049011067
 31
0.0
  0
LINE
  5
E00E
  8
HILF
 10
229.75
 20
43.5000194241379603
 30
-0.0000000000000568
 11
277.7293188584033032
 21
43.5000489859200883
 31
0.0
  0
LINE
  5
E00F
  8
HILF
 10
229.7500952757627886
 20
38.750038689191598
 30
-0.0000000000000568
 11
277.722520817033228
 21
38.7500781049011209
 31
0.0
  0
LINE
  5
E010
  8
HILF
 10
229.75
 20
33.9999999999999929
 30
-0.0000000000001226
 11
277.7157306982730915
 21
34.0000489859201096
 31
0.0
  0
LINE
  5
E011
  8
HILF
 10
229.75
 20
29.2499999999999893
 30
-0.0000000000001226
 11
277.708940635013505
 21
29.2500586922471086
 31
0.0
  0
LINE
  5
E012
  8
HILF
 10
229.75
 20
24.4999999999999893
 30
-0.0000000000001226
 11
277.7021505717536911
 21
24.5000683985741112
 31
0.0
  0
LINE
  5
E013
  8
HILF
 10
277.7224255412705247
 20
38.7501175206106225
 30
0.0
 11
317.75
 21
38.7500781049011067
 31
0.0
  0
LINE
  5
E014
  8
HILF
 10
277.7155322241375757
 20
34.0000982555569919
 30
0.0
 11
317.75
 21
34.0000489859201096
 31
0.0
  0
LINE
  5
E015
  8
HILF
 10
277.7499988098016956
 20
29.2500586922471086
 30
0.0
 11
317.75
 21
29.2500586922471086
 31
0.0
  0
LINE
  5
E016
  8
HILF
 10
319.75
 20
45.3283444953061192
 30
0.0
 11
369.7500000000001137
 21
45.3283444953061192
 31
0.0
  0
LINE
  5
E017
  8
HILF
 10
319.75
 20
38.7500781049011067
 30
0.0
 11
369.7500000000001137
 21
38.7500781049011209
 31
0.0
  0
LINE
  5
E018
  8
HILF
 10
319.75
 20
34.0000489859201025
 30
0.0
 11
369.7500000000001137
 21
34.0000489859201096
 31
0.0
  0
LINE
  5
E019
  8
HILF
 10
319.75
 20
29.2500586922471086
 30
0.0
 11
369.7500000000001137
 21
29.2500586922471086
 31
0.0
  0
LINE
  5
E01A
  8
VOLL
 10
371.75
 20
34.0000489859201096
 30
0.0
 11
409.75
 21
34.0000489859201096
 31
0.0
  0
LINE
  5
E01B
  8
HILF
 10
373.75
 20
45.3283444953061192
 30
0.0
 11
407.7499999999998863
 21
45.3283444953061192
 31
0.0
  0
LINE
  5
E01C
  8
HILF
 10
319.75
 20
12.1099916557578702
 30
0.0
 11
395.75
 21
12.1099916557572609
 31
0.0
  0
TEXT
  5
E01D
  8
TEXT25
 10
240.3785714285712061
 20
13.7500050998555707
 30
-0.0000000000000225
 40
2.0
  1
Änderung
 41
0.8
  7
GREEKS
 72
     4
 11
245.749999999999801
 21
14.6071479569984195
 31
-0.0000000000000225
  0
TEXT
  5
E01E
  8
TEXT25
 10
319.800276715545408
 20
54.500078104901128
 30
0.0000000000000281
 40
2.399999999999999
  1
Benennung
 41
0.8
  7
GREEKS
  0
TEXT
  5
E01F
  8
TEXT25
 10
373.7650923444650743
 20
54.500078104901128
 30
0.0000000000000454
 40
2.399999999999999
  1
Zeichnungs Nr.
 41
0.8
  7
GREEKS
  0
TEXT
  5
E020
  8
TEXT25
 10
319.8002593468684722
 20
21.2500508730661615
 30
0.0
 40
2.399999999999999
  1
Bauvorhaben
 41
0.8
  7
GREEKS
  0
TEXT
  5
E021
  8
TEXT25
 10
373.7500007213533877
 20
40.255627986744642
 30
0.0
 40
2.399999999999999
  1
Ersatz für:
 41
0.8
  7
GREEKS
  0
TEXT
  5
E022
  8
TEXT25
 10
233.749999999999801
 20
11.7499999999999805
 30
0.0
 40
2.0
  1
Index
 50
90.0
 41
0.8
  7
GREEKS
  0
TEXT
  5
E023
  8
TEXT25
 10
260.6333333333330984
 20
13.7500050998555707
 30
-0.0000000000000225
 40
2.0
  1
Tag
 41
0.8
  7
GREEKS
 72
     4
 11
262.4999999999997726
 21
14.4166717665222297
 31
-0.0000000000000225
  0
TEXT
  5
E024
  8
TEXT25
 10
269.8380952380949793
 20
13.7500050998555707
 30
-0.0000000000000225
 40
2.0
  1
Name
 41
0.8
  7
GREEKS
 72
     4
 11
272.9999999999997726
 21
14.7500050998555601
 31
-0.0000000000000225
  0
TEXT
  5
E025
  8
TEXT25
 10
278.5699834476761794
 20
35.0000489859201025
 30
0.0
 40
1.9288925671830599
  1
Gez.
 41
0.8
  7
GREEKS
  0
TEXT
  5
E026
  8
TEXT25
 10
278.5699834476761794
 20
30.2500586922471086
 30
0.0
 40
1.9288925671830599
  1
Gepr.
 41
0.8
  7
GREEKS
  0
TEXT
  5
E027
  8
TEXT25
 10
278.5699834476761794
 20
25.2166942538729302
 30
0.0
 40
1.9288925671830599
  1
Norm.
 41
0.8
  7
GREEKS
  0
TEXT
  5
E028
  8
TEXT25
 10
373.7499999999997726
 20
30.7500489859200989
 30
0.0
 40
2.399999999999999
  1
ersetzt durch:
 41
0.8
  7
GREEKS
  0
LINE
  5
E029
  8
HILF
 10
229.7499999999998863
 20
9.7499999999999858
 30
-0.0000000000000568
 11
229.749999999999801
 21
69.7499999999999858
 31
0.0
  0
LINE
  5
E02A
  8
HILF
 10
19.7500000000000604
 20
148.25
 30
0.0
 11
4.750000000000056
 21
148.25
 31
0.0
  0
TEXT
  5
E02B
  8
TEXT25
 10
301.8042857142856974
 20
54.500078104901128
 30
0.0
 40
2.399999999999999
  1
Zul. Abw.
 41
0.8
  7
GREEKS
 72
     1
 11
308.25
 21
54.500078104901128
 31
0.0
  0
TEXT
  5
E02C
  8
TEXT25
 10
282.5814279763292802
 20
54.5000781049011209
 30
0.0
 40
2.399999999999999
  1
Maßstab
 41
0.8
  7
GREEKS
 72
     1
 11
288.249999404900791
 21
54.5000781049011209
 31
0.0
  0
TEXT
  5
E02D
  8
TEXT25
 10
305.0880952380953204
 20
40.1611938138799331
 30
0.0
 40
2.0
  1
Name
 41
0.8
  7
GREEKS
 72
     4
 11
308.25
 21
41.1611938138799331
 31
0.0
  0
TEXT
  5
E02E
  8
TEXT25
 10
290.6333333333333258
 20
40.1730450526827809
 30
0.0
 40
2.0
  1
Tag
 41
0.8
  7
GREEKS
 72
     4
 11
292.5
 21
40.8397117193494523
 31
0.0
  0
LINE
  5
E02F
  8
HILF
 10
277.7499999999997726
 20
57.7500784436193513
 30
0.0000000000000568
 11
277.7499999999998863
 21
69.7500000000001847
 31
0.0
  0
INSERT
  5
E030
  8
0
  2
*U59
 10
0.0
 20
0.0
 30
0.0
  0
CIRCLE
  5
E031
  8
LOGO
 62
   150
 10
289.7663981800819784
 20
17.1250263088037009
 30
0.0
 40
2.7555608102615148
  0
CIRCLE
  5
E032
  8
LOGO
 62
   150
 10
307.4703801676780017
 20
17.1250263088037293
 30
0.0
 40
2.7555608102615148
  0
CIRCLE
  5
E033
  8
LOGO
 62
   150
 10
313.3605993009791746
 20
20.1797404934426012
 30
0.0
 40
1.2301610760096049
  0
INSERT
  5
E034
  8
0
  2
*U60
 10
0.0
 20
0.0
 30
0.0
  0
POLYLINE
  5
E035
  8
LOGO
 62
   150
 66
     1
 10
0.0
 20
0.0
 30
0.0
 70
     1
  0
VERTEX
  5
36297
  8
LOGO
 62
   150
 10
299.190310420858907
 20
18.3059809417729511
 30
0.0
 42
0.9999999999999998
  0
VERTEX
  5
36298
  8
LOGO
 62
   150
 10
299.190310420858907
 20
19.8805871190652503
 30
0.0
  0
VERTEX
  5
36299
  8
LOGO
 62
   150
 10
295.9426851801936209
 20
19.8805871190652503
 30
0.0
  0
VERTEX
  5
3629A
  8
LOGO
 62
   150
 10
295.9426851801936209
 20
18.3059809417729511
 30
0.0
  0
SEQEND
  5
3629B
  8
LOGO
 62
   150
  0
POLYLINE
  5
E036
  8
LOGO
 62
   150
 66
     1
 10
0.0
 20
0.0
 30
0.0
 70
     1
  0
VERTEX
  5
3629C
  8
LOGO
 62
   150
 10
282.5822574961860028
 20
15.6488330175921995
 30
0.0
  0
VERTEX
  5
3629D
  8
LOGO
 62
   150
 10
282.5822574961860028
 20
21.5536061824383083
 30
0.0
  0
VERTEX
  5
3629E
  8
LOGO
 62
   150
 10
280.9092384328130265
 20
21.5536061824383083
 30
0.0
  0
VERTEX
  5
3629F
  8
LOGO
 62
   150
 10
280.9092384328130265
 20
15.6488330175921995
 30
0.0
 42
0.4142135623730961
  0
VERTEX
  5
362A0
  8
LOGO
 62
   150
 10
283.8616250152359157
 20
12.6964464351691504
 30
0.0
  0
VERTEX
  5
362A1
  8
LOGO
 62
   150
 10
289.7663981800819784
 20
12.6964464351691699
 30
0.0
 42
4.3731202552251798
  0
VERTEX
  5
362A2
  8
LOGO
 62
   150
 10
286.2995257685108754
 20
14.3694654985423895
 30
0.0
  0
VERTEX
  5
362A3
  8
LOGO
 62
   150
 10
283.8616250152359157
 20
14.3694654985423504
 30
0.0
 42
-0.4142135623730961
  0
SEQEND
  5
362A4
  8
LOGO
 62
   150
  0
POLYLINE
  5
E037
  8
LOGO
 62
   150
 66
     1
 10
0.0
 20
0.0
 30
0.0
 70
     1
  0
VERTEX
  5
362A5
  8
LOGO
 62
   150
 10
294.2696661168204173
 20
12.6964464351691397
 30
0.0
  0
VERTEX
  5
362A6
  8
LOGO
 62
   150
 10
294.2696661168204173
 20
21.5536061824383083
 30
0.0
  0
VERTEX
  5
362A7
  8
LOGO
 62
   150
 10
299.190310420858907
 20
21.5536061824383083
 30
0.0
 42
-0.7007983443495949
  0
VERTEX
  5
362A8
  8
LOGO
 62
   150
 10
300.7687851757189037
 20
17.2060631795418786
 30
0.0
  0
VERTEX
  5
362A9
  8
LOGO
 62
   150
 10
301.2747683305397004
 20
15.3177083379764998
 30
0.0
 42
0.3394542588633795
  0
VERTEX
  5
362AA
  8
LOGO
 62
   150
 10
302.5105424585054266
 20
14.3694654985422492
 30
0.0
  0
VERTEX
  5
362AB
  8
LOGO
 62
   150
 10
304.0035077561070125
 20
14.3694654985422297
 30
0.0
 42
-4.3731202552254533
  0
VERTEX
  5
362AC
  8
LOGO
 62
   150
 10
307.4703801676780017
 20
12.6964464351691397
 30
0.0
  0
VERTEX
  5
362AD
  8
LOGO
 62
   150
 10
302.5105424585054266
 20
12.6964464351691699
 30
0.0
 42
-0.3394542588633795
  0
VERTEX
  5
362AE
  8
LOGO
 62
   150
 10
299.6587560093537945
 20
14.8846991415560197
 30
0.0
  0
VERTEX
  5
362AF
  8
LOGO
 62
   150
 10
299.190310420858907
 20
16.6329618783998896
 30
0.0
  0
VERTEX
  5
362B0
  8
LOGO
 62
   150
 10
299.190310420858907
 20
16.6329618783998896
 30
0.0
  0
VERTEX
  5
362B1
  8
LOGO
 62
   150
 10
295.9426851801936209
 20
16.6329618783998896
 30
0.0
  0
VERTEX
  5
362B2
  8
LOGO
 62
   150
 10
295.9426851801936209
 20
12.6964464351691699
 30
0.0
  0
SEQEND
  5
362B3
  8
LOGO
 62
   150
  0
INSERT
  5
E038
  8
0
  2
*U61
 10
0.0
 20
0.0
 30
0.0
  0
LINE
  5
E039
  8
HILF
 10
409.7499999999998863
 20
69.7499999999999858
 30
0.0
 11
229.7499999999998863
 21
69.7499999999999858
 31
0.0
  0
INSERT
  5
E03A
  8
0
  2
*U62
 10
0.0
 20
0.0
 30
0.0
  0
LINE
  5
E03B
  8
STEMPEL
 10
397.7500000000001137
 20
24.5000038863982184
 30
0.0
 11
397.75
 21
9.7499999999999858
 31
0.0
  0
INSERT
  5
E03C
  8
0
  2
*U63
 10
0.0
 20
0.0
 30
0.0
  0
LINE
  5
E03D
  8
HILF
 10
277.7499988098016956
 20
49.5056199257035274
 30
0.0
 11
298.75
 21
49.5056199257035274
 31
0.0
  0
LINE
  5
E03E
  8
HILF
 10
281.6788925671830839
 20
47.5350313102112167
 30
0.0
 11
281.6788925671830839
 21
45.4762085411958097
 31
0.0
  0
LINE
  5
E03F
  8
HILF
 10
287.1833741365525157
 20
48.5056199257035203
 30
0.0
 11
287.1833741365525725
 21
44.5056199257034919
 31
0.0
  0
LINE
  5
E040
  8
HILF
 10
281.6788925671830839
 20
47.5350313102112167
 30
0.0
 11
287.1833741365525157
 21
48.5056199257035203
 31
0.0
  0
LINE
  5
E041
  8
HILF
 10
281.6788925671830839
 20
45.4762085411958097
 30
0.0
 11
287.1833741365525725
 21
44.5056199257034919
 31
0.0
  0
LINE
  5
E042
  8
MITTEL
 10
281.1788925671830839
 20
46.5056199257035203
 30
0.0
 11
295.1788925671830839
 21
46.5056199257035203
 31
0.0
  0
LINE
  5
E043
  8
MITTEL
 10
292.6788925671830839
 20
49.0056199257035203
 30
0.0
 11
292.6788925671830839
 21
44.0056199257035416
 31
0.0
  0
CIRCLE
  5
E044
  8
HILF
 10
292.6788925671830839
 20
46.5056199257035203
 30
0.0
 40
1.029411384507696
  0
CIRCLE
  5
E045
  8
HILF
 10
292.6788925671830839
 20
46.5056199257035203
 30
0.0
 40
1.9999999999999849
  0
POLYLINE
  5
E046
  8
DEFPOINTS
  6
VERDECKT
 62
     6
 66
     1
 10
0.0
 20
0.0
 30
0.0
 70
     1
  0
VERTEX
  5
362C1
  8
DEFPOINTS
  6
VERDECKT
 62
     6
 10
0.0
 20
296.5
 30
0.0
  0
VERTEX
  5
362C2
  8
DEFPOINTS
  6
VERDECKT
 62
     6
 10
419.5
 20
296.5
 30
0.0
  0
VERTEX
  5
362C3
  8
DEFPOINTS
  6
VERDECKT
 62
     6
 10
419.5
 20
0.0
 30
0.0
  0
VERTEX
  5
362C4
  8
DEFPOINTS
  6
VERDECKT
 62
     6
 10
0.0
 20
0.0
 30
0.0
  0
SEQEND
  5
362C5
  8
DEFPOINTS
  6
VERDECKT
 62
     6
  0
INSERT
  5
E047
  8
0
  2
*U64
 10
0.0
 20
0.0
 30
0.0
  0
INSERT
  5
E048
  8
0
  2
*U65
 10
0.0
 20
0.0
 30
0.0
  0
ATTDEF
  5
E049
  8
TEXT25
 10
301.278571428571297
 20
35.0000489859193493
 30
0.0000000000000439
 40
2.0
  1

 41
0.8
 72
     1
 11
308.2499999999998863
 21
34.3333823192526921
 31
0.0000000000000439
  3
ERST_NAME
  2
ERST_NAME
 70
     0
 74
     1
  0
ATTDEF
  5
E04A
  8
TEXT25
 10
287.25
 20
35.0000489859201025
 30
0.0
 40
2.0
  1

 41
0.8
  3
ERST_TAG
  2
ERST_TAG
 70
     0
  0
ATTDEF
  5
E04B
  8
TEXT25
 10
279.1807283772924961
 20
40.27928927722688
 30
0.0
 40
2.0
  1

 41
0.8
 72
     4
 11
281.9997759963401904
 21
41.2792892772268729
 31
0.0
  3

  2
JAHR
 70
     0
1001
AcDbAttr
1070
     0
1070
     1
  0
ATTDEF
  5
E04C
  8
HILF
 10
281.896140980837572
 20
51.0407903792608977
 30
0.0000000000000004
 40
2.399999999999999
  1

 41
0.8
 72
     4
 11
288.2504266951232808
 21
52.2407903792608934
 31
0.0000000000000004
  3

  2
MAßSTAB
 70
     0
1001
AcDbAttr
1070
     0
1070
     1
  0
ATTDEF
  5
E04D
  8
HILF
 10
282.6522150939952098
 20
62.5999999999999801
 30
0.0
 40
2.2000000000000002
  1

 41
0.8
  3

  2
WERKSTOFF_1
 70
     0
1001
AcDbAttr
1070
     0
1070
     1
  0
ATTDEF
  5
E04E
  8
HILF
 10
282.6522150939950961
 20
59.0999999999999801
 30
0.0
 40
2.2000000000000002
  1

 41
0.8
  3

  2
WERKSTOFF_2
 70
     0
1001
AcDbAttr
1070
     0
1070
     1
  0
ATTDEF
  5
E04F
  8
TEXT25
 10
299.75
 20
50.4042402426557601
 30
0.0
 40
1.8360000000000001
  1

 41
0.8
 11
299.75
 21
52.2402402426557515
 31
0.0
  3
DIN
  2
DIN
 70
     0
 74
     3
  0
ATTDEF
  5
E051
  8
VOLL
 10
319.7500000000001137
 20
46.3283444953061121
 30
0.0
 40
3.0
  1

 41
0.8
  3

  2
BENENNUNG
 70
     0
1001
AcDbAttr
1070
     0
1070
     1
  0
ATTDEF
  5
E052
  8
HILF
 10
319.7499999999998863
 20
39.7500781049011067
 30
0.0
 40
2.5
  1

 41
0.8
  3

  2
ZEILE_1
 70
     0
  0
ATTDEF
  5
E053
  8
HILF
 10
319.75
 20
35.0000489859201025
 30
0.0
 40
2.5
  1

 41
0.8
  3
ZEILE_2
  2
ZEILE_2
 70
     0
  0
ATTDEF
  5
E054
  8
BEM
 10
319.7499995993900939
 20
25.5000508993201294
 30
0.0
 40
2.0
  1
19140.000X - Kopie.dxf
 41
0.8
  3
DATEINAME
  2
DATEINAME
 70
     0
1001
AcDbAttr
1070
     0
1070
     1
  0
ATTDEF
  5
E059
  8
VOLL
 10
384.9785714285713993
 20
46.3283444953061121
 30
0.0
 40
3.0
  1

 41
0.8
 72
     1
 11
390.75
 21
47.8283444953061192
 31
0.0
  3
ZG_NR
  2
ZG_NR
 70
     0
 74
     2
  0
ATTDEF
  5
E05A
  8
VOLL
 10
377.7976190476190936
 20
35.0000489859201167
 30
0.0
 40
2.5
  1

 41
0.8
 72
     1
 11
390.75
 21
36.2500489859201167
 31
0.0
  3
ZG_Ersatz_für:
  2
ZG_ERSATZ_FÜR:
 70
     0
 74
     2
  0
ATTDEF
  5
E05B
  8
VOLL
 10
374.8928571428572241
 20
25.5000038863982006
 30
0.0
 40
2.5
  1

 41
0.8
 72
     1
 11
390.75
 21
26.7500038863982006
 31
0.0
  3
ZG Ersetzt durch:
  2
ZG_ERSETZT_DURCH:
 70
     0
 74
     2
  0
ATTDEF
  5
E05C
  8
EDV-ART_NR_
 10
340.75
 20
30.2500586922471086
 30
0.0
 40
2.5
  1

 41
0.8
  3
EDV_ART
  2
EDV_ART
 70
     0
  0
ATTDEF
  5
E05D
  8
HILF
 10
231.249999999999801
 20
62.5999999999999801
 30
-0.0000000000000014
 40
2.2000000000000002
  1

 41
0.8
 11
231.249999999999801
 21
64.7999999999999829
 31
-0.0000000000000014
  3
Prüfantragsnummer:
  2
PRÜFANTRAGSNUMMER:
 70
     0
 74
     3
  0
ATTDEF
  5
E05F
  8
HILF
 10
397.321428571428612
 20
13.1099916557578595
 30
0.0
 40
2.5
  1

 41
0.8
 72
     4
 11
403.7499999999998863
 21
14.3599916557578595
 31
0.0
  3

  2
GEWICHT:
 70
     0
  0
ATTDEF
  5
E060
  8
TEXT25
 10
300.7297567747560265
 20
30.2500586922470696
 30
0.0000000000000195
 40
2.0
  1

 41
0.8
 72
     1
 11
308.2345186795179188
 21
29.5833920255804017
 31
0.0000000000000195
  3
Gepr._NAME
  2
GEPR._NAME
 70
     0
 74
     1
  0
ATTDEF
  5
E061
  8
TEXT25
 10
287.25
 20
30.2500586922471015
 30
0.0
 40
2.0
  1

 41
0.8
  3
Gepr._TAG
  2
GEPR._TAG
 70
     0
  0
ATTDEF
  5
E062
  8
TEXT25
 10
300.486800577079805
 20
25.5000038863981615
 30
0.0000000000000195
 40
2.0
  1

 41
0.8
 72
     1
 11
308.2582291485084056
 21
24.8333372197314901
 31
0.0000000000000195
  3
Norm._NAME
  2
NORM._NAME
 70
     0
 74
     1
  0
ATTDEF
  5
E063
  8
TEXT25
 10
287.25
 20
25.5000038863981899
 30
0.0
 40
2.0
  1

 41
0.8
  3
Norm._TAG
  2
NORM._TAG
 70
     0
  0
ATTDEF
  5
E064
  8
VOLL
 10
319.75
 20
13.1099916557578595
 30
0.0
 40
3.0
  1

 41
0.8
  3

  2
BAUVORHABEN:
 70
     0
1001
AcDbAttr
1070
     0
1070
     1
  0
ATTDEF
  5
E065
  8
INDEX
 10
268.75
 20
20.7500000000002416
 30
-0.0000000000001795
 40
1.8
  1

 41
0.8
  3
ÄND_NAME_A
  2
ÄND_NAME_A
 70
     0
  0
ATTDEF
  5
E066
  8
INDEX
 10
258.7499999999998863
 20
20.7500000000000107
 30
-0.0000000000001795
 40
1.8
  1

 41
0.7
  3
ÄND_TAG_A
  2
ÄND_TAG_A
 70
     0
  0
ATTDEF
  5
E067
  8
INDEX
 10
236.7499999999998863
 20
20.7499999999999716
 30
-0.0000000000001795
 40
1.8
  1

 41
0.8
  3
ÄNDER_TEXT_A
  2
ÄNDER_TEXT_A
 70
     0
  0
ATTDEF
  5
E068
  8
INDEX
 10
227.7976190476188094
 20
20.7499999999999787
 30
-0.0000000000000658
 40
2.0
  1

 41
0.8
 72
     1
 11
232.749999999999801
 21
20.7499999999999787
 31
-0.0000000000000658
  3
INDEX_A
  2
INDEX_A
 70
     0
  0
ATTDEF
  5
E069
  8
INDEX
 10
268.75
 20
25.5000076984379795
 30
-0.0000000000000658
 40
1.8
  1

 41
0.8
  3
ÄND_NAME_B
  2
ÄND_NAME_B
 70
     0
  0
ATTDEF
  5
E06A
  8
INDEX
 10
258.7499999999998863
 20
25.4999999999998117
 30
-0.0000000000001226
 40
1.8
  1

 41
0.7
  3
ÄND_TAG_B
  2
ÄND_TAG_B
 70
     0
  0
ATTDEF
  5
E06B
  8
INDEX
 10
236.7499999999998863
 20
25.5000000000001812
 30
-0.0000000000001795
 40
1.8
  1

 41
0.8
  3
ÄNDER_TEXT_B
  2
ÄNDER_TEXT_B
 70
     0
  0
ATTDEF
  5
E06C
  8
INDEX
 10
227.8738095238093138
 20
25.5000000000001812
 30
-0.0000000000001226
 40
2.0
  1

 41
0.8
 72
     1
 11
232.749999999999801
 21
25.5000000000001812
 31
-0.0000000000001226
  3
INDEX_B
  2
INDEX_B
 70
     0
  0
ATTDEF
  5
E06D
  8
INDEX
 10
268.75
 20
30.2500000000000391
 30
-0.0000000000001226
 40
1.8
  1

 41
0.8
  3
ÄND_NAME_C
  2
ÄND_NAME_C
 70
     0
  0
ATTDEF
  5
E06E
  8
INDEX
 10
258.75
 20
30.2500000000000213
 30
-0.0000000000001226
 40
1.8
  1

 41
0.7
  3
ÄND_TAG_C
  2
ÄND_TAG_C
 70
     0
  0
ATTDEF
  5
E06F
  8
INDEX
 10
236.75
 20
30.2499999999997691
 30
-0.0000000000001226
 40
1.8
  1

 41
0.8
  3
ÄNDER_TEXT_C
  2
ÄNDER_TEXT_C
 70
     0
  0
ATTDEF
  5
E070
  8
INDEX
 10
227.8357142857140047
 20
30.2499999999999893
 30
-0.0000000000000658
 40
2.0
  1

 41
0.8
 72
     1
 11
232.749999999999801
 21
30.2499999999999893
 31
-0.0000000000000658
  3
INDEX_C
  2
INDEX_C
 70
     0
  0
ATTDEF
  5
E071
  8
INDEX
 10
268.75
 20
34.9999999999998295
 30
-0.0000000000001226
 40
1.8
  1

 41
0.8
  3
ÄND_NAME_D
  2
ÄND_NAME_D
 70
     0
  0
ATTDEF
  5
E072
  8
INDEX
 10
258.75
 20
35.0000000000000071
 30
-0.0000000000001795
 40
1.8
  1

 41
0.7
  3
ÄND_TAG_D
  2
ÄND_TAG_D
 70
     0
  0
ATTDEF
  5
E073
  8
INDEX
 10
236.75
 20
34.9999999999999716
 30
-0.0000000000001795
 40
1.8
  1

 41
0.8
  3
ÄNDER_TEXT_D
  2
ÄNDER_TEXT_D
 70
     0
  0
ATTDEF
  5
E074
  8
INDEX
 10
227.8738095238093138
 20
34.9999999999999716
 30
-0.0000000000001226
 40
2.0
  1

 41
0.8
 72
     1
 11
232.749999999999801
 21
34.9999999999999716
 31
-0.0000000000001226
  3
INDEX_D
  2
INDEX_D
 70
     0
  0
ATTDEF
  5
E075
  8
INDEX
 10
268.7500952757627033
 20
39.7500386891918609
 30
-0.0000000000001137
 40
1.8
  1

 41
0.8
  3
ÄND_NAME_E
  2
ÄND_NAME_E
 70
     0
  0
ATTDEF
  5
E076
  8
INDEX
 10
258.750095275762817
 20
39.7500386891916193
 30
-0.0000000000001137
 40
1.8
  1

 41
0.7
  3
ÄND_TAG_E
  2
ÄND_TAG_E
 70
     0
  0
ATTDEF
  5
E077
  8
INDEX
 10
236.7500952757627886
 20
39.7500386891913777
 30
-0.0000000000000568
 40
1.8
  1

 41
0.8
  3
ÄNDER_TEXT_E
  2
ÄNDER_TEXT_E
 70
     0
  0
ATTDEF
  5
E078
  8
INDEX
 10
227.9120000376672976
 20
39.7500386891913777
 30
0.0
 40
2.0
  1

 41
0.8
 72
     1
 11
232.7500952757625043
 21
39.7500386891913777
 31
0.0
  3
INDEX_E
  2
INDEX_E
 70
     0
  0
ATTDEF
  5
E079
  8
INDEX
 10
268.75
 20
44.5000194241377969
 30
-0.0000000000000568
 40
1.8
  1

 41
0.8
  3
ÄND_NAME_F
  2
ÄND_NAME_F
 70
     0
  0
ATTDEF
  5
E07A
  8
INDEX
 10
258.75
 20
44.5000194241379674
 30
-0.0000000000001137
 40
1.8
  1

 41
0.7
  3
ÄND_TAG_F
  2
ÄND_TAG_F
 70
     0
  0
ATTDEF
  5
E07B
  8
INDEX
 10
236.75
 20
44.500019424137939
 30
-0.0000000000001137
 40
1.8
  1

 41
0.8
  3
ÄNDER_TEXT_F
  2
ÄNDER_TEXT_F
 70
     0
  0
ATTDEF
  5
E07C
  8
INDEX
 10
227.9119047619045091
 20
44.5000194241379603
 30
0.0
 40
2.0
  1

 41
0.8
 72
     1
 11
232.749999999999801
 21
44.5000194241379603
 31
0.0
  3
INDEX_F
  2
INDEX_F
 70
     0
  0
ATTDEF
  5
E07D
  8
INDEX
 10
268.75
 20
49.2500583970462031
 30
-0.0000000000000568
 40
1.8
  1

 41
0.8
  3
ÄND_NAME_G
  2
ÄND_NAME_G
 70
     0
  0
ATTDEF
  5
E07E
  8
INDEX
 10
258.75
 20
49.2500583970461676
 30
-0.0000000000000568
 40
1.8
  1

 41
0.7
  3
ÄND_TAG_G
  2
ÄND_TAG_G
 70
     0
  0
ATTDEF
  5
E07F
  8
INDEX
 10
236.75
 20
49.2500583970461321
 30
-0.0000000000000568
 40
1.8
  1

 41
0.8
  3
ÄNDER_TEXT_G
  2
ÄNDER_TEXT_G
 70
     0
  0
ATTDEF
  5
E080
  8
INDEX
 10
227.8357142857140047
 20
49.2500583970461321
 30
0.0
 40
2.0
  1

 41
0.8
 72
     1
 11
232.749999999999801
 21
49.2500583970461321
 31
0.0
  3
INDEX_G
  2
INDEX_G
 70
     0
  0
ATTDEF
  5
E081
  8
INDEX
 10
268.75
 20
54.0000682509737828
 30
-0.0000000000001137
 40
1.8
  1

 41
0.8
  3
ÄND_NAME_H
  2
ÄND_NAME_H
 70
     0
  0
ATTDEF
  5
E082
  8
INDEX
 10
258.75
 20
54.0000682509735626
 30
-0.0000000000000568
 40
1.8
  1

 41
0.7
  3
ÄND_TAG_H
  2
ÄND_TAG_H
 70
     0
  0
ATTDEF
  5
E083
  8
INDEX
 10
236.75
 20
54.0000682509735199
 30
-0.0000000000000568
 40
1.8
  1

 41
0.8
  3
ÄNDER_TEXT_H
  2
ÄNDER_TEXT_H
 70
     0
  0
ATTDEF
  5
E084
  8
INDEX
 10
227.8738095238093138
 20
54.0000682509735199
 30
0.0
 40
2.0
  1

 41
0.8
 72
     1
 11
232.749999999999801
 21
54.0000682509735199
 31
0.0
  3
INDEX_H
  2
INDEX_H
 70
     0
  0
ENDBLK
  5
D867
  8
0
  0
BLOCK
  8
0
  2
KEHLNAHT_RUNDUM
 70
     0
 10
0.0
 20
0.0
 30
0.0
  3
KEHLNAHT_RUNDUM
  1

  0
LINE
  5
E1BC
  8
BEM
 10
3.0
 20
0.0
 30
0.0
 11
3.0
 21
3.0
 31
0.0
  0
LINE
  5
E1BD
  8
BEM
 10
3.0
 20
3.0
 30
0.0
 11
6.0
 21
0.0
 31
0.0
  0
CIRCLE
  5
E1BE
  8
BEM
 10
0.0
 20
0.0
 30
0.0
 40
1.0
  0
LINE
  5
E1BF
  8
BEM
  6
VERDECKT
 10
0.0
 20
-1.0
 30
0.0
 11
8.3000000000000114
 21
-1.0
 31
0.0
  0
ENDBLK
  5
E1C0
  8
0
  0
BLOCK
  8
0
  2
A$C56641DB4
 70
     0
 10
0.0
 20
0.0
 30
0.0
  3
A$C56641DB4
  1

  0
INSERT
  5
26FB9
  8
0
  2
*U66
 10
0.0
 20
0.0
 30
0.0
  0
ENDBLK
  5
26FBB
  8
0
  0
BLOCK
  8
0
  2
A$CF5B3AA8A
 70
     0
 10
0.0
 20
0.0
 30
0.0
  3
A$CF5B3AA8A
  1

  0
INSERT
  5
2706B
  8
0
  2
*U67
 10
0.0
 20
0.0
 30
0.0
  0
INSERT
  5
2706C
  8
0
  2
*U68
 10
0.0
 20
0.0
 30
0.0
  0
ENDBLK
  5
2706E
  8
0
  0
BLOCK
  8
0
  2
*D23
 70
     1
 10
0.0
 20
0.0
 30
0.0
  3
*D23
  1

  0
LINE
  5
3579C
  8
BEM
  6
BYBLOCK
 62
     0
 10
193.7027463641730094
 20
-44.5248051969878134
 30
0.0
 11
193.7027463641730094
 21
-26.5248062436781389
 31
0.0
  0
LINE
  5
3579D
  8
BEM
  6
BYBLOCK
 62
     0
 10
368.702746364172981
 20
-44.5248051969878134
 30
0.0
 11
368.702746364172981
 21
-26.5248062436781389
 31
0.0
  0
LINE
  5
3579E
  8
BEM
  6
BYBLOCK
 62
     0
 10
197.2027463641730094
 20
-28.5248062436781389
 30
0.0
 11
365.202746364172981
 21
-28.5248062436781389
 31
0.0
  0
SOLID
  5
3579F
  8
BEM
 62
     0
 10
197.2027463641730094
 20
-27.9414729103448103
 30
0.0
 11
197.2027463641730094
 21
-29.1081395770114817
 31
0.0
 12
193.7027463641730094
 22
-28.5248062436781389
 32
0.0
 13
193.7027463641730094
 23
-28.5248062436781389
 33
0.0
  0
SOLID
  5
357A0
  8
BEM
 62
     0
 10
365.202746364172981
 20
-27.9414729103448103
 30
0.0
 11
365.202746364172981
 21
-29.1081395770114817
 31
0.0
 12
368.702746364172981
 22
-28.5248062436781389
 32
0.0
 13
368.702746364172981
 23
-28.5248062436781389
 33
0.0
  0
INSERT
  5
357A1
  8
0
  2
*U69
 10
0.0
 20
0.0
 30
0.0
  0
POINT
  5
357A2
  8
DEFPOINTS
 62
     0
 10
193.7027463641730094
 20
-46.5248051969878134
 30
0.0
  0
POINT
  5
357A3
  8
DEFPOINTS
 62
     0
 10
368.702746364172981
 20
-46.5248051969878134
 30
0.0
  0
POINT
  5
357A4
  8
DEFPOINTS
 62
     0
 10
368.702746364172981
 20
-28.5248062436781389
 30
0.0
  0
ENDBLK
  5
3440A
  8
0
  0
BLOCK
  8
0
  2
*D24
 70
     1
 10
0.0
 20
0.0
 30
0.0
  3
*D24
  1

  0
LINE
  5
357A5
  8
BEM
  6
BYBLOCK
 62
     0
 10
358.702746364172981
 20
-45.8998051969878134
 30
0.0
 11
358.702746364172981
 21
-33.5248057053975117
 31
0.0
  0
LINE
  5
357A6
  8
BEM
  6
BYBLOCK
 62
     0
 10
203.7027463641730094
 20
-45.8998051969878134
 30
0.0
 11
203.7027463641730094
 21
-33.5248057053975117
 31
0.0
  0
LINE
  5
357A7
  8
BEM
  6
BYBLOCK
 62
     0
 10
355.202746364172981
 20
-35.5248057053975117
 30
0.0
 11
207.2027463641730094
 21
-35.5248057053975117
 31
0.0
  0
SOLID
  5
357A8
  8
BEM
 62
     0
 10
355.202746364172981
 20
-34.9414723720641831
 30
0.0
 11
355.202746364172981
 21
-36.1081390387308474
 31
0.0
 12
358.702746364172981
 22
-35.5248057053975117
 32
0.0
 13
358.702746364172981
 23
-35.5248057053975117
 33
0.0
  0
SOLID
  5
357A9
  8
BEM
 62
     0
 10
207.2027463641730094
 20
-34.9414723720641831
 30
0.0
 11
207.2027463641730094
 21
-36.1081390387308474
 31
0.0
 12
203.7027463641730094
 22
-35.5248057053975117
 32
0.0
 13
203.7027463641730094
 23
-35.5248057053975117
 33
0.0
  0
INSERT
  5
357AA
  8
0
  2
*U70
 10
0.0
 20
0.0
 30
0.0
  0
POINT
  5
357AB
  8
DEFPOINTS
 62
     0
 10
358.702746364172981
 20
-47.8998051969878134
 30
0.0
  0
POINT
  5
357AC
  8
DEFPOINTS
 62
     0
 10
203.7027463641730094
 20
-47.8998051969878134
 30
0.0
  0
POINT
  5
357AD
  8
DEFPOINTS
 62
     0
 10
203.7027463641730094
 20
-35.5248057053975117
 30
0.0
  0
ENDBLK
  5
344C5
  8
0
  0
BLOCK
  8
0
  2
*D25
 70
     1
 10
0.0
 20
0.0
 30
0.0
  3
*D25
  1

  0
LINE
  5
357AE
  8
BEM
  6
BYBLOCK
 62
     0
 10
241.2027463641730947
 20
-118.0248051969878986
 30
0.0
 11
234.2027463641730094
 21
-118.0248051969878986
 31
0.0
  0
LINE
  5
357AF
  8
BEM
  6
BYBLOCK
 62
     0
 10
241.2027463641730947
 20
-92.0248051969878418
 30
0.0
 11
234.2027463641730094
 21
-92.0248051969878418
 31
0.0
  0
LINE
  5
357B0
  8
BEM
  6
BYBLOCK
 62
     0
 10
236.2027463641730094
 20
-114.5248051969877991
 30
0.0
 11
236.2027463641730094
 21
-95.5248051969878418
 31
0.0
  0
SOLID
  5
357B1
  8
BEM
 62
     0
 10
235.619413030839695
 20
-114.5248051969877991
 30
0.0
 11
236.786079697506409
 21
-114.5248051969877991
 31
0.0
 12
236.2027463641730094
 22
-118.0248051969878986
 32
0.0
 13
236.2027463641730094
 23
-118.0248051969878986
 33
0.0
  0
SOLID
  5
357B2
  8
BEM
 62
     0
 10
235.619413030839695
 20
-95.5248051969878418
 30
0.0
 11
236.786079697506409
 21
-95.5248051969878418
 31
0.0
 12
236.2027463641730094
 22
-92.0248051969878418
 32
0.0
 13
236.2027463641730094
 23
-92.0248051969878418
 33
0.0
  0
INSERT
  5
357B3
  8
0
  2
*U71
 10
0.0
 20
0.0
 30
0.0
  0
POINT
  5
357B4
  8
DEFPOINTS
 62
     0
 10
243.2027463641730947
 20
-118.0248051969878986
 30
0.0
  0
POINT
  5
357B5
  8
DEFPOINTS
 62
     0
 10
243.2027463641730947
 20
-92.0248051969878418
 30
0.0
  0
POINT
  5
357B6
  8
DEFPOINTS
 62
     0
 10
236.2027463641730094
 20
-92.0248051969878418
 30
0.0
  0
ENDBLK
  5
347E4
  8
0
  0
BLOCK
  8
0
  2
*D26
 70
     1
 10
0.0
 20
0.0
 30
0.0
  3
*D26
  1

  0
LINE
  5
357B7
  8
BEM
  6
BYBLOCK
 62
     0
 10
243.2027463641730094
 20
-90.0248051969878134
 30
0.0
 11
243.2027463641730094
 21
-83.0248051969877991
 31
0.0
  0
LINE
  5
357B8
  8
BEM
  6
BYBLOCK
 62
     0
 10
319.202746364172981
 20
-90.0248051969878134
 30
0.0
 11
319.202746364172981
 21
-83.0248051969877991
 31
0.0
  0
LINE
  5
357B9
  8
BEM
  6
BYBLOCK
 62
     0
 10
246.7027463641730094
 20
-85.0248051969878134
 30
0.0
 11
315.702746364172981
 21
-85.0248051969878134
 31
0.0
  0
SOLID
  5
357BA
  8
BEM
 62
     0
 10
246.7027463641730094
 20
-84.4414718636544848
 30
0.0
 11
246.7027463641730094
 21
-85.6081385303211277
 31
0.0
 12
243.2027463641730094
 22
-85.0248051969878134
 32
0.0
 13
243.2027463641730094
 23
-85.0248051969878134
 33
0.0
  0
SOLID
  5
357BB
  8
BEM
 62
     0
 10
315.702746364172981
 20
-84.4414718636544848
 30
0.0
 11
315.702746364172981
 21
-85.6081385303211277
 31
0.0
 12
319.202746364172981
 22
-85.0248051969878134
 32
0.0
 13
319.202746364172981
 23
-85.0248051969878134
 33
0.0
  0
INSERT
  5
357BC
  8
0
  2
*U72
 10
0.0
 20
0.0
 30
0.0
  0
POINT
  5
357BD
  8
DEFPOINTS
 62
     0
 10
243.2027463641730094
 20
-92.0248051969878134
 30
0.0
  0
POINT
  5
357BE
  8
DEFPOINTS
 62
     0
 10
319.202746364172981
 20
-92.0248051969878134
 30
0.0
  0
POINT
  5
357BF
  8
DEFPOINTS
 62
     0
 10
319.202746364172981
 20
-85.0248051969878134
 30
0.0
  0
ENDBLK
  5
349A4
  8
0
  0
BLOCK
  8
0
  2
*D27
 70
     1
 10
0.0
 20
0.0
 30
0.0
  3
*D27
  1

  0
LINE
  5
357C0
  8
BEM
  6
BYBLOCK
 62
     0
 10
197.0777463641730947
 20
-157.5248051969878986
 30
0.0
 11
184.7029437129459097
 21
-157.5248051969878986
 31
0.0
  0
LINE
  5
357C1
  8
BEM
  6
BYBLOCK
 62
     0
 10
197.0777463641730947
 20
-52.5248051969878418
 30
0.0
 11
184.7029437129459097
 21
-52.5248051969878418
 31
0.0
  0
LINE
  5
357C2
  8
BEM
  6
BYBLOCK
 62
     0
 10
186.7029437129459097
 20
-154.0248051969878986
 30
0.0
 11
186.7029437129459097
 21
-56.0248051969878418
 31
0.0
  0
SOLID
  5
357C3
  8
BEM
 62
     0
 10
186.1196103796125101
 20
-154.0248051969878986
 30
0.0
 11
187.2862770462791957
 21
-154.0248051969878986
 31
0.0
 12
186.7029437129459097
 22
-157.5248051969878986
 32
0.0
 13
186.7029437129459097
 23
-157.5248051969878986
 33
0.0
  0
SOLID
  5
357C4
  8
BEM
 62
     0
 10
186.1196103796125101
 20
-56.0248051969878418
 30
0.0
 11
187.2862770462791957
 21
-56.0248051969878418
 31
0.0
 12
186.7029437129459097
 22
-52.5248051969878418
 32
0.0
 13
186.7029437129459097
 23
-52.5248051969878418
 33
0.0
  0
INSERT
  5
357C5
  8
0
  2
*U73
 10
0.0
 20
0.0
 30
0.0
  0
POINT
  5
357C6
  8
DEFPOINTS
 62
     0
 10
199.0777463641730947
 20
-157.5248051969878986
 30
0.0
  0
POINT
  5
357C7
  8
DEFPOINTS
 62
     0
 10
199.0777463641730947
 20
-52.5248051969878418
 30
0.0
  0
POINT
  5
357C8
  8
DEFPOINTS
 62
     0
 10
186.7029437129459097
 20
-52.5248051969878418
 30
0.0
  0
ENDBLK
  5
349F6
  8
0
  0
BLOCK
  8
0
  2
*D28
 70
     1
 10
0.0
 20
0.0
 30
0.0
  3
*D28
  1

  0
LINE
  5
357C9
  8
BEM
  6
BYBLOCK
 62
     0
 10
195.7027463641730947
 20
-167.5248051969878134
 30
0.0
 11
177.7029437129457961
 21
-167.5248051969878986
 31
0.0
  0
LINE
  5
357CA
  8
BEM
  6
BYBLOCK
 62
     0
 10
195.7027463641730947
 20
-42.5248051969878205
 30
0.0
 11
177.7029437129457961
 21
-42.5248051969878205
 31
0.0
  0
LINE
  5
357CB
  8
BEM
  6
BYBLOCK
 62
     0
 10
179.7029437129457961
 20
-164.0248051969878986
 30
0.0
 11
179.7029437129457961
 21
-46.0248051969878205
 31
0.0
  0
SOLID
  5
357CC
  8
BEM
 62
     0
 10
179.1196103796125101
 20
-164.0248051969878986
 30
0.0
 11
180.2862770462791957
 21
-164.0248051969878986
 31
0.0
 12
179.7029437129457961
 22
-167.5248051969878986
 32
0.0
 13
179.7029437129457961
 23
-167.5248051969878986
 33
0.0
  0
SOLID
  5
357CD
  8
BEM
 62
     0
 10
179.1196103796123964
 20
-46.0248051969878205
 30
0.0
 11
180.2862770462791104
 21
-46.0248051969878205
 31
0.0
 12
179.7029437129457961
 22
-42.5248051969878205
 32
0.0
 13
179.7029437129457961
 23
-42.5248051969878205
 33
0.0
  0
INSERT
  5
357CE
  8
0
  2
*U74
 10
0.0
 20
0.0
 30
0.0
  0
POINT
  5
357CF
  8
DEFPOINTS
 62
     0
 10
197.7027463641730947
 20
-167.5248051969878134
 30
0.0
  0
POINT
  5
357D0
  8
DEFPOINTS
 62
     0
 10
197.7027463641730947
 20
-42.5248051969878205
 30
0.0
  0
POINT
  5
357D1
  8
DEFPOINTS
 62
     0
 10
179.7029437129457961
 20
-42.5248051969878205
 30
0.0
  0
ENDBLK
  5
34D54
  8
0
  0
BLOCK
  8
0
  2
*D29
 70
     1
 10
0.0
 20
0.0
 30
0.0
  3
*D29
  1

  0
LINE
  5
357EC
  8
BEM
  6
BYBLOCK
 62
     0
 10
191.7027463641732083
 20
-204.9071518779647931
 30
0.0
 11
184.702746364168803
 21
-204.9071518779647931
 31
0.0
  0
LINE
  5
357ED
  8
BEM
  6
BYBLOCK
 62
     0
 10
191.7027463641732083
 20
-204.4071518779647931
 30
0.0
 11
184.702746364168803
 21
-204.4071518779647931
 31
0.0
  0
LINE
  5
357EE
  8
BEM
  6
BYBLOCK
 62
     0
 10
186.702746364168803
 20
-208.4071518779647931
 30
0.0
 11
186.702746364168803
 21
-211.9071518779647931
 31
0.0
  0
LINE
  5
357EF
  8
BEM
  6
BYBLOCK
 62
     0
 10
186.702746364168803
 20
-200.9071518779647931
 30
0.0
 11
186.702746364168803
 21
-193.7404852112981075
 31
0.0
  0
LINE
  5
357F0
  8
BEM
  6
BYBLOCK
 62
     0
 10
186.702746364168803
 20
-204.9071518779647931
 30
0.0
 11
186.702746364168803
 21
-204.4071518779647931
 31
0.0
  0
SOLID
  5
357F1
  8
BEM
 62
     0
 10
186.1194130308354886
 20
-208.4071518779647931
 30
0.0
 11
187.2860796975020889
 21
-208.4071518779647931
 31
0.0
 12
186.702746364168803
 22
-204.9071518779647931
 32
0.0
 13
186.702746364168803
 23
-204.9071518779647931
 33
0.0
  0
SOLID
  5
357F2
  8
BEM
 62
     0
 10
186.1194130308354886
 20
-200.9071518779647931
 30
0.0
 11
187.2860796975020889
 21
-200.9071518779647931
 31
0.0
 12
186.702746364168803
 22
-204.4071518779647931
 32
0.0
 13
186.702746364168803
 23
-204.4071518779647931
 33
0.0
  0
INSERT
  5
357F3
  8
0
  2
*U76
 10
0.0
 20
0.0
 30
0.0
  0
POINT
  5
357F4
  8
DEFPOINTS
 62
     0
 10
193.7027463641732083
 20
-204.9071518779647931
 30
0.0
  0
POINT
  5
357F5
  8
DEFPOINTS
 62
     0
 10
193.7027463641732083
 20
-204.4071518779647931
 30
0.0
  0
POINT
  5
357F6
  8
DEFPOINTS
 62
     0
 10
186.702746364168803
 20
-204.4071518779647931
 30
0.0
  0
ENDBLK
  5
353EF
  8
0
  0
BLOCK
  8
0
  2
*D30
 70
     1
 10
0.0
 20
0.0
 30
0.0
  3
*D30
  1

  0
LINE
  5
357DD
  8
BEM
  6
BYBLOCK
 62
     0
 10
379.5707281423785275
 20
-174.811415063878286
 30
0.0000000000000056
 11
370.6764890429162165
 21
-168.0596038042206999
 31
0.0000000000000056
  0
INSERT
  5
357DE
  8
0
  2
*U75
 10
0.0
 20
0.0
 30
0.0
  0
LINE
  5
357DF
  8
BEM
  6
BYBLOCK
 62
     0
 10
364.7027463641729241
 20
-163.5248051969880976
 30
0.0000000000000056
 11
367.8887424595026232
 21
-165.9433644541788055
 31
0.0000000000000056
  0
SOLID
  5
357E0
  8
BEM
 62
     0
 10
371.0291956012563901
 20
-167.5949793736517961
 30
0.0000000000000056
 11
370.3237824845758155
 21
-168.5242282347896889
 31
0.0000000000000056
 12
367.8887424595026232
 22
-165.9433644541788055
 32
0.0000000000000056
 13
367.8887424595026232
 23
-165.9433644541788055
 33
0.0000000000000056
  0
POINT
  5
357E1
  8
DEFPOINTS
 62
     0
 10
367.8887424595026232
 20
-165.9433644541788055
 30
-0.0000000000188075
  0
POINT
  5
357E2
  8
DEFPOINTS
 62
     0
 10
364.7027463641729241
 20
-163.5248051969880976
 30
-0.0000000000180901
  0
ENDBLK
  5
355C2
  8
0
  0
BLOCK
  8
0
  2
*D31
 70
     1
 10
0.0
 20
0.0
 30
0.0
  3
*D31
  1

  0
LINE
  5
3598D
  8
BEM
  6
BYBLOCK
 62
     0
 10
216.6975423443537068
 20
-141.813390644234488
 30
0.0
 11
206.9691239842464938
 21
-153.5755771403811991
 31
0.0
  0
LINE
  5
3598E
  8
BEM
  6
BYBLOCK
 62
     0
 10
200.436368744100406
 20
-161.4740332535936886
 30
0.0
 11
198.2056718328310012
 21
-164.1710670483491867
 31
0.0
  0
INSERT
  5
3598F
  8
0
  2
*U77
 10
0.0
 20
0.0
 30
0.0
  0
LINE
  5
35990
  8
BEM
  6
BYBLOCK
 62
     0
 10
202.6670656553698109
 20
-158.7769994588381905
 30
0.0
 11
204.738427072977089
 21
-156.2726109351366972
 31
0.0
  0
SOLID
  5
35991
  8
BEM
 62
     0
 10
199.9868631116412132
 20
-161.1022504350488873
 30
0.0
 11
200.8858743765597126
 21
-161.8458160721386037
 31
0.0
 12
202.6670656553698109
 22
-158.7769994588381905
 32
0.0
 13
202.6670656553698109
 23
-158.7769994588381905
 33
0.0
  0
SOLID
  5
35992
  8
BEM
 62
     0
 10
206.5196183517871873
 20
-153.2037943218363125
 30
0.0
 11
207.4186296167056867
 21
-153.9473599589261141
 31
0.0
 12
204.738427072977089
 22
-156.2726109351366972
 32
0.0
 13
204.738427072977089
 23
-156.2726109351366972
 33
0.0
  0
POINT
  5
35993
  8
DEFPOINTS
 62
     0
 10
204.738427072977089
 20
-156.2726109351366972
 30
-0.0000000000163158
  0
POINT
  5
35994
  8
DEFPOINTS
 62
     0
 10
202.6670656553698109
 20
-158.7769994588381905
 30
-0.0000000000163158
  0
ENDBLK
  5
3596C
  8
0
  0
BLOCK
  8
0
  2
A$C3612787D
 70
     0
 10
0.0
 20
0.0
 30
0.0
  3
A$C3612787D
  1

  0
CIRCLE
  5
35D07
  8
0
  6
CONTINUOUS
 62
     1
 10
-75.2094054949533302
 20
33.8044250367013888
 30
0.0000000000000344
 40
3.25
  0
CIRCLE
  5
35D08
  8
0
  6
CONTINUOUS
 62
     1
 10
-385.2094054949532733
 20
33.8044250367013888
 30
-0.0000000000000344
 40
3.25
  0
CIRCLE
  5
35D09
  8
0
  6
CONTINUOUS
 62
     1
 10
-75.2094054949533302
 20
243.8044250367013888
 30
0.0000000000000344
 40
3.25
  0
CIRCLE
  5
35D0A
  8
0
  6
CONTINUOUS
 62
     1
 10
-385.2094054949532733
 20
243.8044250367013888
 30
-0.0000000000000344
 40
3.25
  0
ARC
  5
35D0B
  8
0
  6
CONTINUOUS
 62
     1
 10
-397.209405494953387
 20
255.8044250367013888
 30
-0.0000000000000371
 40
8.0
 50
90.0
 51
180.0
  0
LINE
  5
35D0C
  8
0
  6
CONTINUOUS
 62
     1
 10
-405.2094054949532733
 20
255.8044250367013888
 30
-0.0000000000000389
 11
-405.2094054949532733
 21
21.8044250367013888
 31
-0.0000000000000389
  0
ARC
  5
35D0D
  8
0
  6
CONTINUOUS
 62
     1
 10
-397.209405494953387
 20
21.8044250367013994
 30
-0.0000000000000371
 40
8.0000000000000142
 50
180.0
 51
270.0
  0
LINE
  5
35D0E
  8
0
  6
CONTINUOUS
 62
     1
 10
-397.209405494953387
 20
13.8044250367013905
 30
-0.0000000000000371
 11
-63.2094054949533586
 21
13.8044250367013905
 31
0.0000000000000371
  0
ARC
  5
35D0F
  8
0
  6
CONTINUOUS
 62
     1
 10
-63.2094054949533017
 20
21.8044250367013994
 30
0.0000000000000371
 40
8.0
 50
270.0
 51
0.0
  0
LINE
  5
35D10
  8
0
  6
CONTINUOUS
 62
     1
 10
-55.2094054949533302
 20
21.8044250367013888
 30
0.0000000000000389
 11
-55.2094054949533302
 21
255.8044250367013888
 31
0.0000000000000389
  0
ARC
  5
35D11
  8
0
  6
CONTINUOUS
 62
     1
 10
-63.2094054949533302
 20
255.8044250367013888
 30
0.0000000000000371
 40
8.0000000000000142
 50
0.0
 51
90.0
  0
LINE
  5
35D12
  8
0
  6
CONTINUOUS
 62
     1
 10
-154.2094054949533017
 20
112.804425036701403
 30
0.0000000000000169
 11
-306.2094054949532733
 21
112.804425036701403
 31
-0.0000000000000169
  0
LINE
  5
35D13
  8
0
  6
CONTINUOUS
 62
     1
 10
-154.2094054949533017
 20
164.8044250367013888
 30
0.0000000000000169
 11
-154.2094054949533017
 21
112.804425036701403
 31
0.0000000000000169
  0
LINE
  5
35D14
  8
0
  6
CONTINUOUS
 62
     1
 10
-306.2094054949532733
 20
164.8044250367013888
 30
-0.0000000000000169
 11
-154.2094054949533017
 21
164.8044250367013888
 31
0.0000000000000169
  0
LINE
  5
35D15
  8
0
  6
CONTINUOUS
 62
     1
 10
-306.2094054949532733
 20
112.804425036701403
 30
-0.0000000000000169
 11
-306.2094054949532733
 21
164.8044250367013888
 31
-0.0000000000000169
  0
LINE
  5
35D16
  8
0
  6
CONTINUOUS
 62
     1
 10
-63.2094054949533017
 20
263.8044250367013888
 30
0.0000000000000371
 11
-397.209405494953387
 21
263.8044250367013888
 31
-0.0000000000000371
  0
ENDBLK
  5
35D18
  8
0
  0
BLOCK
  8
0
  2
A$CF80509C4
 70
     0
 10
0.0
 20
0.0
 30
0.0
  3
A$CF80509C4
  1

  0
LINE
  5
35D1C
  8
0
  6
CONTINUOUS
 62
     1
 10
-323.3502414716705857
 20
49.7636822953716091
 30
0.0
 11
-323.3502414716705857
 21
48.7636822953716091
 31
0.0000000000000002
210
0.0
220
1.0
230
-0.0000000000000002
  0
LINE
  5
35D1D
  8
0
  6
CONTINUOUS
 62
     1
 10
26.649758528329361
 20
48.7636822953716091
 30
0.0000000000000002
 11
18.6497585283293787
 21
48.7636822953716091
 31
0.0000000000000002
210
0.0
220
1.0
230
-0.0000000000000002
  0
LINE
  5
35D1E
  8
0
  6
CONTINUOUS
 62
     1
 10
-315.3502414716705857
 20
48.7636822953716091
 30
0.0000000000000002
 11
18.649758528329329
 21
48.7636822953716091
 31
0.0000000000000002
210
0.0
220
1.0
230
-0.0000000000000002
  0
LINE
  5
35D1F
  8
0
  6
CONTINUOUS
 62
     1
 10
-315.3502414716706994
 20
48.7636822953716091
 30
0.0000000000000002
 11
-323.3502414716705857
 21
48.7636822953716091
 31
0.0000000000000002
210
0.0
220
1.0
230
-0.0000000000000002
  0
LINE
  5
35D20
  8
0
  6
CONTINUOUS
 62
     1
 10
-323.3502414716705857
 20
49.7636822953716091
 30
0.0
 11
-315.3502414716705857
 21
49.7636822953716091
 31
0.0
210
0.0
220
1.0
230
-0.0000000000000002
  0
LINE
  5
35D21
  8
0
  6
CONTINUOUS
 62
     1
 10
-315.3502414716705857
 20
49.7636822953716091
 30
0.0
 11
18.649758528329329
 21
49.7636822953716091
 31
0.0
210
0.0
220
1.0
230
-0.0000000000000002
  0
LINE
  5
35D22
  8
0
  6
CONTINUOUS
 62
     1
 10
18.6497585283294107
 20
49.7636822953716091
 30
0.0
 11
26.6497585283293894
 21
49.7636822953716091
 31
0.0
210
0.0
220
1.0
230
-0.0000000000000002
  0
LINE
  5
35D23
  8
0
  6
CONTINUOUS
 62
     1
 10
26.649758528329361
 20
48.7636822953716091
 30
0.0000000000000002
 11
26.649758528329361
 21
49.7636822953716091
 31
0.0
210
0.0
220
1.0
230
-0.0000000000000002
  0
LINE
  5
35D24
  8
0
  6
VERDECKT
 62
     3
 10
-224.3502414716706994
 20
48.7636822953716091
 30
0.0000000000000002
 11
-224.3502414716706994
 21
49.7636822953716091
 31
0.0
210
0.0
220
1.0
230
-0.0000000000000002
  0
LINE
  5
35D25
  8
0
  6
VERDECKT
 62
     3
 10
-72.3502414716706426
 20
48.7636822953716091
 30
0.0000000000000002
 11
-72.3502414716706426
 21
49.7636822953716091
 31
0.0
210
0.0
220
1.0
230
-0.0000000000000002
  0
LINE
  5
35D26
  8
0
  6
VERDECKT
 62
     3
 10
3.399758528329357
 20
48.7636822953716091
 30
0.0000000000000002
 11
3.399758528329357
 21
49.7636822953716091
 31
0.0
210
0.0
220
1.0
230
-0.0000000000000002
  0
LINE
  5
35D27
  8
0
  6
VERDECKT
 62
     3
 10
9.8997585283293574
 20
48.7636822953716091
 30
0.0000000000000002
 11
9.8997585283293574
 21
49.7636822953716091
 31
0.0
210
0.0
220
1.0
230
-0.0000000000000002
  0
LINE
  5
35D28
  8
0
  6
VERDECKT
 62
     3
 10
-300.1002414716705857
 20
49.7636822953716091
 30
0.0
 11
-300.1002414716705857
 21
48.7636822953716091
 31
0.0000000000000002
210
0.0
220
1.0
230
-0.0000000000000002
  0
LINE
  5
35D29
  8
0
  6
VERDECKT
 62
     3
 10
-306.6002414716705857
 20
49.7636822953716091
 30
0.0
 11
-306.6002414716705857
 21
48.7636822953716091
 31
0.0000000000000002
210
0.0
220
1.0
230
-0.0000000000000002
  0
ENDBLK
  5
35D2B
  8
0
  0
BLOCK
  8
0
  2
*U34
 70
     1
 10
0.0
 20
0.0
 30
0.0
  3
*U34
  1

  0
TEXT
  5
3616D
  8
BEM
 62
     7
 10
321.1271683165550144
 20
20.75923720611042
 30
0.0
 40
1.9599999999999991
  1
19140.000X - KOPIE.DXF
 41
0.8
  0
ENDBLK
  5
3616F
  8
0
  0
BLOCK
  8
0
  2
*U35
 70
     1
 10
0.0
 20
0.0
 30
0.0
  3
*U35
  1

  0
TEXT
  5
36172
  8
HILF
 62
   150
 10
314.1296873394356908
 20
14.2972410923761295
 30
0.0
 40
1.399999999999999
  1
R
 41
0.8
  0
ENDBLK
  5
36174
  8
0
  0
BLOCK
  8
0
  2
*U36
 70
     1
 10
0.0
 20
0.0
 30
0.0
  3
*U36
  1

  0
TEXT
  5
36193
  8
BEM
 62
     7
 10
314.7046238746107747
 20
20.3440505013661408
 30
0.0
 40
1.9208000000000001
  1
19140.000X - KOPIE.DXF
 41
0.8
  0
ENDBLK
  5
36195
  8
0
  0
BLOCK
  8
0
  2
*U37
 70
     1
 10
0.0
 20
0.0
 30
0.0
  3
*U37
  1

  0
TEXT
  5
36197
  8
HILF
 62
   150
 10
307.8470925170340138
 20
14.0112943099065408
 30
0.0
 40
1.3720000000000001
  1
R
 41
0.8
  0
ENDBLK
  5
36199
  8
0
  0
BLOCK
  8
0
  2
*U38
 70
     1
 10
0.0
 20
0.0
 30
0.0
  3
*U38
  1

  0
TEXT
  5
361B8
  8
HILF
 10
273.143723509114011
 20
61.5310563745789594
 30
0.0
 40
2.1560000000000001
  1
Werkstoff:
 50
360.0
 41
0.8
  0
ENDBLK
  5
361BA
  8
0
  0
BLOCK
  8
0
  2
*U39
 70
     1
 10
0.0
 20
0.0
 30
0.0
  3
*U39
  1

  0
TEXT
  5
361BD
  8
BEM
 10
110.3109331484504025
 20
20.4026278763364317
 30
0.0
 40
2.4500000000000002
  1
19140.000X - Kopie.DWG
 41
0.8
  0
ENDBLK
  5
361BF
  8
0
  0
BLOCK
  8
0
  2
*U40
 70
     1
 10
0.0
 20
0.0
 30
0.0
  3
*U40
  1

  0
TEXT
  5
361C1
  8
HILF
 10
71.6311880593812731
 20
62.915886932329748
 30
0.0
 40
2.5
  1
Werkstoff:
 41
0.8
  0
ENDBLK
  5
361C3
  8
0
  0
BLOCK
  8
0
  2
*U41
 70
     1
 10
0.0
 20
0.0
 30
0.0
  3
*U41
  1

  0
TEXT
  5
361C5
  8
HILF
 62
   150
 10
103.5862687538405993
 20
14.9174652783709707
 30
0.0
 40
1.399999999999999
  1
R
 41
0.8
  0
ENDBLK
  5
361C7
  8
0
  0
BLOCK
  8
0
  2
*U42
 70
     1
 10
0.0
 20
0.0
 30
0.0
  3
*U42
  1

  0
TEXT
  5
361E9
  8
HILF
 10
279.3201513669160931
 20
61.9931487154610465
 30
0.0000000000000006
 40
2.4603221520192098
  1
Werkstoff:
 41
0.8
  7
GREEKS
  0
ENDBLK
  5
361EB
  8
0
  0
BLOCK
  8
0
  2
*U43
 70
     1
 10
0.0
 20
0.0
 30
0.0
  3
*U43
  1

  0
TEXT
  5
361ED
  8
0
 10
310.7680685277720158
 20
14.7565166925837392
 30
0.0000000000000003
 40
1.3777804051307569
  1
R
 41
0.8
  7
GREEKS
  0
ENDBLK
  5
361EF
  8
0
  0
BLOCK
  8
0
  2
*U44
 70
     1
 10
0.0
 20
0.0
 30
0.0
  3
*U44
  1

  0
TEXT
  5
3620E
  8
TEXT25
 10
316.8962579761525262
 20
25.242830856645039
 30
0.0000000000000006
 40
2.5
  1
EDV-Art.Nr.
 41
0.8
  7
GREEKS
  0
ENDBLK
  5
36210
  8
0
  0
BLOCK
  8
0
  2
*U45
 70
     1
 10
0.0
 20
0.0
 30
0.0
  3
*U45
  1

  0
TEXT
  5
36212
  8
HILF
 10
229.6147575355666959
 20
61.9931487154610679
 30
0.0000000000000561
 40
2.4603221520192098
  1
Prüfungsnummer:
 41
0.8
  7
GREEKS
  0
ENDBLK
  5
36214
  8
0
  0
BLOCK
  8
0
  2
*U46
 70
     1
 10
0.0
 20
0.0
 30
0.0
  3
*U46
  1

  0
TEXT
  5
36217
  8
TEXT25
 10
396.1944628571429803
 20
16.864734253872939
 30
0.0
 40
2.0
  1
Gewicht
 41
0.8
  7
MtXpl_simplex_shx
  0
TEXT
  5
36218
  8
TEXT25
 10
397.3373200000000907
 20
13.5314009205395998
 30
0.0
 40
2.0
  1
in kg:
 41
0.8
  7
MtXpl_simplex_shx
  0
ENDBLK
  5
3621A
  8
0
  0
BLOCK
  8
0
  2
*U47
 70
     1
 10
0.0
 20
0.0
 30
0.0
  3
*U47
  1

  0
TEXT
  5
3621E
  8
HILF
 10
70.1176236573707001
 20
61.9931487154610323
 30
0.0000000000000006
 40
2.4603221520192098
  1
Werkstoff:
 41
0.8
  7
GREEKS
  0
ENDBLK
  5
36220
  8
0
  0
BLOCK
  8
0
  2
*U48
 70
     1
 10
0.0
 20
0.0
 30
0.0
  3
*U48
  1

  0
TEXT
  5
36222
  8
0
 10
101.5655408182265944
 20
14.7565166925837197
 30
0.0000000000000003
 40
1.3777804051307569
  1
R
 41
0.8
  7
GREEKS
  0
ENDBLK
  5
36224
  8
0
  0
BLOCK
  8
0
  2
*U49
 70
     1
 10
0.0
 20
0.0
 30
0.0
  3
*U49
  1

  0
TEXT
  5
36243
  8
TEXT25
 10
107.6937302666070053
 20
25.2428308566450283
 30
0.0000000000000006
 40
2.5
  1
EDV-Art.Nr.
 41
0.8
  7
GREEKS
  0
ENDBLK
  5
36245
  8
0
  0
BLOCK
  8
0
  2
*U50
 70
     1
 10
0.0
 20
0.0
 30
0.0
  3
*U50
  1

  0
TEXT
  5
36247
  8
HILF
 10
20.4122298260212993
 20
61.9931487154610465
 30
0.0000000000000561
 40
2.4603221520192098
  1
Prüfungsnummer:
 41
0.8
  7
GREEKS
  0
ENDBLK
  5
36249
  8
0
  0
BLOCK
  8
0
  2
*U51
 70
     1
 10
0.0
 20
0.0
 30
0.0
  3
*U51
  1

  0
TEXT
  5
3624B
  8
TEXT25
 10
183.491935147597502
 20
16.8647342538729212
 30
0.0
 40
2.0
  1
Gewicht
 41
0.8
  7
MtXpl_simplex_shx
  0
TEXT
  5
3624C
  8
TEXT25
 10
184.6347922904546976
 20
13.5314009205395909
 30
0.0
 40
2.0
  1
in kg:
 41
0.8
  7
MtXpl_simplex_shx
  0
ENDBLK
  5
3624E
  8
0
  0
BLOCK
  8
0
  2
*U52
 70
     1
 10
0.0
 20
0.0
 30
0.0
  3
*U52
  1

  0
TEXT
  5
36250
  8
HILF
 10
282.4819556666319045
 20
66.2499999999999716
 30
0.0000000000000006
 40
2.399999999999999
  1
Werkstoff:
 41
0.8
  7
GREEKS
  0
ENDBLK
  5
36252
  8
0
  0
BLOCK
  8
0
  2
*U53
 70
     1
 10
0.0
 20
0.0
 30
0.0
  3
*U53
  1

  0
TEXT
  5
36254
  8
LOGO
 62
   150
 10
313.0893902683828856
 20
19.4759052432805504
 30
0.0000000000000003
 40
1.3777804051307569
  1
R
 41
0.8
  7
GREEKS
  0
ENDBLK
  5
36256
  8
0
  0
BLOCK
  8
0
  2
*U54
 70
     1
 10
0.0
 20
0.0
 30
0.0
  3
*U54
  1

  0
TEXT
  5
36275
  8
TEXT25
 10
319.75
 20
30.2500586922471086
 30
0.0
 40
2.5
  1
EDV-Art.Nr.
 41
0.8
  7
GREEKS
  0
ENDBLK
  5
36277
  8
0
  0
BLOCK
  8
0
  2
*U55
 70
     1
 10
0.0
 20
0.0
 30
0.0
  3
*U55
  1

  0
TEXT
  5
36279
  8
HILF
 10
231.249999999999801
 20
66.2499999999999716
 30
0.0000000000000006
 40
2.399999999999999
  1
Prüfungsnummer:
 41
0.8
  7
GREEKS
  0
ENDBLK
  5
3627B
  8
0
  0
BLOCK
  8
0
  2
*U56
 70
     1
 10
0.0
 20
0.0
 30
0.0
  3
*U56
  1

  0
TEXT
  5
3627D
  8
TEXT25
 10
399.4071449466077866
 20
21.2500070205918909
 30
0.0
 40
2.0
  1
Gewicht
 41
0.8
  7
MtXpl_simplex_shx
  0
TEXT
  5
3627E
  8
TEXT25
 10
402.6452401847030274
 20
17.9166736872585588
 30
0.0
 40
2.0
  1
kg
 41
0.8
  7
MtXpl_simplex_shx
  0
ENDBLK
  5
36280
  8
0
  0
BLOCK
  8
0
  2
*U57
 70
     1
 10
0.0
 20
0.0
 30
0.0
  3
*U57
  1

  0
TEXT
  5
36287
  8
DEFPOINTS
 62
     6
 10
198.0471428571428021
 20
292.9250000000000114
 30
0.0000000000000003
 40
2.399999999999999
  1
Druckbereich A3
 41
0.8
  7
GREEKS
  0
ENDBLK
  5
36289
  8
0
  0
BLOCK
  8
0
  2
*U58
 70
     1
 10
0.0
 20
0.0
 30
0.0
  3
*U58
  1

  0
TEXT
  5
3628B
  8
DEFPOINTS
 62
     6
 10
198.0471428571428874
 20
1.1749999999999989
 30
0.0000000000000003
 40
2.399999999999999
  1
Druckbereich A3
 41
0.8
  7
GREEKS
  0
ENDBLK
  5
3628D
  8
0
  0
BLOCK
  8
0
  2
*U59
 70
     1
 10
0.0
 20
0.0
 30
0.0
  3
*U59
  1

  0
TEXT
  5
36290
  8
HILF
 10
282.4819556666319045
 20
66.2499999999999716
 30
0.0000000000000006
 40
2.399999999999999
  1
Werkstoff:
 41
0.8
  7
GREEKS
  0
ENDBLK
  5
36292
  8
0
  0
BLOCK
  8
0
  2
*U60
 70
     1
 10
0.0
 20
0.0
 30
0.0
  3
*U60
  1

  0
TEXT
  5
36294
  8
LOGO
 62
   150
 10
313.0893902683828856
 20
19.4759052432805504
 30
0.0000000000000003
 40
1.3777804051307569
  1
R
 41
0.8
  7
GREEKS
  0
ENDBLK
  5
36296
  8
0
  0
BLOCK
  8
0
  2
*U61
 70
     1
 10
0.0
 20
0.0
 30
0.0
  3
*U61
  1

  0
TEXT
  5
362B5
  8
TEXT25
 10
319.75
 20
30.2500586922471086
 30
0.0
 40
2.5
  1
EDV-Art.Nr.
 41
0.8
  7
GREEKS
  0
ENDBLK
  5
362B7
  8
0
  0
BLOCK
  8
0
  2
*U62
 70
     1
 10
0.0
 20
0.0
 30
0.0
  3
*U62
  1

  0
TEXT
  5
362B9
  8
HILF
 10
231.249999999999801
 20
66.2499999999999716
 30
0.0000000000000006
 40
2.399999999999999
  1
Prüfungsnummer:
 41
0.8
  7
GREEKS
  0
ENDBLK
  5
362BB
  8
0
  0
BLOCK
  8
0
  2
*U63
 70
     1
 10
0.0
 20
0.0
 30
0.0
  3
*U63
  1

  0
TEXT
  5
362BD
  8
TEXT25
 10
399.4071449466077866
 20
21.2500070205918909
 30
0.0
 40
2.0
  1
Gewicht
 41
0.8
  7
MtXpl_simplex_shx
  0
TEXT
  5
362BE
  8
TEXT25
 10
402.6452401847030274
 20
17.9166736872585588
 30
0.0
 40
2.0
  1
kg
 41
0.8
  7
MtXpl_simplex_shx
  0
ENDBLK
  5
362C0
  8
0
  0
BLOCK
  8
0
  2
*U64
 70
     1
 10
0.0
 20
0.0
 30
0.0
  3
*U64
  1

  0
TEXT
  5
362C7
  8
DEFPOINTS
 62
     6
 10
198.0471428571428021
 20
292.9250000000000114
 30
0.0000000000000003
 40
2.399999999999999
  1
Druckbereich A3
 41
0.8
  7
GREEKS
  0
ENDBLK
  5
362C9
  8
0
  0
BLOCK
  8
0
  2
*U65
 70
     1
 10
0.0
 20
0.0
 30
0.0
  3
*U65
  1

  0
TEXT
  5
362CB
  8
DEFPOINTS
 62
     6
 10
198.0471428571428874
 20
1.1749999999999989
 30
0.0000000000000003
 40
2.399999999999999
  1
Druckbereich A3
 41
0.8
  7
GREEKS
  0
ENDBLK
  5
362CD
  8
0
  0
BLOCK
  8
0
  2
*U66
 70
     1
 10
0.0
 20
0.0
 30
0.0
  3
*U66
  1

  0
LINE
  5
362EB
  8
0
 10
2.0000000000000422
 20
0.0000000000000142
 30
-20.0000000000000107
 11
2.0000000000000351
 21
20.0000000000000107
 31
-20.0
210
-0.0000000000000001
220
0.0000000000000002
230
-1.0
  0
LINE
  5
362EC
  8
0
 10
0.0000000000000391
 20
0.0000000000000142
 30
-20.0000000000000107
 11
2.0000000000000422
 21
0.0000000000000142
 31
-20.0000000000000107
210
-0.0000000000000001
220
0.0000000000000002
230
-1.0
  0
LINE
  5
362ED
  8
0
 10
0.0000000000000355
 20
20.0000000000000107
 30
-20.0
 11
0.0000000000000391
 21
0.0000000000000142
 31
-20.0000000000000107
210
-0.0000000000000001
220
0.0000000000000002
230
-1.0
  0
LINE
  5
362EE
  8
0
 10
0.0000000000000355
 20
20.0000000000000107
 30
-20.0
 11
2.0000000000000351
 21
20.0000000000000107
 31
-20.0
210
-0.0000000000000001
220
0.0000000000000002
230
-1.0
  0
LINE
  5
362EF
  8
0
 10
2.0000000000000351
 20
20.0000000000000107
 30
-20.0
 11
2.0000000000000351
 21
20.0000000000000107
 31
-40.0
210
0.0000000000000003
220
-1.0
230
-0.0000000000000002
  0
LINE
  5
362F0
  8
0
 10
0.0000000000000355
 20
20.0000000000000107
 30
-20.0
 11
2.0000000000000351
 21
20.0000000000000107
 31
-20.0
210
0.0000000000000003
220
-1.0
230
-0.0000000000000002
  0
LINE
  5
362F1
  8
0
 10
0.0000000000000355
 20
20.0000000000000107
 30
-40.0
 11
0.0000000000000355
 21
20.0000000000000107
 31
-20.0
210
0.0000000000000003
220
-1.0
230
-0.0000000000000002
  0
LINE
  5
362F2
  8
0
 10
0.0000000000000355
 20
20.0000000000000107
 30
-40.0
 11
2.0000000000000351
 21
20.0000000000000107
 31
-40.0
210
0.0000000000000003
220
-1.0
230
-0.0000000000000002
  0
LINE
  5
362F3
  8
0
 10
2.0000000000000351
 20
20.0000000000000107
 30
-40.0
 11
2.0000000000000422
 21
0.0000000000000284
 31
-40.0000000000000071
  0
LINE
  5
362F4
  8
0
 10
0.0000000000000355
 20
20.0000000000000107
 30
-40.0
 11
2.0000000000000351
 21
20.0000000000000107
 31
-40.0
  0
LINE
  5
362F5
  8
0
 10
0.0000000000000391
 20
0.0000000000000284
 30
-40.0000000000000071
 11
0.0000000000000355
 21
20.0000000000000107
 31
-40.0
  0
LINE
  5
362F6
  8
0
 10
2.0000000000000422
 20
0.0000000000000284
 30
-40.0000000000000071
 11
0.0000000000000391
 21
0.0000000000000284
 31
-40.0000000000000071
  0
LINE
  5
362F7
  8
0
 10
0.0000000000000391
 20
0.0000000000000284
 30
-40.0000000000000071
 11
0.0000000000000355
 21
20.0000000000000107
 31
-40.0
210
-1.0
220
-0.0000000000000003
230
0.0
  0
LINE
  5
362F8
  8
0
 10
0.0000000000000355
 20
20.0000000000000107
 30
-40.0
 11
0.0000000000000355
 21
20.0000000000000107
 31
-20.0
210
-1.0
220
-0.0000000000000003
230
0.0
  0
LINE
  5
362F9
  8
0
 10
0.0000000000000355
 20
20.0000000000000107
 30
-20.0
 11
0.0000000000000391
 21
0.0000000000000142
 31
-20.0000000000000107
210
-1.0
220
-0.0000000000000003
230
0.0
  0
LINE
  5
362FA
  8
0
 10
0.0000000000000426
 20
0.0000000000000142
 30
-1.0
 11
0.0000000000000391
 21
0.0000000000000142
 31
-20.0000000000000107
210
-1.0
220
-0.0000000000000003
230
0.0
  0
LINE
  5
362FB
  8
0
 10
0.0000000000000426
 20
0.0000000000000142
 30
-1.0
 11
0.0000000000000071
 21
130.0
 31
-1.0
210
-1.0
220
-0.0000000000000003
230
0.0
  0
LINE
  5
362FC
  8
0
 10
0.0000000000000036
 20
130.0
 30
-60.0
 11
0.0000000000000071
 21
130.0
 31
-1.0
210
-1.0
220
-0.0000000000000003
230
0.0
  0
LINE
  5
362FD
  8
0
 10
0.0000000000000391
 20
0.0000000000000142
 30
-59.9999999999999574
 11
0.0000000000000036
 21
130.0
 31
-60.0
210
-1.0
220
-0.0000000000000003
230
0.0
  0
LINE
  5
362FE
  8
0
 10
0.0000000000000391
 20
0.0000000000000284
 30
-40.0000000000000071
 11
0.0000000000000391
 21
0.0000000000000142
 31
-59.9999999999999574
210
-1.0
220
-0.0000000000000003
230
0.0
  0
LINE
  5
362FF
  8
0
 10
0.0000000000000391
 20
0.0000000000000142
 30
-20.0000000000000107
 11
2.0000000000000422
 21
0.0000000000000142
 31
-20.0000000000000107
210
0.0000000000000003
220
-1.0
230
0.0
  0
LINE
  5
36300
  8
0
 10
2.0000000000000422
 20
0.0000000000000142
 30
-1.0
 11
2.0000000000000422
 21
0.0000000000000142
 31
-20.0000000000000107
210
0.0000000000000003
220
-1.0
230
0.0
  0
LINE
  5
36301
  8
0
 10
2.0000000000000422
 20
0.0000000000000142
 30
-1.0
 11
0.0000000000000426
 21
0.0000000000000142
 31
-1.0
210
0.0000000000000003
220
-1.0
230
0.0
  0
LINE
  5
36302
  8
0
 10
0.0000000000000426
 20
0.0000000000000142
 30
-1.0
 11
0.0000000000000391
 21
0.0000000000000142
 31
-20.0000000000000107
210
0.0000000000000003
220
-1.0
230
0.0
  0
LINE
  5
36303
  8
0
 10
22.0000000000000391
 20
20.0000000000000107
 30
0.0
 11
22.0000000000000497
 21
0.0000000000000142
 31
0.0
210
1.0
220
0.0000000000000001
230
0.0
  0
LINE
  5
36304
  8
0
 10
22.0000000000000391
 20
20.0000000000000107
 30
2.0
 11
22.0000000000000391
 21
20.0000000000000107
 31
0.0
210
1.0
220
0.0000000000000001
230
0.0
  0
LINE
  5
36305
  8
0
 10
22.0000000000000391
 20
0.0000000000000142
 30
2.0
 11
22.0000000000000391
 21
20.0000000000000107
 31
2.0
210
1.0
220
0.0000000000000001
230
0.0
  0
LINE
  5
36306
  8
0
 10
22.0000000000000497
 20
0.0000000000000142
 30
0.0
 11
22.0000000000000391
 21
0.0000000000000142
 31
2.0
210
1.0
220
0.0000000000000001
230
0.0
  0
LINE
  5
36307
  8
0
 10
42.0000000000000284
 20
0.0000000000000142
 30
0.0
 11
42.0000000000000426
 21
20.0000000000000107
 31
0.0
210
-1.0
220
0.0
230
0.0
  0
LINE
  5
36308
  8
0
 10
42.0000000000000426
 20
0.0000000000000142
 30
2.0
 11
42.0000000000000284
 21
0.0000000000000142
 31
0.0
210
-1.0
220
0.0
230
0.0
  0
LINE
  5
36309
  8
0
 10
42.0000000000000426
 20
20.0000000000000107
 30
2.0
 11
42.0000000000000426
 21
0.0000000000000142
 31
2.0
210
-1.0
220
0.0
230
0.0
  0
LINE
  5
3630A
  8
0
 10
42.0000000000000426
 20
20.0000000000000107
 30
2.0
 11
42.0000000000000426
 21
20.0000000000000107
 31
0.0
210
-1.0
220
0.0
230
0.0
  0
LINE
  5
3630B
  8
0
 10
42.0000000000000426
 20
20.0000000000000107
 30
0.0
 11
22.0000000000000391
 21
20.0000000000000107
 31
0.0
210
0.0
220
-1.0
230
0.0
  0
LINE
  5
3630C
  8
0
 10
42.0000000000000426
 20
20.0000000000000107
 30
2.0
 11
42.0000000000000426
 21
20.0000000000000107
 31
0.0
210
0.0
220
-1.0
230
0.0
  0
LINE
  5
3630D
  8
0
 10
22.0000000000000391
 20
20.0000000000000107
 30
2.0
 11
42.0000000000000426
 21
20.0000000000000107
 31
2.0
210
0.0
220
-1.0
230
0.0
  0
LINE
  5
3630E
  8
0
 10
22.0000000000000391
 20
20.0000000000000107
 30
2.0
 11
22.0000000000000391
 21
20.0000000000000107
 31
0.0
210
0.0
220
-1.0
230
0.0
  0
LINE
  5
3630F
  8
0
 10
42.0000000000000426
 20
0.0000000000000142
 30
2.0
 11
42.0000000000000284
 21
0.0000000000000142
 31
0.0
210
0.0
220
-1.0
230
0.0
  0
LINE
  5
36310
  8
0
 10
42.0000000000000284
 20
0.0000000000000142
 30
0.0
 11
62.0000000000000497
 21
0.0000000000000142
 31
0.0
210
0.0
220
-1.0
230
0.0
  0
LINE
  5
36311
  8
0
 10
62.0000000000000497
 20
0.0000000000000142
 30
0.0
 11
62.0000000000000497
 21
0.0000000000000142
 31
2.0
210
0.0
220
-1.0
230
0.0
  0
LINE
  5
36312
  8
0
 10
42.0000000000000426
 20
0.0000000000000142
 30
2.0
 11
62.0000000000000497
 21
0.0000000000000142
 31
2.0
210
0.0
220
-1.0
230
0.0
  0
LINE
  5
36313
  8
0
 10
22.0000000000000497
 20
0.0000000000000142
 30
0.0
 11
22.0000000000000391
 21
0.0000000000000142
 31
2.0
210
0.0
220
-1.0
230
0.0
  0
LINE
  5
36314
  8
0
 10
3.0000000000000631
 20
0.0000000000000142
 30
2.0
 11
22.0000000000000391
 21
0.0000000000000142
 31
2.0
210
0.0
220
-1.0
230
0.0
  0
LINE
  5
36315
  8
0
 10
3.0000000000000631
 20
0.0000000000000142
 30
2.0
 11
3.0000000000000631
 21
0.0000000000000142
 31
0.0
210
0.0
220
-1.0
230
0.0
  0
LINE
  5
36316
  8
0
 10
3.0000000000000631
 20
0.0000000000000142
 30
0.0
 11
22.0000000000000497
 21
0.0000000000000142
 31
0.0
210
0.0
220
-1.0
230
0.0
  0
LINE
  5
36317
  8
0
 10
22.0000000000000391
 20
0.0000000000000142
 30
2.0
 11
22.0000000000000391
 21
20.0000000000000107
 31
2.0
  0
LINE
  5
36318
  8
0
 10
22.0000000000000391
 20
20.0000000000000107
 30
2.0
 11
42.0000000000000426
 21
20.0000000000000107
 31
2.0
  0
LINE
  5
36319
  8
0
 10
42.0000000000000426
 20
20.0000000000000107
 30
2.0
 11
42.0000000000000426
 21
0.0000000000000142
 31
2.0
  0
LINE
  5
3631A
  8
0
 10
42.0000000000000426
 20
0.0000000000000142
 30
2.0
 11
62.0000000000000497
 21
0.0000000000000142
 31
2.0
  0
LINE
  5
3631B
  8
0
 10
62.0000000000000497
 20
0.0000000000000142
 30
2.0
 11
62.0000000000000213
 21
130.0
 31
2.0
  0
LINE
  5
3631C
  8
0
 10
62.0000000000000213
 20
130.0
 30
2.0
 11
3.000000000000028
 21
130.0
 31
2.0
  0
LINE
  5
3631D
  8
0
 10
3.000000000000028
 20
130.0
 30
2.0
 11
3.0000000000000631
 21
0.0000000000000142
 31
2.0
  0
LINE
  5
3631E
  8
0
 10
3.0000000000000631
 20
0.0000000000000142
 30
2.0
 11
22.0000000000000391
 21
0.0000000000000142
 31
2.0
  0
LINE
  5
3631F
  8
0
 10
0.0000000000000426
 20
0.0000000000000142
 30
-1.0
 11
0.0000000000000071
 21
130.0
 31
-1.0
  0
ARC
  5
36320
  8
0
 10
3.0000000000000462
 20
-1.0
 30
-0.0000000000000134
 40
3.0
210
0.0000000000000003
220
-1.0
230
0.0
 50
89.9999999999996732
 51
180.0
  0
LINE
  5
36321
  8
0
 10
3.000000000000028
 20
130.0
 30
2.0
 11
3.0000000000000631
 21
0.0000000000000142
 31
2.0
  0
ARC
  5
36322
  8
0
 10
-3.0000000000000462
 20
-1.0
 30
130.0
 40
3.0000000000000022
210
-0.0000000000000003
220
1.0
230
0.0
 50
0.0
 51
90.0000000000003126
  0
LINE
  5
36323
  8
0
 10
0.0000000000000071
 20
130.0
 30
-1.0
 11
2.0000000000000071
 21
130.0
 31
-1.0
210
-0.0000000000000003
220
1.0
230
-0.0000000000000027
  0
LINE
  5
36324
  8
0
 10
2.0000000000000071
 20
130.0
 30
-1.0
 11
2.0000000000000071
 21
130.0
 31
-60.0
210
-0.0000000000000003
220
1.0
230
-0.0000000000000027
  0
LINE
  5
36325
  8
0
 10
2.0000000000000071
 20
130.0
 30
-60.0
 11
0.0000000000000036
 21
130.0
 31
-60.0
210
-0.0000000000000003
220
1.0
230
-0.0000000000000027
  0
LINE
  5
36326
  8
0
 10
0.0000000000000036
 20
130.0
 30
-60.0
 11
0.0000000000000071
 21
130.0
 31
-1.0
210
-0.0000000000000003
220
1.0
230
-0.0000000000000027
  0
LINE
  5
36327
  8
0
 10
2.0000000000000351
 20
20.0000000000000107
 30
-40.0
 11
2.0000000000000422
 21
0.0000000000000284
 31
-40.0000000000000071
210
1.0
220
0.0000000000000003
230
0.0
  0
LINE
  5
36328
  8
0
 10
2.0000000000000422
 20
0.0000000000000284
 30
-40.0000000000000071
 11
2.0000000000000422
 21
0.0000000000000142
 31
-59.9999999999999574
210
1.0
220
0.0000000000000003
230
0.0
  0
LINE
  5
36329
  8
0
 10
2.0000000000000422
 20
0.0000000000000142
 30
-59.9999999999999574
 11
2.0000000000000071
 21
130.0
 31
-60.0
210
1.0
220
0.0000000000000003
230
0.0
  0
LINE
  5
3632A
  8
0
 10
2.0000000000000071
 20
130.0
 30
-1.0
 11
2.0000000000000071
 21
130.0
 31
-60.0
210
1.0
220
0.0000000000000003
230
0.0
  0
LINE
  5
3632B
  8
0
 10
2.0000000000000071
 20
130.0
 30
-1.0
 11
2.0000000000000422
 21
0.0000000000000142
 31
-1.0
210
1.0
220
0.0000000000000003
230
0.0
  0
LINE
  5
3632C
  8
0
 10
2.0000000000000422
 20
0.0000000000000142
 30
-1.0
 11
2.0000000000000422
 21
0.0000000000000142
 31
-20.0000000000000107
210
1.0
220
0.0000000000000003
230
0.0
  0
LINE
  5
3632D
  8
0
 10
2.0000000000000422
 20
0.0000000000000142
 30
-20.0000000000000107
 11
2.0000000000000351
 21
20.0000000000000107
 31
-20.0
210
1.0
220
0.0000000000000003
230
0.0
  0
LINE
  5
3632E
  8
0
 10
2.0000000000000351
 20
20.0000000000000107
 30
-20.0
 11
2.0000000000000351
 21
20.0000000000000107
 31
-40.0
210
1.0
220
0.0000000000000003
230
0.0
  0
LINE
  5
3632F
  8
0
 10
2.0000000000000422
 20
0.0000000000000142
 30
-1.0
 11
0.0000000000000426
 21
0.0000000000000142
 31
-1.0
210
0.0000000000000003
220
-1.0
230
0.0
  0
ARC
  5
36330
  8
0
 10
3.0000000000000462
 20
-1.0
 30
-0.0000000000000134
 40
1.0
210
0.0000000000000003
220
-1.0
230
0.0
 50
89.9999999999989768
 51
180.0
  0
LINE
  5
36331
  8
0
 10
3.0000000000000631
 20
0.0000000000000142
 30
2.0
 11
3.0000000000000631
 21
0.0000000000000142
 31
0.0
210
0.0000000000000003
220
-1.0
230
0.0
  0
ARC
  5
36332
  8
0
 10
3.0000000000000462
 20
-1.0
 30
-0.0000000000000134
 40
3.0
210
0.0000000000000003
220
-1.0
230
0.0
 50
89.9999999999996732
 51
180.0
  0
LINE
  5
36333
  8
0
 10
0.0000000000000071
 20
130.0
 30
-1.0
 11
2.0000000000000071
 21
130.0
 31
-1.0
210
-0.0000000000000003
220
1.0
230
0.0
  0
ARC
  5
36334
  8
0
 10
-3.0000000000000462
 20
-1.0
 30
130.0
 40
3.0000000000000022
210
-0.0000000000000003
220
1.0
230
0.0
 50
0.0
 51
90.0000000000003126
  0
LINE
  5
36335
  8
0
 10
3.000000000000028
 20
130.0
 30
0.0
 11
3.000000000000028
 21
130.0
 31
2.0
210
-0.0000000000000003
220
1.0
230
0.0
  0
ARC
  5
36336
  8
0
 10
-3.0000000000000462
 20
-1.0
 30
130.0
 40
1.0
210
-0.0000000000000003
220
1.0
230
0.0
 50
360.0
 51
90.0000000000010374
  0
LINE
  5
36337
  8
0
 10
2.0000000000000422
 20
0.0000000000000284
 30
-40.0000000000000071
 11
0.0000000000000391
 21
0.0000000000000284
 31
-40.0000000000000071
210
0.0000000000000003
220
-1.0
230
0.0
  0
LINE
  5
36338
  8
0
 10
0.0000000000000391
 20
0.0000000000000284
 30
-40.0000000000000071
 11
0.0000000000000391
 21
0.0000000000000142
 31
-59.9999999999999574
210
0.0000000000000003
220
-1.0
230
0.0
  0
LINE
  5
36339
  8
0
 10
2.0000000000000422
 20
0.0000000000000142
 30
-59.9999999999999574
 11
0.0000000000000391
 21
0.0000000000000142
 31
-59.9999999999999574
210
0.0000000000000003
220
-1.0
230
0.0
  0
LINE
  5
3633A
  8
0
 10
2.0000000000000422
 20
0.0000000000000284
 30
-40.0000000000000071
 11
2.0000000000000422
 21
0.0000000000000142
 31
-59.9999999999999574
210
0.0000000000000003
220
-1.0
230
0.0
  0
LINE
  5
3633B
  8
0
 10
0.0000000000000391
 20
0.0000000000000142
 30
-59.9999999999999574
 11
0.0000000000000036
 21
130.0
 31
-60.0
210
-0.0000000000000001
220
-0.0000000000000003
230
-1.0
  0
LINE
  5
3633C
  8
0
 10
2.0000000000000071
 20
130.0
 30
-60.0
 11
0.0000000000000036
 21
130.0
 31
-60.0
210
-0.0000000000000001
220
-0.0000000000000003
230
-1.0
  0
LINE
  5
3633D
  8
0
 10
2.0000000000000422
 20
0.0000000000000142
 30
-59.9999999999999574
 11
2.0000000000000071
 21
130.0
 31
-60.0
210
-0.0000000000000001
220
-0.0000000000000003
230
-1.0
  0
LINE
  5
3633E
  8
0
 10
2.0000000000000422
 20
0.0000000000000142
 30
-59.9999999999999574
 11
0.0000000000000391
 21
0.0000000000000142
 31
-59.9999999999999574
210
-0.0000000000000001
220
-0.0000000000000003
230
-1.0
  0
LINE
  5
3633F
  8
0
 10
2.0000000000000071
 20
130.0
 30
-1.0
 11
2.0000000000000422
 21
0.0000000000000142
 31
-1.0
  0
ARC
  5
36340
  8
0
 10
3.0000000000000462
 20
-1.0
 30
-130.0
 40
1.0
210
0.0000000000000003
220
-1.0
230
0.0
 50
89.9999999999989768
 51
180.0
  0
LINE
  5
36341
  8
0
 10
3.0000000000000631
 20
0.0000000000000142
 30
0.0
 11
3.000000000000028
 21
130.0
 31
0.0
  0
ARC
  5
36342
  8
0
 10
3.0000000000000462
 20
-1.0
 30
-0.0000000000000134
 40
1.0
210
0.0000000000000003
220
-1.0
230
0.0
 50
89.9999999999989768
 51
180.0
  0
LINE
  5
36343
  8
0
 10
3.000000000000028
 20
130.0
 30
0.0
 11
3.000000000000028
 21
130.0
 31
2.0
210
0.0000000000000001
220
1.0
230
0.0
  0
LINE
  5
36344
  8
0
 10
62.0000000000000213
 20
130.0
 30
2.0
 11
3.000000000000028
 21
130.0
 31
2.0
210
0.0000000000000001
220
1.0
230
0.0
  0
LINE
  5
36345
  8
0
 10
62.0000000000000213
 20
130.0
 30
0.0
 11
62.0000000000000213
 21
130.0
 31
2.0
210
0.0000000000000001
220
1.0
230
0.0
  0
LINE
  5
36346
  8
0
 10
62.0000000000000213
 20
130.0
 30
0.0
 11
3.000000000000028
 21
130.0
 31
0.0
210
0.0000000000000001
220
1.0
230
0.0
  0
LINE
  5
36347
  8
0
 10
62.0000000000000497
 20
0.0000000000000142
 30
0.0
 11
62.0000000000000213
 21
130.0
 31
0.0
210
1.0
220
0.0000000000000002
230
0.0
  0
LINE
  5
36348
  8
0
 10
62.0000000000000213
 20
130.0
 30
0.0
 11
62.0000000000000213
 21
130.0
 31
2.0
210
1.0
220
0.0000000000000002
230
0.0
  0
LINE
  5
36349
  8
0
 10
62.0000000000000497
 20
0.0000000000000142
 30
2.0
 11
62.0000000000000213
 21
130.0
 31
2.0
210
1.0
220
0.0000000000000002
230
0.0
  0
LINE
  5
3634A
  8
0
 10
62.0000000000000497
 20
0.0000000000000142
 30
0.0
 11
62.0000000000000497
 21
0.0000000000000142
 31
2.0
210
1.0
220
0.0000000000000002
230
0.0
  0
LINE
  5
3634B
  8
0
 10
22.0000000000000391
 20
20.0000000000000107
 30
0.0
 11
22.0000000000000497
 21
0.0000000000000142
 31
0.0
210
0.0
220
0.0
230
-1.0
  0
LINE
  5
3634C
  8
0
 10
3.0000000000000631
 20
0.0000000000000142
 30
0.0
 11
22.0000000000000497
 21
0.0000000000000142
 31
0.0
210
0.0
220
0.0
230
-1.0
  0
LINE
  5
3634D
  8
0
 10
3.0000000000000631
 20
0.0000000000000142
 30
0.0
 11
3.000000000000028
 21
130.0
 31
0.0
210
0.0
220
0.0
230
-1.0
  0
LINE
  5
3634E
  8
0
 10
62.0000000000000213
 20
130.0
 30
0.0
 11
3.000000000000028
 21
130.0
 31
0.0
210
0.0
220
0.0
230
-1.0
  0
LINE
  5
3634F
  8
0
 10
62.0000000000000497
 20
0.0000000000000142
 30
0.0
 11
62.0000000000000213
 21
130.0
 31
0.0
210
0.0
220
0.0
230
-1.0
  0
LINE
  5
36350
  8
0
 10
42.0000000000000284
 20
0.0000000000000142
 30
0.0
 11
62.0000000000000497
 21
0.0000000000000142
 31
0.0
210
0.0
220
0.0
230
-1.0
  0
LINE
  5
36351
  8
0
 10
42.0000000000000284
 20
0.0000000000000142
 30
0.0
 11
42.0000000000000426
 21
20.0000000000000107
 31
0.0
210
0.0
220
0.0
230
-1.0
  0
LINE
  5
36352
  8
0
 10
42.0000000000000426
 20
20.0000000000000107
 30
0.0
 11
22.0000000000000391
 21
20.0000000000000107
 31
0.0
210
0.0
220
0.0
230
-1.0
  0
ENDBLK
  5
36354
  8
0
  0
BLOCK
  8
0
  2
*U67
 70
     1
 10
0.0
 20
0.0
 30
0.0
  3
*U67
  1

  0
LINE
  5
3636C
  8
0
 10
2.0000000000000422
 20
0.0000000000000142
 30
-20.0000000000000107
 11
2.0000000000000351
 21
20.0000000000000107
 31
-20.0
210
-0.0000000000000001
220
0.0000000000000002
230
-1.0
  0
LINE
  5
3636D
  8
0
 10
0.0000000000000391
 20
0.0000000000000142
 30
-20.0000000000000107
 11
2.0000000000000422
 21
0.0000000000000142
 31
-20.0000000000000107
210
-0.0000000000000001
220
0.0000000000000002
230
-1.0
  0
LINE
  5
3636E
  8
0
 10
0.0000000000000355
 20
20.0000000000000107
 30
-20.0
 11
0.0000000000000391
 21
0.0000000000000142
 31
-20.0000000000000107
210
-0.0000000000000001
220
0.0000000000000002
230
-1.0
  0
LINE
  5
3636F
  8
0
 10
0.0000000000000355
 20
20.0000000000000107
 30
-20.0
 11
2.0000000000000351
 21
20.0000000000000107
 31
-20.0
210
-0.0000000000000001
220
0.0000000000000002
230
-1.0
  0
LINE
  5
36370
  8
0
 10
2.0000000000000351
 20
20.0000000000000107
 30
-20.0
 11
2.0000000000000351
 21
20.0000000000000107
 31
-40.0
210
0.0000000000000003
220
-1.0
230
-0.0000000000000002
  0
LINE
  5
36371
  8
0
 10
0.0000000000000355
 20
20.0000000000000107
 30
-20.0
 11
2.0000000000000351
 21
20.0000000000000107
 31
-20.0
210
0.0000000000000003
220
-1.0
230
-0.0000000000000002
  0
LINE
  5
36372
  8
0
 10
0.0000000000000355
 20
20.0000000000000107
 30
-40.0
 11
0.0000000000000355
 21
20.0000000000000107
 31
-20.0
210
0.0000000000000003
220
-1.0
230
-0.0000000000000002
  0
LINE
  5
36373
  8
0
 10
0.0000000000000355
 20
20.0000000000000107
 30
-40.0
 11
2.0000000000000351
 21
20.0000000000000107
 31
-40.0
210
0.0000000000000003
220
-1.0
230
-0.0000000000000002
  0
LINE
  5
36374
  8
0
 10
2.0000000000000351
 20
20.0000000000000107
 30
-40.0
 11
2.0000000000000422
 21
0.0000000000000284
 31
-40.0000000000000071
  0
LINE
  5
36375
  8
0
 10
0.0000000000000355
 20
20.0000000000000107
 30
-40.0
 11
2.0000000000000351
 21
20.0000000000000107
 31
-40.0
  0
LINE
  5
36376
  8
0
 10
0.0000000000000391
 20
0.0000000000000284
 30
-40.0000000000000071
 11
0.0000000000000355
 21
20.0000000000000107
 31
-40.0
  0
LINE
  5
36377
  8
0
 10
2.0000000000000422
 20
0.0000000000000284
 30
-40.0000000000000071
 11
0.0000000000000391
 21
0.0000000000000284
 31
-40.0000000000000071
  0
LINE
  5
36378
  8
0
 10
0.0000000000000391
 20
0.0000000000000284
 30
-40.0000000000000071
 11
0.0000000000000355
 21
20.0000000000000107
 31
-40.0
210
-1.0
220
-0.0000000000000003
230
0.0
  0
LINE
  5
36379
  8
0
 10
0.0000000000000355
 20
20.0000000000000107
 30
-40.0
 11
0.0000000000000355
 21
20.0000000000000107
 31
-20.0
210
-1.0
220
-0.0000000000000003
230
0.0
  0
LINE
  5
3637A
  8
0
 10
0.0000000000000355
 20
20.0000000000000107
 30
-20.0
 11
0.0000000000000391
 21
0.0000000000000142
 31
-20.0000000000000107
210
-1.0
220
-0.0000000000000003
230
0.0
  0
LINE
  5
3637B
  8
0
 10
0.0000000000000426
 20
0.0000000000000142
 30
-1.0
 11
0.0000000000000391
 21
0.0000000000000142
 31
-20.0000000000000107
210
-1.0
220
-0.0000000000000003
230
0.0
  0
LINE
  5
3637C
  8
0
 10
0.0000000000000426
 20
0.0000000000000142
 30
-1.0
 11
0.0000000000000071
 21
130.0
 31
-1.0
210
-1.0
220
-0.0000000000000003
230
0.0
  0
LINE
  5
3637D
  8
0
 10
0.0000000000000036
 20
130.0
 30
-60.0
 11
0.0000000000000071
 21
130.0
 31
-1.0
210
-1.0
220
-0.0000000000000003
230
0.0
  0
LINE
  5
3637E
  8
0
 10
0.0000000000000391
 20
0.0000000000000142
 30
-59.9999999999999574
 11
0.0000000000000036
 21
130.0
 31
-60.0
210
-1.0
220
-0.0000000000000003
230
0.0
  0
LINE
  5
3637F
  8
0
 10
0.0000000000000391
 20
0.0000000000000284
 30
-40.0000000000000071
 11
0.0000000000000391
 21
0.0000000000000142
 31
-59.9999999999999574
210
-1.0
220
-0.0000000000000003
230
0.0
  0
LINE
  5
36380
  8
0
 10
0.0000000000000391
 20
0.0000000000000142
 30
-20.0000000000000107
 11
2.0000000000000422
 21
0.0000000000000142
 31
-20.0000000000000107
210
0.0000000000000003
220
-1.0
230
0.0
  0
LINE
  5
36381
  8
0
 10
2.0000000000000422
 20
0.0000000000000142
 30
-1.0
 11
2.0000000000000422
 21
0.0000000000000142
 31
-20.0000000000000107
210
0.0000000000000003
220
-1.0
230
0.0
  0
LINE
  5
36382
  8
0
 10
2.0000000000000422
 20
0.0000000000000142
 30
-1.0
 11
0.0000000000000426
 21
0.0000000000000142
 31
-1.0
210
0.0000000000000003
220
-1.0
230
0.0
  0
LINE
  5
36383
  8
0
 10
0.0000000000000426
 20
0.0000000000000142
 30
-1.0
 11
0.0000000000000391
 21
0.0000000000000142
 31
-20.0000000000000107
210
0.0000000000000003
220
-1.0
230
0.0
  0
LINE
  5
36384
  8
0
 10
22.0000000000000391
 20
20.0000000000000107
 30
0.0
 11
22.0000000000000497
 21
0.0000000000000142
 31
0.0
210
1.0
220
0.0000000000000001
230
0.0
  0
LINE
  5
36385
  8
0
 10
22.0000000000000391
 20
20.0000000000000107
 30
2.0
 11
22.0000000000000391
 21
20.0000000000000107
 31
0.0
210
1.0
220
0.0000000000000001
230
0.0
  0
LINE
  5
36386
  8
0
 10
22.0000000000000391
 20
0.0000000000000142
 30
2.0
 11
22.0000000000000391
 21
20.0000000000000107
 31
2.0
210
1.0
220
0.0000000000000001
230
0.0
  0
LINE
  5
36387
  8
0
 10
22.0000000000000497
 20
0.0000000000000142
 30
0.0
 11
22.0000000000000391
 21
0.0000000000000142
 31
2.0
210
1.0
220
0.0000000000000001
230
0.0
  0
LINE
  5
36388
  8
0
 10
42.0000000000000284
 20
0.0000000000000142
 30
0.0
 11
42.0000000000000426
 21
20.0000000000000107
 31
0.0
210
-1.0
220
0.0
230
0.0
  0
LINE
  5
36389
  8
0
 10
42.0000000000000426
 20
0.0000000000000142
 30
2.0
 11
42.0000000000000284
 21
0.0000000000000142
 31
0.0
210
-1.0
220
0.0
230
0.0
  0
LINE
  5
3638A
  8
0
 10
42.0000000000000426
 20
20.0000000000000107
 30
2.0
 11
42.0000000000000426
 21
0.0000000000000142
 31
2.0
210
-1.0
220
0.0
230
0.0
  0
LINE
  5
3638B
  8
0
 10
42.0000000000000426
 20
20.0000000000000107
 30
2.0
 11
42.0000000000000426
 21
20.0000000000000107
 31
0.0
210
-1.0
220
0.0
230
0.0
  0
LINE
  5
3638C
  8
0
 10
42.0000000000000426
 20
20.0000000000000107
 30
0.0
 11
22.0000000000000391
 21
20.0000000000000107
 31
0.0
210
0.0
220
-1.0
230
0.0
  0
LINE
  5
3638D
  8
0
 10
42.0000000000000426
 20
20.0000000000000107
 30
2.0
 11
42.0000000000000426
 21
20.0000000000000107
 31
0.0
210
0.0
220
-1.0
230
0.0
  0
LINE
  5
3638E
  8
0
 10
22.0000000000000391
 20
20.0000000000000107
 30
2.0
 11
42.0000000000000426
 21
20.0000000000000107
 31
2.0
210
0.0
220
-1.0
230
0.0
  0
LINE
  5
3638F
  8
0
 10
22.0000000000000391
 20
20.0000000000000107
 30
2.0
 11
22.0000000000000391
 21
20.0000000000000107
 31
0.0
210
0.0
220
-1.0
230
0.0
  0
LINE
  5
36390
  8
0
 10
42.0000000000000426
 20
0.0000000000000142
 30
2.0
 11
42.0000000000000284
 21
0.0000000000000142
 31
0.0
210
0.0
220
-1.0
230
0.0
  0
LINE
  5
36391
  8
0
 10
42.0000000000000284
 20
0.0000000000000142
 30
0.0
 11
62.0000000000000497
 21
0.0000000000000142
 31
0.0
210
0.0
220
-1.0
230
0.0
  0
LINE
  5
36392
  8
0
 10
62.0000000000000497
 20
0.0000000000000142
 30
0.0
 11
62.0000000000000497
 21
0.0000000000000142
 31
2.0
210
0.0
220
-1.0
230
0.0
  0
LINE
  5
36393
  8
0
 10
42.0000000000000426
 20
0.0000000000000142
 30
2.0
 11
62.0000000000000497
 21
0.0000000000000142
 31
2.0
210
0.0
220
-1.0
230
0.0
  0
LINE
  5
36394
  8
0
 10
22.0000000000000497
 20
0.0000000000000142
 30
0.0
 11
22.0000000000000391
 21
0.0000000000000142
 31
2.0
210
0.0
220
-1.0
230
0.0
  0
LINE
  5
36395
  8
0
 10
3.0000000000000631
 20
0.0000000000000142
 30
2.0
 11
22.0000000000000391
 21
0.0000000000000142
 31
2.0
210
0.0
220
-1.0
230
0.0
  0
LINE
  5
36396
  8
0
 10
3.0000000000000631
 20
0.0000000000000142
 30
2.0
 11
3.0000000000000631
 21
0.0000000000000142
 31
0.0
210
0.0
220
-1.0
230
0.0
  0
LINE
  5
36397
  8
0
 10
3.0000000000000631
 20
0.0000000000000142
 30
0.0
 11
22.0000000000000497
 21
0.0000000000000142
 31
0.0
210
0.0
220
-1.0
230
0.0
  0
LINE
  5
36398
  8
0
 10
22.0000000000000391
 20
0.0000000000000142
 30
2.0
 11
22.0000000000000391
 21
20.0000000000000107
 31
2.0
  0
LINE
  5
36399
  8
0
 10
22.0000000000000391
 20
20.0000000000000107
 30
2.0
 11
42.0000000000000426
 21
20.0000000000000107
 31
2.0
  0
LINE
  5
3639A
  8
0
 10
42.0000000000000426
 20
20.0000000000000107
 30
2.0
 11
42.0000000000000426
 21
0.0000000000000142
 31
2.0
  0
LINE
  5
3639B
  8
0
 10
42.0000000000000426
 20
0.0000000000000142
 30
2.0
 11
62.0000000000000497
 21
0.0000000000000142
 31
2.0
  0
LINE
  5
3639C
  8
0
 10
62.0000000000000497
 20
0.0000000000000142
 30
2.0
 11
62.0000000000000213
 21
130.0
 31
2.0
  0
LINE
  5
3639D
  8
0
 10
62.0000000000000213
 20
130.0
 30
2.0
 11
3.000000000000028
 21
130.0
 31
2.0
  0
LINE
  5
3639E
  8
0
 10
3.000000000000028
 20
130.0
 30
2.0
 11
3.0000000000000631
 21
0.0000000000000142
 31
2.0
  0
LINE
  5
3639F
  8
0
 10
3.0000000000000631
 20
0.0000000000000142
 30
2.0
 11
22.0000000000000391
 21
0.0000000000000142
 31
2.0
  0
LINE
  5
363A0
  8
0
 10
0.0000000000000426
 20
0.0000000000000142
 30
-1.0
 11
0.0000000000000071
 21
130.0
 31
-1.0
  0
ARC
  5
363A1
  8
0
 10
3.0000000000000462
 20
-1.0
 30
-0.0000000000000134
 40
3.0
210
0.0000000000000003
220
-1.0
230
0.0
 50
89.9999999999996732
 51
180.0
  0
LINE
  5
363A2
  8
0
 10
3.000000000000028
 20
130.0
 30
2.0
 11
3.0000000000000631
 21
0.0000000000000142
 31
2.0
  0
ARC
  5
363A3
  8
0
 10
-3.0000000000000462
 20
-1.0
 30
130.0
 40
3.0000000000000022
210
-0.0000000000000003
220
1.0
230
0.0
 50
0.0
 51
90.0000000000003126
  0
LINE
  5
363A4
  8
0
 10
0.0000000000000071
 20
130.0
 30
-1.0
 11
2.0000000000000071
 21
130.0
 31
-1.0
210
-0.0000000000000003
220
1.0
230
-0.0000000000000027
  0
LINE
  5
363A5
  8
0
 10
2.0000000000000071
 20
130.0
 30
-1.0
 11
2.0000000000000071
 21
130.0
 31
-60.0
210
-0.0000000000000003
220
1.0
230
-0.0000000000000027
  0
LINE
  5
363A6
  8
0
 10
2.0000000000000071
 20
130.0
 30
-60.0
 11
0.0000000000000036
 21
130.0
 31
-60.0
210
-0.0000000000000003
220
1.0
230
-0.0000000000000027
  0
LINE
  5
363A7
  8
0
 10
0.0000000000000036
 20
130.0
 30
-60.0
 11
0.0000000000000071
 21
130.0
 31
-1.0
210
-0.0000000000000003
220
1.0
230
-0.0000000000000027
  0
LINE
  5
363A8
  8
0
 10
2.0000000000000351
 20
20.0000000000000107
 30
-40.0
 11
2.0000000000000422
 21
0.0000000000000284
 31
-40.0000000000000071
210
1.0
220
0.0000000000000003
230
0.0
  0
LINE
  5
363A9
  8
0
 10
2.0000000000000422
 20
0.0000000000000284
 30
-40.0000000000000071
 11
2.0000000000000422
 21
0.0000000000000142
 31
-59.9999999999999574
210
1.0
220
0.0000000000000003
230
0.0
  0
LINE
  5
363AA
  8
0
 10
2.0000000000000422
 20
0.0000000000000142
 30
-59.9999999999999574
 11
2.0000000000000071
 21
130.0
 31
-60.0
210
1.0
220
0.0000000000000003
230
0.0
  0
LINE
  5
363AB
  8
0
 10
2.0000000000000071
 20
130.0
 30
-1.0
 11
2.0000000000000071
 21
130.0
 31
-60.0
210
1.0
220
0.0000000000000003
230
0.0
  0
LINE
  5
363AC
  8
0
 10
2.0000000000000071
 20
130.0
 30
-1.0
 11
2.0000000000000422
 21
0.0000000000000142
 31
-1.0
210
1.0
220
0.0000000000000003
230
0.0
  0
LINE
  5
363AD
  8
0
 10
2.0000000000000422
 20
0.0000000000000142
 30
-1.0
 11
2.0000000000000422
 21
0.0000000000000142
 31
-20.0000000000000107
210
1.0
220
0.0000000000000003
230
0.0
  0
LINE
  5
363AE
  8
0
 10
2.0000000000000422
 20
0.0000000000000142
 30
-20.0000000000000107
 11
2.0000000000000351
 21
20.0000000000000107
 31
-20.0
210
1.0
220
0.0000000000000003
230
0.0
  0
LINE
  5
363AF
  8
0
 10
2.0000000000000351
 20
20.0000000000000107
 30
-20.0
 11
2.0000000000000351
 21
20.0000000000000107
 31
-40.0
210
1.0
220
0.0000000000000003
230
0.0
  0
LINE
  5
363B0
  8
0
 10
2.0000000000000422
 20
0.0000000000000142
 30
-1.0
 11
0.0000000000000426
 21
0.0000000000000142
 31
-1.0
210
0.0000000000000003
220
-1.0
230
0.0
  0
ARC
  5
363B1
  8
0
 10
3.0000000000000462
 20
-1.0
 30
-0.0000000000000134
 40
1.0
210
0.0000000000000003
220
-1.0
230
0.0
 50
89.9999999999989768
 51
180.0
  0
LINE
  5
363B2
  8
0
 10
3.0000000000000631
 20
0.0000000000000142
 30
2.0
 11
3.0000000000000631
 21
0.0000000000000142
 31
0.0
210
0.0000000000000003
220
-1.0
230
0.0
  0
ARC
  5
363B3
  8
0
 10
3.0000000000000462
 20
-1.0
 30
-0.0000000000000134
 40
3.0
210
0.0000000000000003
220
-1.0
230
0.0
 50
89.9999999999996732
 51
180.0
  0
LINE
  5
363B4
  8
0
 10
0.0000000000000071
 20
130.0
 30
-1.0
 11
2.0000000000000071
 21
130.0
 31
-1.0
210
-0.0000000000000003
220
1.0
230
0.0
  0
ARC
  5
363B5
  8
0
 10
-3.0000000000000462
 20
-1.0
 30
130.0
 40
3.0000000000000022
210
-0.0000000000000003
220
1.0
230
0.0
 50
0.0
 51
90.0000000000003126
  0
LINE
  5
363B6
  8
0
 10
3.000000000000028
 20
130.0
 30
0.0
 11
3.000000000000028
 21
130.0
 31
2.0
210
-0.0000000000000003
220
1.0
230
0.0
  0
ARC
  5
363B7
  8
0
 10
-3.0000000000000462
 20
-1.0
 30
130.0
 40
1.0
210
-0.0000000000000003
220
1.0
230
0.0
 50
360.0
 51
90.0000000000010374
  0
LINE
  5
363B8
  8
0
 10
2.0000000000000422
 20
0.0000000000000284
 30
-40.0000000000000071
 11
0.0000000000000391
 21
0.0000000000000284
 31
-40.0000000000000071
210
0.0000000000000003
220
-1.0
230
0.0
  0
LINE
  5
363B9
  8
0
 10
0.0000000000000391
 20
0.0000000000000284
 30
-40.0000000000000071
 11
0.0000000000000391
 21
0.0000000000000142
 31
-59.9999999999999574
210
0.0000000000000003
220
-1.0
230
0.0
  0
LINE
  5
363BA
  8
0
 10
2.0000000000000422
 20
0.0000000000000142
 30
-59.9999999999999574
 11
0.0000000000000391
 21
0.0000000000000142
 31
-59.9999999999999574
210
0.0000000000000003
220
-1.0
230
0.0
  0
LINE
  5
363BB
  8
0
 10
2.0000000000000422
 20
0.0000000000000284
 30
-40.0000000000000071
 11
2.0000000000000422
 21
0.0000000000000142
 31
-59.9999999999999574
210
0.0000000000000003
220
-1.0
230
0.0
  0
LINE
  5
363BC
  8
0
 10
0.0000000000000391
 20
0.0000000000000142
 30
-59.9999999999999574
 11
0.0000000000000036
 21
130.0
 31
-60.0
210
-0.0000000000000001
220
-0.0000000000000003
230
-1.0
  0
LINE
  5
363BD
  8
0
 10
2.0000000000000071
 20
130.0
 30
-60.0
 11
0.0000000000000036
 21
130.0
 31
-60.0
210
-0.0000000000000001
220
-0.0000000000000003
230
-1.0
  0
LINE
  5
363BE
  8
0
 10
2.0000000000000422
 20
0.0000000000000142
 30
-59.9999999999999574
 11
2.0000000000000071
 21
130.0
 31
-60.0
210
-0.0000000000000001
220
-0.0000000000000003
230
-1.0
  0
LINE
  5
363BF
  8
0
 10
2.0000000000000422
 20
0.0000000000000142
 30
-59.9999999999999574
 11
0.0000000000000391
 21
0.0000000000000142
 31
-59.9999999999999574
210
-0.0000000000000001
220
-0.0000000000000003
230
-1.0
  0
LINE
  5
363C0
  8
0
 10
2.0000000000000071
 20
130.0
 30
-1.0
 11
2.0000000000000422
 21
0.0000000000000142
 31
-1.0
  0
ARC
  5
363C1
  8
0
 10
3.0000000000000462
 20
-1.0
 30
-130.0
 40
1.0
210
0.0000000000000003
220
-1.0
230
0.0
 50
89.9999999999989768
 51
180.0
  0
LINE
  5
363C2
  8
0
 10
3.0000000000000631
 20
0.0000000000000142
 30
0.0
 11
3.000000000000028
 21
130.0
 31
0.0
  0
ARC
  5
363C3
  8
0
 10
3.0000000000000462
 20
-1.0
 30
-0.0000000000000134
 40
1.0
210
0.0000000000000003
220
-1.0
230
0.0
 50
89.9999999999989768
 51
180.0
  0
LINE
  5
363C4
  8
0
 10
3.000000000000028
 20
130.0
 30
0.0
 11
3.000000000000028
 21
130.0
 31
2.0
210
0.0000000000000001
220
1.0
230
0.0
  0
LINE
  5
363C5
  8
0
 10
62.0000000000000213
 20
130.0
 30
2.0
 11
3.000000000000028
 21
130.0
 31
2.0
210
0.0000000000000001
220
1.0
230
0.0
  0
LINE
  5
363C6
  8
0
 10
62.0000000000000213
 20
130.0
 30
0.0
 11
62.0000000000000213
 21
130.0
 31
2.0
210
0.0000000000000001
220
1.0
230
0.0
  0
LINE
  5
363C7
  8
0
 10
62.0000000000000213
 20
130.0
 30
0.0
 11
3.000000000000028
 21
130.0
 31
0.0
210
0.0000000000000001
220
1.0
230
0.0
  0
LINE
  5
363C8
  8
0
 10
62.0000000000000497
 20
0.0000000000000142
 30
0.0
 11
62.0000000000000213
 21
130.0
 31
0.0
210
1.0
220
0.0000000000000002
230
0.0
  0
LINE
  5
363C9
  8
0
 10
62.0000000000000213
 20
130.0
 30
0.0
 11
62.0000000000000213
 21
130.0
 31
2.0
210
1.0
220
0.0000000000000002
230
0.0
  0
LINE
  5
363CA
  8
0
 10
62.0000000000000497
 20
0.0000000000000142
 30
2.0
 11
62.0000000000000213
 21
130.0
 31
2.0
210
1.0
220
0.0000000000000002
230
0.0
  0
LINE
  5
363CB
  8
0
 10
62.0000000000000497
 20
0.0000000000000142
 30
0.0
 11
62.0000000000000497
 21
0.0000000000000142
 31
2.0
210
1.0
220
0.0000000000000002
230
0.0
  0
LINE
  5
363CC
  8
0
 10
22.0000000000000391
 20
20.0000000000000107
 30
0.0
 11
22.0000000000000497
 21
0.0000000000000142
 31
0.0
210
0.0
220
0.0
230
-1.0
  0
LINE
  5
363CD
  8
0
 10
3.0000000000000631
 20
0.0000000000000142
 30
0.0
 11
22.0000000000000497
 21
0.0000000000000142
 31
0.0
210
0.0
220
0.0
230
-1.0
  0
LINE
  5
363CE
  8
0
 10
3.0000000000000631
 20
0.0000000000000142
 30
0.0
 11
3.000000000000028
 21
130.0
 31
0.0
210
0.0
220
0.0
230
-1.0
  0
LINE
  5
363CF
  8
0
 10
62.0000000000000213
 20
130.0
 30
0.0
 11
3.000000000000028
 21
130.0
 31
0.0
210
0.0
220
0.0
230
-1.0
  0
LINE
  5
363D0
  8
0
 10
62.0000000000000497
 20
0.0000000000000142
 30
0.0
 11
62.0000000000000213
 21
130.0
 31
0.0
210
0.0
220
0.0
230
-1.0
  0
LINE
  5
363D1
  8
0
 10
42.0000000000000284
 20
0.0000000000000142
 30
0.0
 11
62.0000000000000497
 21
0.0000000000000142
 31
0.0
210
0.0
220
0.0
230
-1.0
  0
LINE
  5
363D2
  8
0
 10
42.0000000000000284
 20
0.0000000000000142
 30
0.0
 11
42.0000000000000426
 21
20.0000000000000107
 31
0.0
210
0.0
220
0.0
230
-1.0
  0
LINE
  5
363D3
  8
0
 10
42.0000000000000426
 20
20.0000000000000107
 30
0.0
 11
22.0000000000000391
 21
20.0000000000000107
 31
0.0
210
0.0
220
0.0
230
-1.0
  0
ENDBLK
  5
363D5
  8
0
  0
BLOCK
  8
0
  2
*U68
 70
     1
 10
0.0
 20
0.0
 30
0.0
  3
*U68
  1

  0
LINE
  5
363ED
  8
0
 10
62.0000000000000284
 20
0.0000000000000853
 30
-39.9999999999998295
 11
62.0000000000000426
 21
20.0000000000000817
 31
-39.9999999999998934
  0
LINE
  5
363EE
  8
0
 10
64.0000000000000284
 20
0.0000000000000853
 30
-39.9999999999998295
 11
62.0000000000000284
 21
0.0000000000000853
 31
-39.9999999999998295
  0
LINE
  5
363EF
  8
0
 10
64.0000000000000284
 20
20.0000000000000817
 30
-39.9999999999998934
 11
64.0000000000000284
 21
0.0000000000000853
 31
-39.9999999999998295
  0
LINE
  5
363F0
  8
0
 10
64.0000000000000284
 20
20.0000000000000817
 30
-39.9999999999998934
 11
62.0000000000000426
 21
20.0000000000000817
 31
-39.9999999999998934
  0
LINE
  5
363F1
  8
0
 10
62.0000000000000426
 20
20.0000000000000817
 30
-39.9999999999998934
 11
62.0000000000000284
 21
20.0000000000001386
 31
-19.9999999999998792
210
-0.0000000000000003
220
-1.0
230
0.0000000000000031
  0
LINE
  5
363F2
  8
0
 10
64.0000000000000284
 20
20.0000000000000817
 30
-39.9999999999998934
 11
62.0000000000000426
 21
20.0000000000000817
 31
-39.9999999999998934
210
-0.0000000000000003
220
-1.0
230
0.0000000000000031
  0
LINE
  5
363F3
  8
0
 10
64.0000000000000284
 20
20.0000000000001386
 30
-19.9999999999998792
 11
64.0000000000000284
 21
20.0000000000000817
 31
-39.9999999999998934
210
-0.0000000000000003
220
-1.0
230
0.0000000000000031
  0
LINE
  5
363F4
  8
0
 10
64.0000000000000284
 20
20.0000000000001386
 30
-19.9999999999998792
 11
62.0000000000000284
 21
20.0000000000001386
 31
-19.9999999999998792
210
-0.0000000000000003
220
-1.0
230
0.0000000000000031
  0
LINE
  5
363F5
  8
0
 10
62.0000000000000284
 20
20.0000000000001386
 30
-19.9999999999998792
 11
62.0000000000000213
 21
0.0000000000001421
 31
-19.9999999999998295
210
0.0
220
-0.0000000000000031
230
-1.0
  0
LINE
  5
363F6
  8
0
 10
64.0000000000000284
 20
20.0000000000001386
 30
-19.9999999999998792
 11
62.0000000000000284
 21
20.0000000000001386
 31
-19.9999999999998792
210
0.0
220
-0.0000000000000031
230
-1.0
  0
LINE
  5
363F7
  8
0
 10
64.0000000000000284
 20
0.0000000000001421
 30
-19.9999999999998295
 11
64.0000000000000284
 21
20.0000000000001386
 31
-19.9999999999998792
210
0.0
220
-0.0000000000000031
230
-1.0
  0
LINE
  5
363F8
  8
0
 10
62.0000000000000213
 20
0.0000000000001421
 30
-19.9999999999998295
 11
64.0000000000000284
 21
0.0000000000001421
 31
-19.9999999999998295
210
0.0
220
-0.0000000000000031
230
-1.0
  0
LINE
  5
363F9
  8
0
 10
64.0000000000000284
 20
0.0000000000001421
 30
-19.9999999999998295
 11
64.0000000000000284
 21
20.0000000000001386
 31
-19.9999999999998792
210
1.0
220
-0.0000000000000003
230
0.0
  0
LINE
  5
363FA
  8
0
 10
64.0000000000000284
 20
20.0000000000001386
 30
-19.9999999999998792
 11
64.0000000000000284
 21
20.0000000000000817
 31
-39.9999999999998934
210
1.0
220
-0.0000000000000003
230
0.0
  0
LINE
  5
363FB
  8
0
 10
64.0000000000000284
 20
20.0000000000000817
 30
-39.9999999999998934
 11
64.0000000000000284
 21
0.0000000000000853
 31
-39.9999999999998295
210
1.0
220
-0.0000000000000003
230
0.0
  0
LINE
  5
363FC
  8
0
 10
64.0000000000000284
 20
0.0000000000000284
 30
-58.9999999999998366
 11
64.0000000000000284
 21
0.0000000000000853
 31
-39.9999999999998295
210
1.0
220
-0.0000000000000003
230
0.0
  0
LINE
  5
363FD
  8
0
 10
64.0000000000000284
 20
0.0000000000000284
 30
-58.9999999999998366
 11
64.0000000000000568
 21
130.0
 31
-59.0000000000001918
210
1.0
220
-0.0000000000000003
230
0.0
  0
LINE
  5
363FE
  8
0
 10
64.0000000000000568
 20
130.000000000000199
 30
0.9999999999998151
 11
64.0000000000000568
 21
130.0
 31
-59.0000000000001918
210
1.0
220
-0.0000000000000003
230
0.0
  0
LINE
  5
363FF
  8
0
 10
64.0000000000000284
 20
0.000000000000199
 30
1.000000000000127
 11
64.0000000000000568
 21
130.000000000000199
 31
0.9999999999998151
210
1.0
220
-0.0000000000000003
230
0.0
  0
LINE
  5
36400
  8
0
 10
64.0000000000000284
 20
0.0000000000001421
 30
-19.9999999999998295
 11
64.0000000000000284
 21
0.000000000000199
 31
1.000000000000127
210
1.0
220
-0.0000000000000003
230
0.0
  0
LINE
  5
36401
  8
0
 10
64.0000000000000284
 20
0.0000000000000853
 30
-39.9999999999998295
 11
62.0000000000000284
 21
0.0000000000000853
 31
-39.9999999999998295
210
-0.0000000000000003
220
-1.0
230
0.0000000000000027
  0
LINE
  5
36402
  8
0
 10
62.0000000000000213
 20
0.0000000000000284
 30
-58.9999999999998366
 11
62.0000000000000284
 21
0.0000000000000853
 31
-39.9999999999998295
210
-0.0000000000000003
220
-1.0
230
0.0000000000000027
  0
LINE
  5
36403
  8
0
 10
62.0000000000000213
 20
0.0000000000000284
 30
-58.9999999999998366
 11
64.0000000000000284
 21
0.0000000000000284
 31
-58.9999999999998366
210
-0.0000000000000003
220
-1.0
230
0.0000000000000027
  0
LINE
  5
36404
  8
0
 10
64.0000000000000284
 20
0.0000000000000284
 30
-58.9999999999998366
 11
64.0000000000000284
 21
0.0000000000000853
 31
-39.9999999999998295
210
-0.0000000000000003
220
-1.0
230
0.0000000000000027
  0
LINE
  5
36405
  8
0
 10
42.0000000000000284
 20
20.0000000000000284
 30
-59.9999999999998579
 11
42.0000000000000213
 21
0.0000000000000284
 31
-59.9999999999998082
210
-1.0
220
0.0000000000000001
230
0.0000000000000017
  0
LINE
  5
36406
  8
0
 10
42.0000000000000284
 20
20.0000000000000213
 30
-61.9999999999998579
 11
42.0000000000000284
 21
20.0000000000000284
 31
-59.9999999999998579
210
-1.0
220
0.0000000000000001
230
0.0000000000000017
  0
LINE
  5
36407
  8
0
 10
42.0000000000000213
 20
0.0000000000000142
 30
-61.9999999999998082
 11
42.0000000000000284
 21
20.0000000000000213
 31
-61.9999999999998579
210
-1.0
220
0.0000000000000001
230
0.0000000000000017
  0
LINE
  5
36408
  8
0
 10
42.0000000000000213
 20
0.0000000000000284
 30
-59.9999999999998082
 11
42.0000000000000213
 21
0.0000000000000142
 31
-61.9999999999998082
210
-1.0
220
0.0000000000000001
230
0.0000000000000017
  0
LINE
  5
36409
  8
0
 10
22.0000000000000391
 20
0.0000000000000284
 30
-59.9999999999997726
 11
22.0000000000000391
 21
20.0000000000000284
 31
-59.9999999999998295
210
1.0
220
0.0
230
-0.0000000000000017
  0
LINE
  5
3640A
  8
0
 10
22.0000000000000284
 20
0.0000000000000142
 30
-61.9999999999997726
 11
22.0000000000000391
 21
0.0000000000000284
 31
-59.9999999999997726
210
1.0
220
0.0
230
-0.0000000000000017
  0
LINE
  5
3640B
  8
0
 10
22.0000000000000284
 20
20.0000000000000213
 30
-61.9999999999998295
 11
22.0000000000000284
 21
0.0000000000000142
 31
-61.9999999999997726
210
1.0
220
0.0
230
-0.0000000000000017
  0
LINE
  5
3640C
  8
0
 10
22.0000000000000284
 20
20.0000000000000213
 30
-61.9999999999998295
 11
22.0000000000000391
 21
20.0000000000000284
 31
-59.9999999999998295
210
1.0
220
0.0
230
-0.0000000000000017
  0
LINE
  5
3640D
  8
0
 10
22.0000000000000391
 20
20.0000000000000284
 30
-59.9999999999998295
 11
42.0000000000000284
 21
20.0000000000000284
 31
-59.9999999999998579
210
0.0
220
-1.0
230
0.0000000000000027
  0
LINE
  5
3640E
  8
0
 10
22.0000000000000284
 20
20.0000000000000213
 30
-61.9999999999998295
 11
22.0000000000000391
 21
20.0000000000000284
 31
-59.9999999999998295
210
0.0
220
-1.0
230
0.0000000000000027
  0
LINE
  5
3640F
  8
0
 10
42.0000000000000284
 20
20.0000000000000213
 30
-61.9999999999998579
 11
22.0000000000000284
 21
20.0000000000000213
 31
-61.9999999999998295
210
0.0
220
-1.0
230
0.0000000000000027
  0
LINE
  5
36410
  8
0
 10
42.0000000000000284
 20
20.0000000000000213
 30
-61.9999999999998579
 11
42.0000000000000284
 21
20.0000000000000284
 31
-59.9999999999998579
210
0.0
220
-1.0
230
0.0000000000000027
  0
LINE
  5
36411
  8
0
 10
22.0000000000000284
 20
0.0000000000000142
 30
-61.9999999999997726
 11
22.0000000000000391
 21
0.0000000000000284
 31
-59.9999999999997726
210
0.0
220
-1.0
230
0.0000000000000027
  0
LINE
  5
36412
  8
0
 10
22.0000000000000391
 20
0.0000000000000284
 30
-59.9999999999997726
 11
1.0000000000000211
 21
0.0000000000000284
 31
-59.9999999999997371
210
0.0
220
-1.0
230
0.0000000000000027
  0
LINE
  5
36413
  8
0
 10
1.0000000000000211
 20
0.0000000000000284
 30
-59.9999999999997371
 11
1.0000000000000171
 21
0.0000000000000142
 31
-61.9999999999997371
210
0.0
220
-1.0
230
0.0000000000000027
  0
LINE
  5
36414
  8
0
 10
22.0000000000000284
 20
0.0000000000000142
 30
-61.9999999999997726
 11
1.0000000000000171
 21
0.0000000000000142
 31
-61.9999999999997371
210
0.0
220
-1.0
230
0.0000000000000027
  0
LINE
  5
36415
  8
0
 10
42.0000000000000213
 20
0.0000000000000284
 30
-59.9999999999998082
 11
42.0000000000000213
 21
0.0000000000000142
 31
-61.9999999999998082
210
0.0
220
-1.0
230
0.0000000000000027
  0
LINE
  5
36416
  8
0
 10
61.0000000000000071
 20
0.0000000000000142
 30
-61.9999999999998508
 11
42.0000000000000213
 21
0.0000000000000142
 31
-61.9999999999998082
210
0.0
220
-1.0
230
0.0000000000000027
  0
LINE
  5
36417
  8
0
 10
61.0000000000000071
 20
0.0000000000000142
 30
-61.9999999999998508
 11
61.0000000000000071
 21
0.0000000000000284
 31
-59.9999999999998366
210
0.0
220
-1.0
230
0.0000000000000027
  0
LINE
  5
36418
  8
0
 10
61.0000000000000071
 20
0.0000000000000284
 30
-59.9999999999998366
 11
42.0000000000000213
 21
0.0000000000000284
 31
-59.9999999999998082
210
0.0
220
-1.0
230
0.0000000000000027
  0
LINE
  5
36419
  8
0
 10
42.0000000000000213
 20
0.0000000000000142
 30
-61.9999999999998082
 11
42.0000000000000284
 21
20.0000000000000213
 31
-61.9999999999998579
210
-0.0000000000000017
220
-0.0000000000000027
230
-1.0
  0
LINE
  5
3641A
  8
0
 10
42.0000000000000284
 20
20.0000000000000213
 30
-61.9999999999998579
 11
22.0000000000000284
 21
20.0000000000000213
 31
-61.9999999999998295
210
-0.0000000000000017
220
-0.0000000000000027
230
-1.0
  0
LINE
  5
3641B
  8
0
 10
22.0000000000000284
 20
20.0000000000000213
 30
-61.9999999999998295
 11
22.0000000000000284
 21
0.0000000000000142
 31
-61.9999999999997726
210
-0.0000000000000017
220
-0.0000000000000027
230
-1.0
  0
LINE
  5
3641C
  8
0
 10
22.0000000000000284
 20
0.0000000000000142
 30
-61.9999999999997726
 11
1.0000000000000171
 21
0.0000000000000142
 31
-61.9999999999997371
210
-0.0000000000000017
220
-0.0000000000000027
230
-1.0
  0
LINE
  5
3641D
  8
0
 10
1.0000000000000171
 20
0.0000000000000142
 30
-61.9999999999997371
 11
1.0000000000000391
 21
130.0
 31
-62.0000000000000924
210
-0.0000000000000017
220
-0.0000000000000027
230
-1.0
  0
LINE
  5
3641E
  8
0
 10
1.0000000000000391
 20
130.0
 30
-62.0000000000000924
 11
61.0000000000000426
 21
130.0
 31
-62.000000000000199
210
-0.0000000000000017
220
-0.0000000000000027
230
-1.0
  0
LINE
  5
3641F
  8
0
 10
61.0000000000000426
 20
130.0
 30
-62.000000000000199
 11
61.0000000000000071
 21
0.0000000000000142
 31
-61.9999999999998508
210
-0.0000000000000017
220
-0.0000000000000027
230
-1.0
  0
LINE
  5
36420
  8
0
 10
61.0000000000000071
 20
0.0000000000000142
 30
-61.9999999999998508
 11
42.0000000000000213
 21
0.0000000000000142
 31
-61.9999999999998082
210
-0.0000000000000017
220
-0.0000000000000027
230
-1.0
  0
LINE
  5
36421
  8
0
 10
64.0000000000000284
 20
0.0000000000000284
 30
-58.9999999999998366
 11
64.0000000000000568
 21
130.0
 31
-59.0000000000001918
  0
ARC
  5
36422
  8
0
 10
61.0000000000000284
 20
-58.9999999999998366
 30
-0.0000000000002064
 40
3.0
210
-0.0000000000000003
220
-1.0
230
0.0000000000000027
 50
269.9999999999994884
 51
0.0000000000000799
  0
LINE
  5
36423
  8
0
 10
61.0000000000000426
 20
130.0
 30
-62.000000000000199
 11
61.0000000000000071
 21
0.0000000000000142
 31
-61.9999999999998508
  0
ARC
  5
36424
  8
0
 10
-61.0000000000000426
 20
-58.9999999999998366
 30
130.000000000000199
 40
3.0000000000000022
210
0.0000000000000003
220
1.0
230
-0.0000000000000027
 50
179.9999999999996874
 51
270.0000000000002274
  0
LINE
  5
36425
  8
0
 10
64.0000000000000568
 20
130.0
 30
-59.0000000000001918
 11
62.0000000000000711
 21
130.0
 31
-59.0000000000001918
210
0.0000000000000003
220
1.0
230
0.0
  0
LINE
  5
36426
  8
0
 10
62.0000000000000711
 20
130.0
 30
-59.0000000000001918
 11
62.0000000000000711
 21
130.000000000000199
 31
0.9999999999998151
210
0.0000000000000003
220
1.0
230
0.0
  0
LINE
  5
36427
  8
0
 10
62.0000000000000711
 20
130.000000000000199
 30
0.9999999999998151
 11
64.0000000000000568
 21
130.000000000000199
 31
0.9999999999998151
210
0.0000000000000003
220
1.0
230
0.0
  0
LINE
  5
36428
  8
0
 10
64.0000000000000568
 20
130.000000000000199
 30
0.9999999999998151
 11
64.0000000000000568
 21
130.0
 31
-59.0000000000001918
210
0.0000000000000003
220
1.0
230
0.0
  0
LINE
  5
36429
  8
0
 10
62.0000000000000284
 20
20.0000000000001386
 30
-19.9999999999998792
 11
62.0000000000000213
 21
0.0000000000001421
 31
-19.9999999999998295
210
-1.0
220
0.0000000000000003
230
0.0
  0
LINE
  5
3642A
  8
0
 10
62.0000000000000213
 20
0.0000000000001421
 30
-19.9999999999998295
 11
62.0000000000000284
 21
0.000000000000199
 31
1.000000000000127
210
-1.0
220
0.0000000000000003
230
0.0
  0
LINE
  5
3642B
  8
0
 10
62.0000000000000284
 20
0.000000000000199
 30
1.000000000000127
 11
62.0000000000000711
 21
130.000000000000199
 31
0.9999999999998151
210
-1.0
220
0.0000000000000003
230
0.0
  0
LINE
  5
3642C
  8
0
 10
62.0000000000000711
 20
130.0
 30
-59.0000000000001918
 11
62.0000000000000711
 21
130.000000000000199
 31
0.9999999999998151
210
-1.0
220
0.0000000000000003
230
0.0
  0
LINE
  5
3642D
  8
0
 10
62.0000000000000711
 20
130.0
 30
-59.0000000000001918
 11
62.0000000000000213
 21
0.0000000000000284
 31
-58.9999999999998366
210
-1.0
220
0.0000000000000003
230
0.0
  0
LINE
  5
3642E
  8
0
 10
62.0000000000000213
 20
0.0000000000000284
 30
-58.9999999999998366
 11
62.0000000000000284
 21
0.0000000000000853
 31
-39.9999999999998295
210
-1.0
220
0.0000000000000003
230
0.0
  0
LINE
  5
3642F
  8
0
 10
62.0000000000000284
 20
0.0000000000000853
 30
-39.9999999999998295
 11
62.0000000000000426
 21
20.0000000000000817
 31
-39.9999999999998934
210
-1.0
220
0.0000000000000003
230
0.0
  0
LINE
  5
36430
  8
0
 10
62.0000000000000426
 20
20.0000000000000817
 30
-39.9999999999998934
 11
62.0000000000000284
 21
20.0000000000001386
 31
-19.9999999999998792
210
-1.0
220
0.0000000000000003
230
0.0
  0
LINE
  5
36431
  8
0
 10
62.0000000000000213
 20
0.0000000000000284
 30
-58.9999999999998366
 11
64.0000000000000284
 21
0.0000000000000284
 31
-58.9999999999998366
210
-0.0000000000000003
220
-1.0
230
0.0000000000000027
  0
ARC
  5
36432
  8
0
 10
61.0000000000000284
 20
-58.9999999999998366
 30
-0.0000000000002064
 40
1.0
210
-0.0000000000000003
220
-1.0
230
0.0000000000000027
 50
269.99999999999892
 51
0.0000000000002398
  0
LINE
  5
36433
  8
0
 10
61.0000000000000071
 20
0.0000000000000142
 30
-61.9999999999998508
 11
61.0000000000000071
 21
0.0000000000000284
 31
-59.9999999999998366
210
-0.0000000000000003
220
-1.0
230
0.0000000000000027
  0
ARC
  5
36434
  8
0
 10
61.0000000000000284
 20
-58.9999999999998366
 30
-0.0000000000002064
 40
3.0
210
-0.0000000000000003
220
-1.0
230
0.0000000000000027
 50
269.9999999999994884
 51
0.0000000000000799
  0
LINE
  5
36435
  8
0
 10
64.0000000000000568
 20
130.0
 30
-59.0000000000001918
 11
62.0000000000000711
 21
130.0
 31
-59.0000000000001918
210
0.0000000000000003
220
1.0
230
-0.0000000000000027
  0
ARC
  5
36436
  8
0
 10
-61.0000000000000426
 20
-58.9999999999998366
 30
130.000000000000199
 40
3.0000000000000022
210
0.0000000000000003
220
1.0
230
-0.0000000000000027
 50
179.9999999999996874
 51
270.0000000000002274
  0
LINE
  5
36437
  8
0
 10
61.0000000000000426
 20
130.0
 30
-60.000000000000199
 11
61.0000000000000426
 21
130.0
 31
-62.000000000000199
210
0.0000000000000003
220
1.0
230
-0.0000000000000027
  0
ARC
  5
36438
  8
0
 10
-61.0000000000000426
 20
-58.9999999999998366
 30
130.000000000000199
 40
1.0
210
0.0000000000000003
220
1.0
230
-0.0000000000000027
 50
179.999999999999801
 51
270.00000000000108
  0
LINE
  5
36439
  8
0
 10
62.0000000000000213
 20
0.0000000000001421
 30
-19.9999999999998295
 11
64.0000000000000284
 21
0.0000000000001421
 31
-19.9999999999998295
210
-0.0000000000000003
220
-1.0
230
0.0000000000000027
  0
LINE
  5
3643A
  8
0
 10
64.0000000000000284
 20
0.0000000000001421
 30
-19.9999999999998295
 11
64.0000000000000284
 21
0.000000000000199
 31
1.000000000000127
210
-0.0000000000000003
220
-1.0
230
0.0000000000000027
  0
LINE
  5
3643B
  8
0
 10
62.0000000000000284
 20
0.000000000000199
 30
1.000000000000127
 11
64.0000000000000284
 21
0.000000000000199
 31
1.000000000000127
210
-0.0000000000000003
220
-1.0
230
0.0000000000000027
  0
LINE
  5
3643C
  8
0
 10
62.0000000000000213
 20
0.0000000000001421
 30
-19.9999999999998295
 11
62.0000000000000284
 21
0.000000000000199
 31
1.000000000000127
210
-0.0000000000000003
220
-1.0
230
0.0000000000000027
  0
LINE
  5
3643D
  8
0
 10
64.0000000000000284
 20
0.000000000000199
 30
1.000000000000127
 11
64.0000000000000568
 21
130.000000000000199
 31
0.9999999999998151
  0
LINE
  5
3643E
  8
0
 10
62.0000000000000711
 20
130.000000000000199
 30
0.9999999999998151
 11
64.0000000000000568
 21
130.000000000000199
 31
0.9999999999998151
  0
LINE
  5
3643F
  8
0
 10
62.0000000000000284
 20
0.000000000000199
 30
1.000000000000127
 11
62.0000000000000711
 21
130.000000000000199
 31
0.9999999999998151
  0
LINE
  5
36440
  8
0
 10
62.0000000000000284
 20
0.000000000000199
 30
1.000000000000127
 11
64.0000000000000284
 21
0.000000000000199
 31
1.000000000000127
  0
LINE
  5
36441
  8
0
 10
62.0000000000000711
 20
130.0
 30
-59.0000000000001918
 11
62.0000000000000213
 21
0.0000000000000284
 31
-58.9999999999998366
  0
ARC
  5
36442
  8
0
 10
61.0000000000000426
 20
-58.9999999999998366
 30
-130.000000000000199
 40
1.0
210
-0.0000000000000003
220
-1.0
230
0.0000000000000027
 50
269.99999999999892
 51
0.0000000000002398
  0
LINE
  5
36443
  8
0
 10
61.0000000000000071
 20
0.0000000000000284
 30
-59.9999999999998366
 11
61.0000000000000426
 21
130.0
 31
-60.000000000000199
  0
ARC
  5
36444
  8
0
 10
61.0000000000000284
 20
-58.9999999999998366
 30
-0.0000000000002064
 40
1.0
210
-0.0000000000000003
220
-1.0
230
0.0000000000000027
 50
269.99999999999892
 51
0.0000000000002398
  0
LINE
  5
36445
  8
0
 10
61.0000000000000426
 20
130.0
 30
-60.000000000000199
 11
61.0000000000000426
 21
130.0
 31
-62.000000000000199
210
-0.0000000000000001
220
1.0
230
-0.0000000000000027
  0
LINE
  5
36446
  8
0
 10
1.0000000000000391
 20
130.0
 30
-62.0000000000000924
 11
61.0000000000000426
 21
130.0
 31
-62.000000000000199
210
-0.0000000000000001
220
1.0
230
-0.0000000000000027
  0
LINE
  5
36447
  8
0
 10
1.000000000000046
 20
130.0
 30
-60.0000000000000924
 11
1.0000000000000391
 21
130.0
 31
-62.0000000000000924
210
-0.0000000000000001
220
1.0
230
-0.0000000000000027
  0
LINE
  5
36448
  8
0
 10
1.000000000000046
 20
130.0
 30
-60.0000000000000924
 11
61.0000000000000426
 21
130.0
 31
-60.000000000000199
210
-0.0000000000000001
220
1.0
230
-0.0000000000000027
  0
LINE
  5
36449
  8
0
 10
1.0000000000000211
 20
0.0000000000000284
 30
-59.9999999999997371
 11
1.000000000000046
 21
130.0
 31
-60.0000000000000924
210
-1.0
220
0.0000000000000002
230
0.0000000000000017
  0
LINE
  5
3644A
  8
0
 10
1.000000000000046
 20
130.0
 30
-60.0000000000000924
 11
1.0000000000000391
 21
130.0
 31
-62.0000000000000924
210
-1.0
220
0.0000000000000002
230
0.0000000000000017
  0
LINE
  5
3644B
  8
0
 10
1.0000000000000171
 20
0.0000000000000142
 30
-61.9999999999997371
 11
1.0000000000000391
 21
130.0
 31
-62.0000000000000924
210
-1.0
220
0.0000000000000002
230
0.0000000000000017
  0
LINE
  5
3644C
  8
0
 10
1.0000000000000211
 20
0.0000000000000284
 30
-59.9999999999997371
 11
1.0000000000000171
 21
0.0000000000000142
 31
-61.9999999999997371
210
-1.0
220
0.0000000000000002
230
0.0000000000000017
  0
LINE
  5
3644D
  8
0
 10
42.0000000000000284
 20
20.0000000000000284
 30
-59.9999999999998579
 11
42.0000000000000213
 21
0.0000000000000284
 31
-59.9999999999998082
  0
LINE
  5
3644E
  8
0
 10
61.0000000000000071
 20
0.0000000000000284
 30
-59.9999999999998366
 11
42.0000000000000213
 21
0.0000000000000284
 31
-59.9999999999998082
  0
LINE
  5
3644F
  8
0
 10
61.0000000000000071
 20
0.0000000000000284
 30
-59.9999999999998366
 11
61.0000000000000426
 21
130.0
 31
-60.000000000000199
  0
LINE
  5
36450
  8
0
 10
1.000000000000046
 20
130.0
 30
-60.0000000000000924
 11
61.0000000000000426
 21
130.0
 31
-60.000000000000199
  0
LINE
  5
36451
  8
0
 10
1.0000000000000211
 20
0.0000000000000284
 30
-59.9999999999997371
 11
1.000000000000046
 21
130.0
 31
-60.0000000000000924
  0
LINE
  5
36452
  8
0
 10
22.0000000000000391
 20
0.0000000000000284
 30
-59.9999999999997726
 11
1.0000000000000211
 21
0.0000000000000284
 31
-59.9999999999997371
  0
LINE
  5
36453
  8
0
 10
22.0000000000000391
 20
0.0000000000000284
 30
-59.9999999999997726
 11
22.0000000000000391
 21
20.0000000000000284
 31
-59.9999999999998295
  0
LINE
  5
36454
  8
0
 10
22.0000000000000391
 20
20.0000000000000284
 30
-59.9999999999998295
 11
42.0000000000000284
 21
20.0000000000000284
 31
-59.9999999999998579
  0
ENDBLK
  5
36456
  8
0
  0
BLOCK
  8
0
  2
*U69
 70
     1
 10
0.0
 20
0.0
 30
0.0
  3
*U69
  1

  0
TEXT
  5
36459
  8
BEM
 62
     1
 10
277.6000011995291175
 20
-27.0248062436781389
 30
0.0
 40
3.5
  1
350
 41
0.8
  0
ENDBLK
  5
3645B
  8
0
  0
BLOCK
  8
0
  2
*U70
 70
     1
 10
0.0
 20
0.0
 30
0.0
  3
*U70
  1

  0
TEXT
  5
3645D
  8
BEM
 62
     1
 10
277.8667451224038132
 20
-34.0248057053975117
 30
0.0
 40
3.5
  1
310
 41
0.8
  0
ENDBLK
  5
3645F
  8
0
  0
BLOCK
  8
0
  2
*U71
 70
     1
 10
0.0
 20
0.0
 30
0.0
  3
*U71
  1

  0
TEXT
  5
36461
  8
BEM
 62
     1
 10
234.7027463641728957
 20
-102.2522969331924969
 30
0.0
 40
3.5
  1
52
 50
90.0
 41
0.8
  0
ENDBLK
  5
36463
  8
0
  0
BLOCK
  8
0
  2
*U72
 70
     1
 10
0.0
 20
0.0
 30
0.0
  3
*U72
  1

  0
TEXT
  5
36465
  8
BEM
 62
     1
 10
294.8035520847676025
 20
-83.5248051969878134
 30
0.0
 40
3.5
  1
152
 41
0.8
  0
ENDBLK
  5
36467
  8
0
  0
BLOCK
  8
0
  2
*U73
 70
     1
 10
0.0
 20
0.0
 30
0.0
  3
*U73
  1

  0
TEXT
  5
36469
  8
BEM
 62
     1
 10
185.2029437129457961
 20
-108.3055757690430028
 30
0.0
 40
3.5
  1
210
 50
90.0
 41
0.8
  0
ENDBLK
  5
3646B
  8
0
  0
BLOCK
  8
0
  2
*U74
 70
     1
 10
0.0
 20
0.0
 30
0.0
  3
*U74
  1

  0
TEXT
  5
3646D
  8
BEM
 62
     1
 10
178.2029437129457961
 20
-108.624805196987694
 30
0.0
 40
3.5
  1
250
 50
90.0
 41
0.8
  0
ENDBLK
  5
3646F
  8
0
  0
BLOCK
  8
0
  2
*U75
 70
     1
 10
0.0
 20
0.0
 30
0.0
  3
*U75
  1

  0
TEXT
  5
36471
  8
BEM
 62
     1
 10
375.5659438835248807
 20
-169.8880543399604903
 30
0.0000000000000056
 40
3.5
  1
R8
 50
322.7970723622017886
 41
0.8
  0
ENDBLK
  5
36473
  8
0
  0
BLOCK
  8
0
  2
*U76
 70
     1
 10
0.0
 20
0.0
 30
0.0
  3
*U76
  1

  0
TEXT
  5
36475
  8
BEM
 62
     1
 10
185.2027463641686893
 20
-195.9071518779647931
 30
0.0
 40
3.5
  1
1
 50
90.0
 41
0.8
  0
ENDBLK
  5
36477
  8
0
  0
BLOCK
  8
0
  2
*U77
 70
     1
 10
0.0
 20
0.0
 30
0.0
  3
*U77
  1

  0
TEXT
  5
36479
  8
BEM
 62
     1
 10
209.2319851690106987
 20
-148.4861304159989004
 30
0.0
 40
3.5
  1
\U+22056.5
 50
50.4060984185281811
 41
0.8
  0
ENDBLK
  5
3647B
  8
0
  0
ENDSEC
  0
SECTION
  2
ENTITIES
  0
TEXT
  5
5DDE
  8
VOLL
 10
78.076754716981128
 20
31.025947764705851
 30
0.0
 40
1.8
  1

  7
GREEKS
  0
INSERT
  5
5DDF
  8
ADSK_ASSOC_ENTITY_BACKUPS
  2
*S7
 10
0.0
 20
0.0
 30
0.0
  0
INSERT
  5
35D19
  8
0
  2
A$C3612787D
 10
230.2094054949533017
 20
-112.804425036701403
 30
0.0
  0
INSERT
  5
35D2C
  8
0
  2
A$CF80509C4
 10
148.3502414716706141
 20
-190.7636822953716091
 30
-0.0000000000000284
  0
VIEWPORT
  5
1571
 67
     1
  8
0
 10
209.7500000000001137
 20
-148.2447509765625
 30
0.0
 40
590.7456875644952561
 41
298.6068530207393792
 68
     1
 69
     1
1001
ACAD
1000
MVIEW
1002
{
1070
    16
1010
0.0
1020
0.0
1030
0.0
1010
0.0
1020
0.0
1030
1.0
1040
0.0
1040
298.6068530207393792
1040
209.7500000000001137
1040
-148.2447509765625
1040
50.0
1040
0.0
1040
0.0
1070
     0
1070
  1500
1070
     1
1070
     1
1070
     0
1070
     0
1070
     0
1070
     0
1040
0.0
1040
0.0
1040
0.0
1040
10.0
1040
10.0
1040
10.0
1040
10.0
1070
     0
1002
{
1002
}
1002
}
1001
GENIUS_GENOBJ-N-SDF_13
1002
{
1000
OWNER
1000
GEN
1002
}
1001
GENIUS_GENODEF_13
1002
{
1000
HIER
1070
     0
1002
}
1002
{
1000
MANEDIT
1070
     0
1002
}
1002
{
1000
NOSEL
1070
     0
1002
}
1002
{
1000
BEHIND
1070
     0
1002
}
1002
{
1000
OTHER
1070
     0
1002
}
1002
{
1000
REACTOR
1002
}
1001
GENIUS_GENSCREG_15
1000
PF
1040
1.0
1000
DF
1040
1.0
1000
MIN
1011
-98.3237311841076007
1021
0.0
1031
0.0
1021
-84.5929851452383446
1031
0.0
1000
MAX
1011
756.7695330154733711
1021
0.0
1031
0.0
1021
339.8977580961391141
1031
0.0
1000
FLAGS
1070
     4
  0
ENDSEC
  0
EOF
