  0
SECTION
  2
HEADER
  9
$ACADVER
  1
AC1009
  9
$INSBASE
 10
0.0
 20
0.0
 30
0.0
  9
$EXTMIN
 10
-899.9999999999997726
 20
-850.0
 30
-0.0000000000000426
  9
$EXTMAX
 10
195.0000000000001137
 20
145.0
 30
0.0000000000000493
  9
$LIMMIN
 10
0.0
 20
0.0
  9
$LIMMAX
 10
420.0
 20
297.0
  9
$ORTHOMODE
 70
     1
  9
$REGENMODE
 70
     1
  9
$FILLMODE
 70
     1
  9
$QTEXTMODE
 70
     0
  9
$MIRRTEXT
 70
     1
  9
$DRAGMODE
 70
     2
  9
$LTSCALE
 40
10.0
  9
$OSMODE
 70
   511
  9
$ATTMODE
 70
     1
  9
$TEXTSIZE
 40
3.5
  9
$TRACEWID
 40
1.0
  9
$TEXTSTYLE
  7
STANDARD
  9
$CLAYER
  8
STEMPEL
  9
$CELTYPE
  6
BYLAYER
  9
$CECOLOR
 62
   256
  9
$DIMSCALE
 40
1.0
  9
$DIMASZ
 40
3.5
  9
$DIMEXO
 40
1.0
  9
$DIMDLI
 40
0.38
  9
$DIMRND
 40
0.0
  9
$DIMDLE
 40
0.0
  9
$DIMEXE
 40
1.0
  9
$DIMTP
 40
0.0
  9
$DIMTM
 40
0.000000001
  9
$DIMTXT
 40
3.5
  9
$DIMCEN
 40
0.09
  9
$DIMTSZ
 40
0.0
  9
$DIMTOL
 70
     0
  9
$DIMLIM
 70
     0
  9
$DIMTIH
 70
     0
  9
$DIMTOH
 70
     0
  9
$DIMSE1
 70
     0
  9
$DIMSE2
 70
     0
  9
$DIMTAD
 70
     1
  9
$DIMZIN
 70
     8
  9
$DIMBLK
  1

  9
$DIMASO
 70
     1
  9
$DIMSHO
 70
     0
  9
$DIMPOST
  1

  9
$DIMAPOST
  1

  9
$DIMALT
 70
     0
  9
$DIMALTD
 70
     2
  9
$DIMALTF
 40
25.3999999999999986
  9
$DIMLFAC
 40
5.0
  9
$DIMTOFL
 70
     1
  9
$DIMTVP
 40
0.0
  9
$DIMTIX
 70
     0
  9
$DIMSOXD
 70
     0
  9
$DIMSAH
 70
     0
  9
$DIMBLK1
  1

  9
$DIMBLK2
  1

  9
$DIMSTYLE
  2
LORO
  9
$DIMCLRD
 70
     0
  9
$DIMCLRE
 70
     0
  9
$DIMCLRT
 70
     1
  9
$DIMTFAC
 40
0.5
  9
$DIMGAP
 40
1.5
  9
$LUNITS
 70
     2
  9
$LUPREC
 70
     2
  9
$SKETCHINC
 40
1.0
  9
$FILLETRAD
 40
0.0
  9
$AUNITS
 70
     0
  9
$AUPREC
 70
     0
  9
$MENU
  1
ACAD
  9
$ELEVATION
 40
0.0
  9
$PELEVATION
 40
0.0
  9
$THICKNESS
 40
0.0
  9
$LIMCHECK
 70
     0
  9
$BLIPMODE
 70
     0
  9
$CHAMFERA
 40
0.0
  9
$CHAMFERB
 40
0.0
  9
$SKPOLY
 70
     0
  9
$TDCREATE
 40
2455397.867048610933125
  9
$TDUPDATE
 40
2460278.5462731481529772
  9
$TDINDWG
 40
0.5979570949
  9
$TDUSRTIMER
 40
0.5979570949
  9
$USRTIMER
 70
     1
  9
$ANGBASE
 50
0.0
  9
$ANGDIR
 70
     0
  9
$PDMODE
 70
     0
  9
$PDSIZE
 40
0.0
  9
$PLINEWID
 40
0.0
  9
$COORDS
 70
     1
  9
$SPLFRAME
 70
     0
  9
$SPLINETYPE
 70
     6
  9
$SPLINESEGS
 70
     8
  9
$ATTDIA
 70
     1
  9
$ATTREQ
 70
     1
  9
$HANDLING
 70
     1
  9
$HANDSEED
  5
4D42
  9
$SURFTAB1
 70
     6
  9
$SURFTAB2
 70
     6
  9
$SURFTYPE
 70
     6
  9
$SURFU
 70
     6
  9
$SURFV
 70
     6
  9
$UCSNAME
  2

  9
$UCSORG
 10
0.0
 20
0.0
 30
0.0
  9
$UCSXDIR
 10
1.0
 20
0.0
 30
0.0
  9
$UCSYDIR
 10
0.0
 20
1.0
 30
0.0
  9
$PUCSNAME
  2

  9
$PUCSORG
 10
0.0
 20
0.0
 30
0.0
  9
$PUCSXDIR
 10
1.0
 20
0.0
 30
0.0
  9
$PUCSYDIR
 10
0.0
 20
1.0
 30
0.0
  9
$USERI1
 70
     0
  9
$USERI2
 70
     0
  9
$USERI3
 70
     0
  9
$USERI4
 70
     0
  9
$USERI5
 70
     0
  9
$USERR1
 40
0.0
  9
$USERR2
 40
0.0
  9
$USERR3
 40
0.0
  9
$USERR4
 40
0.0
  9
$USERR5
 40
0.0
  9
$WORLDVIEW
 70
     1
  9
$SHADEDGE
 70
     3
  9
$SHADEDIF
 70
    70
  9
$TILEMODE
 70
     1
  9
$MAXACTVP
 70
    16
  9
$PLIMCHECK
 70
     0
  9
$PEXTMIN
 10
1.0000000000000000E+20
 20
1.0000000000000000E+20
 30
1.0000000000000000E+20
  9
$PEXTMAX
 10
-1.0000000000000000E+20
 20
-1.0000000000000000E+20
 30
-1.0000000000000000E+20
  9
$PLIMMIN
 10
-0.2797506448162039
 20
-0.2402878522961487
  9
$PLIMMAX
 10
419.7202493551837961
 20
296.7597121477039082
  9
$UNITMODE
 70
     0
  9
$VISRETAIN
 70
     0
  9
$PLINEGEN
 70
     0
  9
$PSLTSCALE
 70
     0
  0
ENDSEC
  0
SECTION
  2
TABLES
  0
TABLE
  2
VPORT
 70
     1
  0
VPORT
  2
*ACTIVE
 70
     0
 10
0.0
 20
0.0
 11
1.0
 21
1.0
 12
-170.7596616388144071
 22
-311.6094724489914256
 13
0.0
 23
0.0
 14
1.0
 24
1.0
 15
10.0
 25
10.0
 16
0.0000000000015348
 26
0.0
 36
7060.8936449223692762
 17
-181.740338361185394
 27
-40.8905275510086099
 37
0.0000000000000877
 40
1000.0895140664960081
 41
1.8720136518771331
 42
50.0
 43
0.0
 44
0.0
 50
0.0
 51
0.0
 71
     0
 72
  1500
 73
     1
 74
     0
 75
     0
 76
     0
 77
     0
 78
     0
  0
ENDTAB
  0
TABLE
  2
LTYPE
 70
     4
  0
LTYPE
  2
CONTINUOUS
 70
     0
  3
Solid line
 72
    65
 73
     0
 40
0.0
  0
LTYPE
  2
STRICHPUNKT
 70
     0
  3
__ . __ . __ . __ . __ . __ . __ . __ . __ . __
 72
    65
 73
     4
 40
1.0
 49
0.5
 49
-0.25
 49
0.0
 49
-0.25
  0
LTYPE
  2
VERDECKT
 70
     0
  3
Verdeckt __ __ __ __ __ __ __ __ __ __ __ __ __
 72
    65
 73
     2
 40
0.375
 49
0.25
 49
-0.125
  0
ENDTAB
  0
TABLE
  2
LAYER
 70
     5
  0
LAYER
  2
0
 70
     0
 62
     7
  6
CONTINUOUS
  0
LAYER
  2
STEMPEL
 70
     0
 62
     3
  6
CONTINUOUS
  0
LAYER
  2
ADSK_ASSOC_ENTITY_BACKUPS
 70
     1
 62
    -7
  6
CONTINUOUS
  0
ENDTAB
  0
TABLE
  2
STYLE
 70
     2
  0
STYLE
  2
STANDARD
 70
     0
 40
0.0
 41
0.8
 50
0.0
 71
     0
 42
3.5
  3
simplex.shx
  4

  0
ENDTAB
  0
TABLE
  2
VIEW
 70
     0
  0
ENDTAB
  0
TABLE
  2
UCS
 70
     0
  0
ENDTAB
  0
TABLE
  2
APPID
 70
    27
  0
APPID
  2
ACAD
 70
     0
  0
APPID
  2
ACAD_NAV_VCDISPLAY
 70
     0
  0
APPID
  2
GRADIENTCOLOR1ACI
 70
     0
  0
APPID
  2
GRADIENTCOLOR2ACI
 70
     0
  0
APPID
  2
ACAD_DSTYLE_DIMRADIAL_EXTENSION
 70
     0
  0
APPID
  2
ACADANNOMONITORALERTICONDI
 70
     0
  0
APPID
  2
ACAD_EXEMPT_FROM_CAD_STANDARDS
 70
     0
  0
APPID
  2
ACAD_MLEADERVER
 70
     0
  0
APPID
  2
ACAD_PSEXT
 70
     0
  0
APPID
  2
ACAECLAYERSTANDARD
 70
     0
  0
APPID
  2
ACAUTHENVIRON
 70
     0
  0
APPID
  2
ACCMTRANSPARENCY
 70
     0
  0
APPID
  2
ACAD_STEPID
 70
     0
  0
APPID
  2
ACSYNERGY
 70
     0
  0
APPID
  2
SYNERGY_BODY_TBR_ID
 70
     0
  0
APPID
  2
ACAD_VIEW_EDGE_ID
 70
     0
  0
APPID
  2
ACAD_MODELDOC_XFORM
 70
     0
  0
APPID
  2
ACAD_DIMASSOC_CALC_DIMLFAC
 70
     0
  0
APPID
  2
ACAD_DIMASSOC_DIMLFAC
 70
     0
  0
APPID
  2
ACAD_DIMASSOC_OVERRIDDEN_D
 70
     0
  0
APPID
  2
ACSYNERGYSKETCH
 70
     0
  0
APPID
  2
ACAD_DSTYLE_DIMJAG
 70
     0
  0
APPID
  2
ACAD_DSTYLE_DIMTALN
 70
     0
  0
APPID
  2
ACDBDYNAMICBLOCKGUID
 70
     0
  0
APPID
  2
ACAD_DSTYLE_DIMBREAK
 70
     0
  0
APPID
  2
PLOTTRANSPARENCY
 70
     0
  0
APPID
  2
ACADANNOPO
 70
     0
  0
ENDTAB
  0
TABLE
  2
DIMSTYLE
 70
     1
  0
DIMSTYLE
  2
LORO
 70
     0
  3

  4

  5

  6

  7

 40
1.0
 41
3.5
 42
1.0
 43
0.38
 44
1.0
 45
0.0
 46
0.0
 47
0.0
 48
0.000000001
140
3.5
141
0.09
142
0.0
143
25.3999999999999986
144
5.0
145
0.0
146
0.5
147
1.5
 71
     0
 72
     0
 73
     0
 74
     0
 75
     0
 76
     0
 77
     1
 78
     8
170
     0
171
     2
172
     1
173
     0
174
     0
175
     0
176
     0
177
     0
178
     1
  0
ENDTAB
  0
ENDSEC
  0
SECTION
  2
BLOCKS
  0
BLOCK
  8
0
  2
$MODEL_SPACE
 70
     0
 10
0.0
 20
0.0
 30
0.0
  3
$MODEL_SPACE
  1

  0
ENDBLK
  5
38
  8
0
  0
BLOCK
 67
     1
  8
0
  2
$PAPER_SPACE
 70
     0
 10
0.0
 20
0.0
 30
0.0
  3
$PAPER_SPACE
  1

  0
ENDBLK
  5
36
 67
     1
  8
0
  0
BLOCK
  8
0
  2
*S0
 70
     1
 10
0.0
 20
0.0
 30
0.0
  3
*S0
  1

  0
ENDBLK
  5
D6E
  8
0
  0
BLOCK
  8
0
  2
A$C4D158D56
 70
     0
 10
0.0
 20
0.0
 30
0.0
  3
A$C4D158D56
  1

  0
LINE
  5
44B2
  8
0
  6
CONTINUOUS
 62
     3
 10
75.0000000000004547
 20
24.4684792993549003
 30
0.0000000000000178
 11
75.0000000000004547
 21
1.4999999999997149
 31
0.0000000000000178
  0
LINE
  5
44B3
  8
0
  6
CONTINUOUS
 62
     3
 10
73.500000000000469
 20
24.4684792993549003
 30
0.0000000000000178
 11
75.000000000000469
 21
24.4684792993549003
 31
0.0000000000000181
  0
LINE
  5
44B4
  8
0
  6
CONTINUOUS
 62
     3
 10
-75.0000000000000568
 20
1.4999999999997169
 30
-0.0000000000000178
 11
-75.0000000000000568
 21
24.4684792993549003
 31
-0.0000000000000178
  0
LINE
  5
44B5
  8
0
  6
CONTINUOUS
 62
     3
 10
-75.0000000000000568
 20
24.4684792993549003
 30
-0.0000000000000178
 11
-73.5000000000000568
 21
24.4684792993549003
 31
-0.0000000000000174
  0
LINE
  5
44B6
  8
0
  6
CONTINUOUS
 62
     3
 10
75.000000000000469
 20
24.5469832337192884
 30
0.0000000000000178
 11
75.0000000000004547
 21
24.4684792993548683
 31
0.0000000000000178
  0
LINE
  5
44B7
  8
0
  6
CONTINUOUS
 62
     3
 10
73.5000000000004832
 20
24.5469832337192813
 30
0.0000000000000178
 11
75.0000000000004832
 21
24.5469832337192813
 31
0.0000000000000181
  0
LINE
  5
44B8
  8
0
  6
CONTINUOUS
 62
     3
 10
-75.0000000000000711
 20
24.4684792993548683
 30
-0.0000000000000178
 11
-75.0000000000000711
 21
24.5469832337192884
 31
-0.0000000000000178
  0
LINE
  5
44B9
  8
0
  6
CONTINUOUS
 62
     3
 10
-75.0000000000000568
 20
24.5469832337192813
 30
-0.0000000000000178
 11
-73.5000000000000568
 21
24.5469832337192813
 31
-0.0000000000000174
  0
LINE
  5
44BA
  8
0
  6
CONTINUOUS
 62
     3
 10
75.0000000000004832
 20
29.5401309074921308
 30
0.0000000000000178
 11
73.5000000000004832
 21
29.5401309074921308
 31
0.0000000000000174
  0
LINE
  5
44BB
  8
0
  6
CONTINUOUS
 62
     3
 10
-73.5000000000000568
 20
29.5401309074921308
 30
-0.0000000000000178
 11
-75.0000000000000568
 21
29.5401309074921308
 31
-0.0000000000000181
  0
LINE
  5
44BC
  8
0
  6
CONTINUOUS
 62
     3
 10
75.0000000000004832
 20
149.2971711436765929
 30
0.000000000000016
 11
75.000000000000469
 21
29.5401309074921201
 31
0.000000000000016
  0
LINE
  5
44BD
  8
0
  6
CONTINUOUS
 62
     3
 10
73.5000000000004832
 20
149.2971711436765929
 30
0.000000000000016
 11
75.000000000000469
 21
149.2971711436765929
 31
0.0000000000000163
  0
LINE
  5
44BE
  8
0
  6
CONTINUOUS
 62
     3
 10
-75.0000000000000568
 20
29.5401309074921414
 30
-0.0000000000000178
 11
-75.0000000000000711
 21
149.2971711436765929
 31
-0.0000000000000178
  0
LINE
  5
44BF
  8
0
  6
CONTINUOUS
 62
     3
 10
-75.0000000000000711
 20
149.2971711436765929
 30
-0.000000000000016
 11
-73.5000000000000711
 21
149.2971711436765929
 31
-0.0000000000000157
  0
LINE
  5
44C0
  8
0
  6
CONTINUOUS
 62
     3
 10
75.0000000000004832
 20
149.375675078041013
 30
0.0000000000000178
 11
75.000000000000469
 21
149.2971711436765929
 31
0.0000000000000178
  0
LINE
  5
44C1
  8
0
  6
CONTINUOUS
 62
     3
 10
73.5000000000004832
 20
149.375675078041013
 30
0.0000000000000178
 11
75.0000000000004832
 21
149.375675078041013
 31
0.0000000000000181
  0
LINE
  5
44C2
  8
0
  6
CONTINUOUS
 62
     3
 10
-75.0000000000000711
 20
149.2971711436765929
 30
-0.000000000000016
 11
-75.0000000000000711
 21
149.375675078041013
 31
-0.000000000000016
  0
LINE
  5
44C3
  8
0
  6
CONTINUOUS
 62
     3
 10
-75.0000000000000568
 20
149.375675078041013
 30
-0.0000000000000178
 11
-73.5000000000000711
 21
149.375675078041013
 31
-0.0000000000000174
  0
LINE
  5
44C4
  8
0
  6
CONTINUOUS
 62
     3
 10
75.0000000000004832
 20
154.3688227518138945
 30
0.0000000000000178
 11
73.5000000000004974
 21
154.3688227518138945
 31
0.0000000000000174
  0
LINE
  5
44C5
  8
0
  6
CONTINUOUS
 62
     3
 10
-73.5000000000000568
 20
154.3688227518138945
 30
-0.0000000000000178
 11
-75.0000000000000711
 21
154.3688227518138945
 31
-0.0000000000000181
  0
LINE
  5
44C6
  8
0
  6
CONTINUOUS
 62
     3
 10
75.0000000000004832
 20
274.1258629879985165
 30
0.000000000000016
 11
75.0000000000004832
 21
154.3688227518138945
 31
0.000000000000016
  0
LINE
  5
44C7
  8
0
  6
CONTINUOUS
 62
     3
 10
73.5000000000004832
 20
274.1258629879985165
 30
0.000000000000016
 11
75.0000000000004832
 21
274.1258629879985165
 31
0.0000000000000163
  0
LINE
  5
44C8
  8
0
  6
CONTINUOUS
 62
     3
 10
-75.0000000000000711
 20
154.3688227518138945
 30
-0.000000000000016
 11
-75.0000000000000711
 21
274.1258629879985165
 31
-0.000000000000016
  0
LINE
  5
44C9
  8
0
  6
CONTINUOUS
 62
     3
 10
-75.0000000000000711
 20
274.1258629879985165
 30
-0.000000000000016
 11
-73.5000000000000853
 21
274.1258629879985165
 31
-0.0000000000000157
  0
LINE
  5
44CA
  8
0
  6
CONTINUOUS
 62
     3
 10
75.0000000000004832
 20
274.2043669223629081
 30
0.000000000000016
 11
75.000000000000469
 21
274.1258629879985165
 31
0.000000000000016
  0
LINE
  5
44CB
  8
0
  6
CONTINUOUS
 62
     3
 10
73.5000000000005116
 20
274.2043669223629081
 30
0.000000000000016
 11
75.0000000000004832
 21
274.2043669223629081
 31
0.0000000000000163
  0
LINE
  5
44CC
  8
0
  6
CONTINUOUS
 62
     3
 10
-75.0000000000000711
 20
274.1258629879985165
 30
-0.000000000000016
 11
-75.0000000000000711
 21
274.2043669223629081
 31
-0.000000000000016
  0
LINE
  5
44CD
  8
0
  6
CONTINUOUS
 62
     3
 10
-75.0000000000000711
 20
274.2043669223629081
 30
-0.000000000000016
 11
-73.5000000000000853
 21
274.2043669223629081
 31
-0.0000000000000157
  0
LINE
  5
44CE
  8
0
  6
CONTINUOUS
 62
     3
 10
75.0000000000005116
 20
279.1975145961357043
 30
0.000000000000016
 11
73.5000000000005116
 21
279.1975145961357043
 31
0.0000000000000157
  0
LINE
  5
44CF
  8
0
  6
CONTINUOUS
 62
     3
 10
-73.5000000000000711
 20
279.1975145961357043
 30
-0.000000000000016
 11
-75.0000000000000853
 21
279.1975145961357043
 31
-0.0000000000000163
  0
LINE
  5
44D0
  8
0
  6
CONTINUOUS
 62
     3
 10
75.0000000000004832
 20
398.9545548323201274
 30
0.0000000000000169
 11
75.0000000000004832
 21
279.1975145961357043
 31
0.0000000000000169
  0
LINE
  5
44D1
  8
0
  6
CONTINUOUS
 62
     3
 10
73.5000000000004974
 20
398.9545548323201274
 30
0.0000000000000164
 11
75.0000000000004832
 21
398.9545548323201274
 31
0.0000000000000168
  0
LINE
  5
44D2
  8
0
  6
CONTINUOUS
 62
     3
 10
-75.0000000000000711
 20
279.1975145961357043
 30
-0.000000000000016
 11
-75.0000000000000711
 21
398.9545548323201274
 31
-0.000000000000016
  0
LINE
  5
44D3
  8
0
  6
CONTINUOUS
 62
     3
 10
-75.0000000000000711
 20
398.9545548323201274
 30
-0.0000000000000169
 11
-73.5000000000000853
 21
398.9545548323201274
 31
-0.0000000000000165
  0
LINE
  5
44D4
  8
0
  6
CONTINUOUS
 62
     3
 10
75.0000000000004832
 20
399.0330587666845759
 30
0.0000000000000169
 11
75.0000000000004832
 21
398.9545548323201842
 31
0.0000000000000169
  0
LINE
  5
44D5
  8
0
  6
CONTINUOUS
 62
     3
 10
73.5000000000005116
 20
399.0330587666845759
 30
0.000000000000016
 11
75.0000000000005116
 21
399.0330587666845759
 31
0.0000000000000163
  0
LINE
  5
44D6
  8
0
  6
CONTINUOUS
 62
     3
 10
-75.0000000000000853
 20
398.9545548323201842
 30
-0.0000000000000169
 11
-75.0000000000000853
 21
399.0330587666845759
 31
-0.0000000000000169
  0
LINE
  5
44D7
  8
0
  6
CONTINUOUS
 62
     3
 10
-75.0000000000000711
 20
399.0330587666845759
 30
-0.0000000000000169
 11
-73.5000000000000853
 21
399.0330587666845759
 31
-0.0000000000000165
  0
LINE
  5
44D8
  8
0
  6
CONTINUOUS
 62
     3
 10
75.0000000000005116
 20
404.0262064404573721
 30
0.0000000000000169
 11
73.5000000000005116
 21
404.0262064404573721
 31
0.0000000000000165
  0
LINE
  5
44D9
  8
0
  6
CONTINUOUS
 62
     3
 10
-73.5000000000000711
 20
404.0262064404573721
 30
-0.0000000000000164
 11
-75.0000000000000853
 21
404.0262064404573721
 31
-0.0000000000000168
  0
LINE
  5
44DA
  8
0
  6
CONTINUOUS
 62
     3
 10
75.0000000000005116
 20
523.783246676641852
 30
0.0000000000000169
 11
75.0000000000004832
 21
404.0262064404573721
 31
0.0000000000000169
  0
LINE
  5
44DB
  8
0
  6
CONTINUOUS
 62
     3
 10
73.5000000000005116
 20
523.783246676641852
 30
0.0000000000000164
 11
75.0000000000004832
 21
523.783246676641852
 31
0.0000000000000168
  0
LINE
  5
44DC
  8
0
  6
CONTINUOUS
 62
     3
 10
-75.0000000000000711
 20
404.0262064404573721
 30
-0.0000000000000169
 11
-75.0000000000000853
 21
523.783246676641852
 31
-0.0000000000000169
  0
LINE
  5
44DD
  8
0
  6
CONTINUOUS
 62
     3
 10
-75.0000000000000853
 20
523.783246676641852
 30
-0.0000000000000169
 11
-73.5000000000000853
 21
523.783246676641852
 31
-0.0000000000000165
  0
LINE
  5
44DE
  8
0
  6
CONTINUOUS
 62
     3
 10
-75.0000000000000711
 20
555.6047614421855769
 30
-0.0000000000000169
 11
-74.9999999999998437
 21
598.6611192644646735
 31
-0.0000000000000169
  0
LINE
  5
44DF
  8
0
  6
CONTINUOUS
 62
     3
 10
-75.0000000000000853
 20
555.6047614421855769
 30
-0.0000000000000169
 11
-74.2839142090593754
 21
555.6047614421855769
 31
-0.0000000000000167
  0
LINE
  5
44E0
  8
0
  6
CONTINUOUS
 62
     3
 10
-73.4999999999998579
 20
598.6611192644646735
 30
-0.0000000000000142
 11
-73.5000000000000853
 21
555.6810834768908762
 31
-0.0000000000000142
  0
POLYLINE
  5
44E1
  8
0
  6
CONTINUOUS
 62
     3
 10
-71.9999999999998295
 20
600.0805596322321662
 30
-0.0000000000000142
 66
     1
 70
     8
  0
VERTEX
  8
0
  5
472A
 10
-72.0000
 20
600.081
 30
-1.42000e-14
  70
    32
  0
VERTEX
  8
0
  5
472B
 10
-72.0184
 20
600.080
 30
-1.42037e-14
  70
    32
  0
VERTEX
  8
0
  5
472C
 10
-72.0368
 20
600.080
 30
-1.42074e-14
  70
    32
  0
VERTEX
  8
0
  5
472D
 10
-72.0552
 20
600.080
 30
-1.42110e-14
  70
    32
  0
VERTEX
  8
0
  5
472E
 10
-72.0736
 20
600.079
 30
-1.42147e-14
  70
    32
  0
VERTEX
  8
0
  5
472F
 10
-72.0920
 20
600.078
 30
-1.42184e-14
  70
    32
  0
VERTEX
  8
0
  5
4730
 10
-72.1103
 20
600.077
 30
-1.42221e-14
  70
    32
  0
VERTEX
  8
0
  5
4731
 10
-72.1287
 20
600.075
 30
-1.42257e-14
  70
    32
  0
VERTEX
  8
0
  5
4732
 10
-72.1470
 20
600.074
 30
-1.42294e-14
  70
    32
  0
VERTEX
  8
0
  5
4733
 10
-72.1653
 20
600.072
 30
-1.42331e-14
  70
    32
  0
VERTEX
  8
0
  5
4734
 10
-72.1836
 20
600.070
 30
-1.42367e-14
  70
    32
  0
VERTEX
  8
0
  5
4735
 10
-72.2019
 20
600.068
 30
-1.42404e-14
  70
    32
  0
VERTEX
  8
0
  5
4736
 10
-72.2201
 20
600.065
 30
-1.42440e-14
  70
    32
  0
VERTEX
  8
0
  5
4737
 10
-72.2383
 20
600.063
 30
-1.42477e-14
  70
    32
  0
VERTEX
  8
0
  5
4738
 10
-72.2564
 20
600.060
 30
-1.42513e-14
  70
    32
  0
VERTEX
  8
0
  5
4739
 10
-72.2746
 20
600.057
 30
-1.42549e-14
  70
    32
  0
VERTEX
  8
0
  5
473A
 10
-72.2926
 20
600.053
 30
-1.42585e-14
  70
    32
  0
VERTEX
  8
0
  5
473B
 10
-72.3107
 20
600.050
 30
-1.42621e-14
  70
    32
  0
VERTEX
  8
0
  5
473C
 10
-72.3287
 20
600.046
 30
-1.42657e-14
  70
    32
  0
VERTEX
  8
0
  5
473D
 10
-72.3466
 20
600.042
 30
-1.42693e-14
  70
    32
  0
VERTEX
  8
0
  5
473E
 10
-72.3645
 20
600.038
 30
-1.42729e-14
  70
    32
  0
VERTEX
  8
0
  5
473F
 10
-72.3823
 20
600.034
 30
-1.42765e-14
  70
    32
  0
VERTEX
  8
0
  5
4740
 10
-72.4001
 20
600.029
 30
-1.42800e-14
  70
    32
  0
VERTEX
  8
0
  5
4741
 10
-72.4178
 20
600.024
 30
-1.42836e-14
  70
    32
  0
VERTEX
  8
0
  5
4742
 10
-72.4354
 20
600.019
 30
-1.42871e-14
  70
    32
  0
VERTEX
  8
0
  5
4743
 10
-72.4530
 20
600.014
 30
-1.42906e-14
  70
    32
  0
VERTEX
  8
0
  5
4744
 10
-72.4705
 20
600.009
 30
-1.42941e-14
  70
    32
  0
VERTEX
  8
0
  5
4745
 10
-72.4880
 20
600.003
 30
-1.42976e-14
  70
    32
  0
VERTEX
  8
0
  5
4746
 10
-72.5053
 20
599.998
 30
-1.43011e-14
  70
    32
  0
VERTEX
  8
0
  5
4747
 10
-72.5226
 20
599.992
 30
-1.43045e-14
  70
    32
  0
VERTEX
  8
0
  5
4748
 10
-72.5398
 20
599.985
 30
-1.43080e-14
  70
    32
  0
VERTEX
  8
0
  5
4749
 10
-72.5570
 20
599.979
 30
-1.43114e-14
  70
    32
  0
VERTEX
  8
0
  5
474A
 10
-72.5740
 20
599.973
 30
-1.43148e-14
  70
    32
  0
VERTEX
  8
0
  5
474B
 10
-72.5910
 20
599.966
 30
-1.43182e-14
  70
    32
  0
VERTEX
  8
0
  5
474C
 10
-72.6079
 20
599.959
 30
-1.43216e-14
  70
    32
  0
VERTEX
  8
0
  5
474D
 10
-72.6246
 20
599.952
 30
-1.43249e-14
  70
    32
  0
VERTEX
  8
0
  5
474E
 10
-72.6413
 20
599.944
 30
-1.43283e-14
  70
    32
  0
VERTEX
  8
0
  5
474F
 10
-72.6579
 20
599.937
 30
-1.43316e-14
  70
    32
  0
VERTEX
  8
0
  5
4750
 10
-72.6744
 20
599.929
 30
-1.43349e-14
  70
    32
  0
VERTEX
  8
0
  5
4751
 10
-72.6908
 20
599.921
 30
-1.43382e-14
  70
    32
  0
VERTEX
  8
0
  5
4752
 10
-72.7071
 20
599.913
 30
-1.43414e-14
  70
    32
  0
VERTEX
  8
0
  5
4753
 10
-72.7233
 20
599.905
 30
-1.43447e-14
  70
    32
  0
VERTEX
  8
0
  5
4754
 10
-72.7393
 20
599.896
 30
-1.43479e-14
  70
    32
  0
VERTEX
  8
0
  5
4755
 10
-72.7553
 20
599.887
 30
-1.43511e-14
  70
    32
  0
VERTEX
  8
0
  5
4756
 10
-72.7712
 20
599.879
 30
-1.43542e-14
  70
    32
  0
VERTEX
  8
0
  5
4757
 10
-72.7869
 20
599.870
 30
-1.43574e-14
  70
    32
  0
VERTEX
  8
0
  5
4758
 10
-72.8025
 20
599.860
 30
-1.43605e-14
  70
    32
  0
VERTEX
  8
0
  5
4759
 10
-72.8180
 20
599.851
 30
-1.43636e-14
  70
    32
  0
VERTEX
  8
0
  5
475A
 10
-72.8334
 20
599.841
 30
-1.43667e-14
  70
    32
  0
VERTEX
  8
0
  5
475B
 10
-72.8486
 20
599.832
 30
-1.43697e-14
  70
    32
  0
VERTEX
  8
0
  5
475C
 10
-72.8637
 20
599.822
 30
-1.43727e-14
  70
    32
  0
VERTEX
  8
0
  5
475D
 10
-72.8787
 20
599.812
 30
-1.43757e-14
  70
    32
  0
VERTEX
  8
0
  5
475E
 10
-72.8935
 20
599.801
 30
-1.43787e-14
  70
    32
  0
VERTEX
  8
0
  5
475F
 10
-72.9083
 20
599.791
 30
-1.43817e-14
  70
    32
  0
VERTEX
  8
0
  5
4760
 10
-72.9228
 20
599.780
 30
-1.43846e-14
  70
    32
  0
VERTEX
  8
0
  5
4761
 10
-72.9373
 20
599.769
 30
-1.43875e-14
  70
    32
  0
VERTEX
  8
0
  5
4762
 10
-72.9516
 20
599.758
 30
-1.43903e-14
  70
    32
  0
VERTEX
  8
0
  5
4763
 10
-72.9657
 20
599.747
 30
-1.43931e-14
  70
    32
  0
VERTEX
  8
0
  5
4764
 10
-72.9798
 20
599.736
 30
-1.43960e-14
  70
    32
  0
VERTEX
  8
0
  5
4765
 10
-72.9936
 20
599.724
 30
-1.43987e-14
  70
    32
  0
VERTEX
  8
0
  5
4766
 10
-73.0073
 20
599.713
 30
-1.44015e-14
  70
    32
  0
VERTEX
  8
0
  5
4767
 10
-73.0209
 20
599.701
 30
-1.44042e-14
  70
    32
  0
VERTEX
  8
0
  5
4768
 10
-73.0343
 20
599.689
 30
-1.44069e-14
  70
    32
  0
VERTEX
  8
0
  5
4769
 10
-73.0476
 20
599.677
 30
-1.44095e-14
  70
    32
  0
VERTEX
  8
0
  5
476A
 10
-73.0607
 20
599.665
 30
-1.44121e-14
  70
    32
  0
VERTEX
  8
0
  5
476B
 10
-73.0736
 20
599.652
 30
-1.44147e-14
  70
    32
  0
VERTEX
  8
0
  5
476C
 10
-73.0864
 20
599.640
 30
-1.44173e-14
  70
    32
  0
VERTEX
  8
0
  5
476D
 10
-73.0990
 20
599.627
 30
-1.44198e-14
  70
    32
  0
VERTEX
  8
0
  5
476E
 10
-73.1114
 20
599.614
 30
-1.44223e-14
  70
    32
  0
VERTEX
  8
0
  5
476F
 10
-73.1237
 20
599.601
 30
-1.44247e-14
  70
    32
  0
VERTEX
  8
0
  5
4770
 10
-73.1358
 20
599.588
 30
-1.44272e-14
  70
    32
  0
VERTEX
  8
0
  5
4771
 10
-73.1478
 20
599.575
 30
-1.44296e-14
  70
    32
  0
VERTEX
  8
0
  5
4772
 10
-73.1595
 20
599.562
 30
-1.44319e-14
  70
    32
  0
VERTEX
  8
0
  5
4773
 10
-73.1711
 20
599.548
 30
-1.44342e-14
  70
    32
  0
VERTEX
  8
0
  5
4774
 10
-73.1825
 20
599.534
 30
-1.44365e-14
  70
    32
  0
VERTEX
  8
0
  5
4775
 10
-73.1938
 20
599.521
 30
-1.44388e-14
  70
    32
  0
VERTEX
  8
0
  5
4776
 10
-73.2048
 20
599.507
 30
-1.44410e-14
  70
    32
  0
VERTEX
  8
0
  5
4777
 10
-73.2157
 20
599.493
 30
-1.44431e-14
  70
    32
  0
VERTEX
  8
0
  5
4778
 10
-73.2264
 20
599.478
 30
-1.44453e-14
  70
    32
  0
VERTEX
  8
0
  5
4779
 10
-73.2369
 20
599.464
 30
-1.44474e-14
  70
    32
  0
VERTEX
  8
0
  5
477A
 10
-73.2472
 20
599.450
 30
-1.44494e-14
  70
    32
  0
VERTEX
  8
0
  5
477B
 10
-73.2573
 20
599.435
 30
-1.44515e-14
  70
    32
  0
VERTEX
  8
0
  5
477C
 10
-73.2673
 20
599.421
 30
-1.44535e-14
  70
    32
  0
VERTEX
  8
0
  5
477D
 10
-73.2770
 20
599.406
 30
-1.44554e-14
  70
    32
  0
VERTEX
  8
0
  5
477E
 10
-73.2866
 20
599.391
 30
-1.44573e-14
  70
    32
  0
VERTEX
  8
0
  5
477F
 10
-73.2960
 20
599.376
 30
-1.44592e-14
  70
    32
  0
VERTEX
  8
0
  5
4780
 10
-73.3051
 20
599.361
 30
-1.44610e-14
  70
    32
  0
VERTEX
  8
0
  5
4781
 10
-73.3141
 20
599.346
 30
-1.44628e-14
  70
    32
  0
VERTEX
  8
0
  5
4782
 10
-73.3229
 20
599.330
 30
-1.44646e-14
  70
    32
  0
VERTEX
  8
0
  5
4783
 10
-73.3315
 20
599.315
 30
-1.44663e-14
  70
    32
  0
VERTEX
  8
0
  5
4784
 10
-73.3398
 20
599.299
 30
-1.44680e-14
  70
    32
  0
VERTEX
  8
0
  5
4785
 10
-73.3480
 20
599.284
 30
-1.44696e-14
  70
    32
  0
VERTEX
  8
0
  5
4786
 10
-73.3560
 20
599.268
 30
-1.44712e-14
  70
    32
  0
VERTEX
  8
0
  5
4787
 10
-73.3638
 20
599.252
 30
-1.44728e-14
  70
    32
  0
VERTEX
  8
0
  5
4788
 10
-73.3713
 20
599.236
 30
-1.44743e-14
  70
    32
  0
VERTEX
  8
0
  5
4789
 10
-73.3787
 20
599.220
 30
-1.44757e-14
  70
    32
  0
VERTEX
  8
0
  5
478A
 10
-73.3858
 20
599.204
 30
-1.44772e-14
  70
    32
  0
VERTEX
  8
0
  5
478B
 10
-73.3928
 20
599.188
 30
-1.44786e-14
  70
    32
  0
VERTEX
  8
0
  5
478C
 10
-73.3995
 20
599.172
 30
-1.44799e-14
  70
    32
  0
VERTEX
  8
0
  5
478D
 10
-73.4060
 20
599.156
 30
-1.44812e-14
  70
    32
  0
VERTEX
  8
0
  5
478E
 10
-73.4123
 20
599.139
 30
-1.44825e-14
  70
    32
  0
VERTEX
  8
0
  5
478F
 10
-73.4184
 20
599.123
 30
-1.44837e-14
  70
    32
  0
VERTEX
  8
0
  5
4790
 10
-73.4243
 20
599.106
 30
-1.44849e-14
  70
    32
  0
VERTEX
  8
0
  5
4791
 10
-73.4300
 20
599.090
 30
-1.44860e-14
  70
    32
  0
VERTEX
  8
0
  5
4792
 10
-73.4354
 20
599.073
 30
-1.44871e-14
  70
    32
  0
VERTEX
  8
0
  5
4793
 10
-73.4406
 20
599.056
 30
-1.44881e-14
  70
    32
  0
VERTEX
  8
0
  5
4794
 10
-73.4457
 20
599.040
 30
-1.44891e-14
  70
    32
  0
VERTEX
  8
0
  5
4795
 10
-73.4505
 20
599.023
 30
-1.44901e-14
  70
    32
  0
VERTEX
  8
0
  5
4796
 10
-73.4550
 20
599.006
 30
-1.44910e-14
  70
    32
  0
VERTEX
  8
0
  5
4797
 10
-73.4594
 20
598.989
 30
-1.44919e-14
  70
    32
  0
VERTEX
  8
0
  5
4798
 10
-73.4636
 20
598.972
 30
-1.44927e-14
  70
    32
  0
VERTEX
  8
0
  5
4799
 10
-73.4675
 20
598.955
 30
-1.44935e-14
  70
    32
  0
VERTEX
  8
0
  5
479A
 10
-73.4712
 20
598.938
 30
-1.44942e-14
  70
    32
  0
VERTEX
  8
0
  5
479B
 10
-73.4747
 20
598.921
 30
-1.44949e-14
  70
    32
  0
VERTEX
  8
0
  5
479C
 10
-73.4779
 20
598.904
 30
-1.44956e-14
  70
    32
  0
VERTEX
  8
0
  5
479D
 10
-73.4810
 20
598.887
 30
-1.44962e-14
  70
    32
  0
VERTEX
  8
0
  5
479E
 10
-73.4838
 20
598.869
 30
-1.44968e-14
  70
    32
  0
VERTEX
  8
0
  5
479F
 10
-73.4864
 20
598.852
 30
-1.44973e-14
  70
    32
  0
VERTEX
  8
0
  5
47A0
 10
-73.4887
 20
598.835
 30
-1.44977e-14
  70
    32
  0
VERTEX
  8
0
  5
47A1
 10
-73.4909
 20
598.818
 30
-1.44982e-14
  70
    32
  0
VERTEX
  8
0
  5
47A2
 10
-73.4928
 20
598.800
 30
-1.44986e-14
  70
    32
  0
VERTEX
  8
0
  5
47A3
 10
-73.4945
 20
598.783
 30
-1.44989e-14
  70
    32
  0
VERTEX
  8
0
  5
47A4
 10
-73.4959
 20
598.766
 30
-1.44992e-14
  70
    32
  0
VERTEX
  8
0
  5
47A5
 10
-73.4972
 20
598.748
 30
-1.44994e-14
  70
    32
  0
VERTEX
  8
0
  5
47A6
 10
-73.4982
 20
598.731
 30
-1.44996e-14
  70
    32
  0
VERTEX
  8
0
  5
47A7
 10
-73.4990
 20
598.713
 30
-1.44998e-14
  70
    32
  0
VERTEX
  8
0
  5
47A8
 10
-73.4995
 20
598.696
 30
-1.44999e-14
  70
    32
  0
VERTEX
  8
0
  5
47A9
 10
-73.4999
 20
598.679
 30
-1.45000e-14
  70
    32
  0
VERTEX
  8
0
  5
47AA
 10
-73.5000
 20
598.661
 30
-1.45000e-14
  70
    32
  0
SEQEND
  8
0
  5
47AB
  0
LINE
  5
44E2
  8
0
  6
CONTINUOUS
 62
     3
 10
72.0000000000002132
 20
600.0805596322321662
 30
0.0000000000000142
 11
-71.9999999999998437
 21
600.0805596322321662
 31
-0.0000000000000178
  0
POLYLINE
  5
44E3
  8
0
  6
CONTINUOUS
 62
     3
 10
73.5000000000002416
 20
598.6611192644646735
 30
0.0000000000000145
 66
     1
 70
     8
  0
VERTEX
  8
0
  5
47AC
 10
73.5000
 20
598.661
 30
1.45000e-14
  70
    32
  0
VERTEX
  8
0
  5
47AD
 10
73.4999
 20
598.679
 30
1.45000e-14
  70
    32
  0
VERTEX
  8
0
  5
47AE
 10
73.4995
 20
598.696
 30
1.44999e-14
  70
    32
  0
VERTEX
  8
0
  5
47AF
 10
73.4990
 20
598.713
 30
1.44998e-14
  70
    32
  0
VERTEX
  8
0
  5
47B0
 10
73.4982
 20
598.731
 30
1.44996e-14
  70
    32
  0
VERTEX
  8
0
  5
47B1
 10
73.4972
 20
598.748
 30
1.44994e-14
  70
    32
  0
VERTEX
  8
0
  5
47B2
 10
73.4959
 20
598.766
 30
1.44992e-14
  70
    32
  0
VERTEX
  8
0
  5
47B3
 10
73.4945
 20
598.783
 30
1.44989e-14
  70
    32
  0
VERTEX
  8
0
  5
47B4
 10
73.4928
 20
598.800
 30
1.44986e-14
  70
    32
  0
VERTEX
  8
0
  5
47B5
 10
73.4909
 20
598.818
 30
1.44982e-14
  70
    32
  0
VERTEX
  8
0
  5
47B6
 10
73.4887
 20
598.835
 30
1.44977e-14
  70
    32
  0
VERTEX
  8
0
  5
47B7
 10
73.4864
 20
598.852
 30
1.44973e-14
  70
    32
  0
VERTEX
  8
0
  5
47B8
 10
73.4838
 20
598.869
 30
1.44968e-14
  70
    32
  0
VERTEX
  8
0
  5
47B9
 10
73.4810
 20
598.887
 30
1.44962e-14
  70
    32
  0
VERTEX
  8
0
  5
47BA
 10
73.4779
 20
598.904
 30
1.44956e-14
  70
    32
  0
VERTEX
  8
0
  5
47BB
 10
73.4747
 20
598.921
 30
1.44949e-14
  70
    32
  0
VERTEX
  8
0
  5
47BC
 10
73.4712
 20
598.938
 30
1.44942e-14
  70
    32
  0
VERTEX
  8
0
  5
47BD
 10
73.4675
 20
598.955
 30
1.44935e-14
  70
    32
  0
VERTEX
  8
0
  5
47BE
 10
73.4636
 20
598.972
 30
1.44927e-14
  70
    32
  0
VERTEX
  8
0
  5
47BF
 10
73.4594
 20
598.989
 30
1.44919e-14
  70
    32
  0
VERTEX
  8
0
  5
47C0
 10
73.4550
 20
599.006
 30
1.44910e-14
  70
    32
  0
VERTEX
  8
0
  5
47C1
 10
73.4505
 20
599.023
 30
1.44901e-14
  70
    32
  0
VERTEX
  8
0
  5
47C2
 10
73.4457
 20
599.040
 30
1.44891e-14
  70
    32
  0
VERTEX
  8
0
  5
47C3
 10
73.4406
 20
599.056
 30
1.44881e-14
  70
    32
  0
VERTEX
  8
0
  5
47C4
 10
73.4354
 20
599.073
 30
1.44871e-14
  70
    32
  0
VERTEX
  8
0
  5
47C5
 10
73.4300
 20
599.090
 30
1.44860e-14
  70
    32
  0
VERTEX
  8
0
  5
47C6
 10
73.4243
 20
599.106
 30
1.44849e-14
  70
    32
  0
VERTEX
  8
0
  5
47C7
 10
73.4184
 20
599.123
 30
1.44837e-14
  70
    32
  0
VERTEX
  8
0
  5
47C8
 10
73.4123
 20
599.139
 30
1.44825e-14
  70
    32
  0
VERTEX
  8
0
  5
47C9
 10
73.4060
 20
599.156
 30
1.44812e-14
  70
    32
  0
VERTEX
  8
0
  5
47CA
 10
73.3995
 20
599.172
 30
1.44799e-14
  70
    32
  0
VERTEX
  8
0
  5
47CB
 10
73.3928
 20
599.188
 30
1.44786e-14
  70
    32
  0
VERTEX
  8
0
  5
47CC
 10
73.3858
 20
599.204
 30
1.44772e-14
  70
    32
  0
VERTEX
  8
0
  5
47CD
 10
73.3787
 20
599.220
 30
1.44757e-14
  70
    32
  0
VERTEX
  8
0
  5
47CE
 10
73.3713
 20
599.236
 30
1.44743e-14
  70
    32
  0
VERTEX
  8
0
  5
47CF
 10
73.3638
 20
599.252
 30
1.44728e-14
  70
    32
  0
VERTEX
  8
0
  5
47D0
 10
73.3560
 20
599.268
 30
1.44712e-14
  70
    32
  0
VERTEX
  8
0
  5
47D1
 10
73.3480
 20
599.284
 30
1.44696e-14
  70
    32
  0
VERTEX
  8
0
  5
47D2
 10
73.3398
 20
599.299
 30
1.44680e-14
  70
    32
  0
VERTEX
  8
0
  5
47D3
 10
73.3315
 20
599.315
 30
1.44663e-14
  70
    32
  0
VERTEX
  8
0
  5
47D4
 10
73.3229
 20
599.330
 30
1.44646e-14
  70
    32
  0
VERTEX
  8
0
  5
47D5
 10
73.3141
 20
599.346
 30
1.44628e-14
  70
    32
  0
VERTEX
  8
0
  5
47D6
 10
73.3051
 20
599.361
 30
1.44610e-14
  70
    32
  0
VERTEX
  8
0
  5
47D7
 10
73.2960
 20
599.376
 30
1.44592e-14
  70
    32
  0
VERTEX
  8
0
  5
47D8
 10
73.2866
 20
599.391
 30
1.44573e-14
  70
    32
  0
VERTEX
  8
0
  5
47D9
 10
73.2770
 20
599.406
 30
1.44554e-14
  70
    32
  0
VERTEX
  8
0
  5
47DA
 10
73.2673
 20
599.421
 30
1.44535e-14
  70
    32
  0
VERTEX
  8
0
  5
47DB
 10
73.2573
 20
599.435
 30
1.44515e-14
  70
    32
  0
VERTEX
  8
0
  5
47DC
 10
73.2472
 20
599.450
 30
1.44494e-14
  70
    32
  0
VERTEX
  8
0
  5
47DD
 10
73.2369
 20
599.464
 30
1.44474e-14
  70
    32
  0
VERTEX
  8
0
  5
47DE
 10
73.2264
 20
599.478
 30
1.44453e-14
  70
    32
  0
VERTEX
  8
0
  5
47DF
 10
73.2157
 20
599.493
 30
1.44431e-14
  70
    32
  0
VERTEX
  8
0
  5
47E0
 10
73.2048
 20
599.507
 30
1.44410e-14
  70
    32
  0
VERTEX
  8
0
  5
47E1
 10
73.1938
 20
599.521
 30
1.44388e-14
  70
    32
  0
VERTEX
  8
0
  5
47E2
 10
73.1825
 20
599.534
 30
1.44365e-14
  70
    32
  0
VERTEX
  8
0
  5
47E3
 10
73.1711
 20
599.548
 30
1.44342e-14
  70
    32
  0
VERTEX
  8
0
  5
47E4
 10
73.1595
 20
599.562
 30
1.44319e-14
  70
    32
  0
VERTEX
  8
0
  5
47E5
 10
73.1478
 20
599.575
 30
1.44296e-14
  70
    32
  0
VERTEX
  8
0
  5
47E6
 10
73.1358
 20
599.588
 30
1.44272e-14
  70
    32
  0
VERTEX
  8
0
  5
47E7
 10
73.1237
 20
599.601
 30
1.44247e-14
  70
    32
  0
VERTEX
  8
0
  5
47E8
 10
73.1114
 20
599.614
 30
1.44223e-14
  70
    32
  0
VERTEX
  8
0
  5
47E9
 10
73.0990
 20
599.627
 30
1.44198e-14
  70
    32
  0
VERTEX
  8
0
  5
47EA
 10
73.0864
 20
599.640
 30
1.44173e-14
  70
    32
  0
VERTEX
  8
0
  5
47EB
 10
73.0736
 20
599.652
 30
1.44147e-14
  70
    32
  0
VERTEX
  8
0
  5
47EC
 10
73.0607
 20
599.665
 30
1.44121e-14
  70
    32
  0
VERTEX
  8
0
  5
47ED
 10
73.0476
 20
599.677
 30
1.44095e-14
  70
    32
  0
VERTEX
  8
0
  5
47EE
 10
73.0343
 20
599.689
 30
1.44069e-14
  70
    32
  0
VERTEX
  8
0
  5
47EF
 10
73.0209
 20
599.701
 30
1.44042e-14
  70
    32
  0
VERTEX
  8
0
  5
47F0
 10
73.0073
 20
599.713
 30
1.44015e-14
  70
    32
  0
VERTEX
  8
0
  5
47F1
 10
72.9936
 20
599.724
 30
1.43987e-14
  70
    32
  0
VERTEX
  8
0
  5
47F2
 10
72.9798
 20
599.736
 30
1.43960e-14
  70
    32
  0
VERTEX
  8
0
  5
47F3
 10
72.9657
 20
599.747
 30
1.43931e-14
  70
    32
  0
VERTEX
  8
0
  5
47F4
 10
72.9516
 20
599.758
 30
1.43903e-14
  70
    32
  0
VERTEX
  8
0
  5
47F5
 10
72.9373
 20
599.769
 30
1.43875e-14
  70
    32
  0
VERTEX
  8
0
  5
47F6
 10
72.9228
 20
599.780
 30
1.43846e-14
  70
    32
  0
VERTEX
  8
0
  5
47F7
 10
72.9083
 20
599.791
 30
1.43817e-14
  70
    32
  0
VERTEX
  8
0
  5
47F8
 10
72.8935
 20
599.801
 30
1.43787e-14
  70
    32
  0
VERTEX
  8
0
  5
47F9
 10
72.8787
 20
599.812
 30
1.43757e-14
  70
    32
  0
VERTEX
  8
0
  5
47FA
 10
72.8637
 20
599.822
 30
1.43727e-14
  70
    32
  0
VERTEX
  8
0
  5
47FB
 10
72.8486
 20
599.832
 30
1.43697e-14
  70
    32
  0
VERTEX
  8
0
  5
47FC
 10
72.8334
 20
599.841
 30
1.43667e-14
  70
    32
  0
VERTEX
  8
0
  5
47FD
 10
72.8180
 20
599.851
 30
1.43636e-14
  70
    32
  0
VERTEX
  8
0
  5
47FE
 10
72.8025
 20
599.860
 30
1.43605e-14
  70
    32
  0
VERTEX
  8
0
  5
47FF
 10
72.7869
 20
599.870
 30
1.43574e-14
  70
    32
  0
VERTEX
  8
0
  5
4800
 10
72.7712
 20
599.879
 30
1.43542e-14
  70
    32
  0
VERTEX
  8
0
  5
4801
 10
72.7553
 20
599.887
 30
1.43511e-14
  70
    32
  0
VERTEX
  8
0
  5
4802
 10
72.7393
 20
599.896
 30
1.43479e-14
  70
    32
  0
VERTEX
  8
0
  5
4803
 10
72.7233
 20
599.905
 30
1.43447e-14
  70
    32
  0
VERTEX
  8
0
  5
4804
 10
72.7071
 20
599.913
 30
1.43414e-14
  70
    32
  0
VERTEX
  8
0
  5
4805
 10
72.6908
 20
599.921
 30
1.43382e-14
  70
    32
  0
VERTEX
  8
0
  5
4806
 10
72.6744
 20
599.929
 30
1.43349e-14
  70
    32
  0
VERTEX
  8
0
  5
4807
 10
72.6579
 20
599.937
 30
1.43316e-14
  70
    32
  0
VERTEX
  8
0
  5
4808
 10
72.6413
 20
599.944
 30
1.43283e-14
  70
    32
  0
VERTEX
  8
0
  5
4809
 10
72.6246
 20
599.952
 30
1.43249e-14
  70
    32
  0
VERTEX
  8
0
  5
480A
 10
72.6079
 20
599.959
 30
1.43216e-14
  70
    32
  0
VERTEX
  8
0
  5
480B
 10
72.5910
 20
599.966
 30
1.43182e-14
  70
    32
  0
VERTEX
  8
0
  5
480C
 10
72.5740
 20
599.973
 30
1.43148e-14
  70
    32
  0
VERTEX
  8
0
  5
480D
 10
72.5570
 20
599.979
 30
1.43114e-14
  70
    32
  0
VERTEX
  8
0
  5
480E
 10
72.5398
 20
599.985
 30
1.43080e-14
  70
    32
  0
VERTEX
  8
0
  5
480F
 10
72.5226
 20
599.992
 30
1.43045e-14
  70
    32
  0
VERTEX
  8
0
  5
4810
 10
72.5053
 20
599.998
 30
1.43011e-14
  70
    32
  0
VERTEX
  8
0
  5
4811
 10
72.4880
 20
600.003
 30
1.42976e-14
  70
    32
  0
VERTEX
  8
0
  5
4812
 10
72.4705
 20
600.009
 30
1.42941e-14
  70
    32
  0
VERTEX
  8
0
  5
4813
 10
72.4530
 20
600.014
 30
1.42906e-14
  70
    32
  0
VERTEX
  8
0
  5
4814
 10
72.4354
 20
600.019
 30
1.42871e-14
  70
    32
  0
VERTEX
  8
0
  5
4815
 10
72.4178
 20
600.024
 30
1.42836e-14
  70
    32
  0
VERTEX
  8
0
  5
4816
 10
72.4001
 20
600.029
 30
1.42800e-14
  70
    32
  0
VERTEX
  8
0
  5
4817
 10
72.3823
 20
600.034
 30
1.42765e-14
  70
    32
  0
VERTEX
  8
0
  5
4818
 10
72.3645
 20
600.038
 30
1.42729e-14
  70
    32
  0
VERTEX
  8
0
  5
4819
 10
72.3466
 20
600.042
 30
1.42693e-14
  70
    32
  0
VERTEX
  8
0
  5
481A
 10
72.3287
 20
600.046
 30
1.42657e-14
  70
    32
  0
VERTEX
  8
0
  5
481B
 10
72.3107
 20
600.050
 30
1.42621e-14
  70
    32
  0
VERTEX
  8
0
  5
481C
 10
72.2926
 20
600.053
 30
1.42585e-14
  70
    32
  0
VERTEX
  8
0
  5
481D
 10
72.2746
 20
600.057
 30
1.42549e-14
  70
    32
  0
VERTEX
  8
0
  5
481E
 10
72.2564
 20
600.060
 30
1.42513e-14
  70
    32
  0
VERTEX
  8
0
  5
481F
 10
72.2383
 20
600.063
 30
1.42477e-14
  70
    32
  0
VERTEX
  8
0
  5
4820
 10
72.2201
 20
600.065
 30
1.42440e-14
  70
    32
  0
VERTEX
  8
0
  5
4821
 10
72.2019
 20
600.068
 30
1.42404e-14
  70
    32
  0
VERTEX
  8
0
  5
4822
 10
72.1836
 20
600.070
 30
1.42367e-14
  70
    32
  0
VERTEX
  8
0
  5
4823
 10
72.1653
 20
600.072
 30
1.42331e-14
  70
    32
  0
VERTEX
  8
0
  5
4824
 10
72.1470
 20
600.074
 30
1.42294e-14
  70
    32
  0
VERTEX
  8
0
  5
4825
 10
72.1287
 20
600.075
 30
1.42257e-14
  70
    32
  0
VERTEX
  8
0
  5
4826
 10
72.1103
 20
600.077
 30
1.42221e-14
  70
    32
  0
VERTEX
  8
0
  5
4827
 10
72.0920
 20
600.078
 30
1.42184e-14
  70
    32
  0
VERTEX
  8
0
  5
4828
 10
72.0736
 20
600.079
 30
1.42147e-14
  70
    32
  0
VERTEX
  8
0
  5
4829
 10
72.0552
 20
600.080
 30
1.42110e-14
  70
    32
  0
VERTEX
  8
0
  5
482A
 10
72.0368
 20
600.080
 30
1.42074e-14
  70
    32
  0
VERTEX
  8
0
  5
482B
 10
72.0184
 20
600.080
 30
1.42037e-14
  70
    32
  0
VERTEX
  8
0
  5
482C
 10
72.0000
 20
600.081
 30
1.42000e-14
  70
    32
  0
SEQEND
  8
0
  5
482D
  0
LINE
  5
44E4
  8
0
  6
CONTINUOUS
 62
     3
 10
73.5000000000005116
 20
555.6810834768911036
 30
0.000000000000016
 11
73.5000000000002558
 21
598.6611192644646735
 31
0.000000000000016
  0
LINE
  5
44E5
  8
0
  6
CONTINUOUS
 62
     3
 10
74.2500000000003411
 20
555.6047614421855769
 30
0.0000000000000169
 11
75.0000000000004832
 21
555.6047614421855769
 31
0.000000000000017
  0
LINE
  5
44E6
  8
0
  6
CONTINUOUS
 62
     3
 10
75.0000000000002558
 20
598.6611192644646735
 30
0.0000000000000142
 11
75.0000000000005116
 21
555.6047614421855769
 31
0.0000000000000142
  0
POLYLINE
  5
44E7
  8
0
  6
CONTINUOUS
 62
     3
 10
72.0000000000002416
 20
601.4999999999995453
 30
0.0000000000000142
 66
     1
 70
     8
  0
VERTEX
  8
0
  5
482E
 10
72.0000
 20
601.500
 30
1.42000e-14
  70
    32
  0
VERTEX
  8
0
  5
482F
 10
72.0368
 20
601.500
 30
1.42086e-14
  70
    32
  0
VERTEX
  8
0
  5
4830
 10
72.0736
 20
601.499
 30
1.42172e-14
  70
    32
  0
VERTEX
  8
0
  5
4831
 10
72.1104
 20
601.498
 30
1.42258e-14
  70
    32
  0
VERTEX
  8
0
  5
4832
 10
72.1472
 20
601.497
 30
1.42343e-14
  70
    32
  0
VERTEX
  8
0
  5
4833
 10
72.1840
 20
601.495
 30
1.42429e-14
  70
    32
  0
VERTEX
  8
0
  5
4834
 10
72.2207
 20
601.492
 30
1.42515e-14
  70
    32
  0
VERTEX
  8
0
  5
4835
 10
72.2574
 20
601.490
 30
1.42601e-14
  70
    32
  0
VERTEX
  8
0
  5
4836
 10
72.2941
 20
601.486
 30
1.42686e-14
  70
    32
  0
VERTEX
  8
0
  5
4837
 10
72.3307
 20
601.483
 30
1.42772e-14
  70
    32
  0
VERTEX
  8
0
  5
4838
 10
72.3672
 20
601.479
 30
1.42857e-14
  70
    32
  0
VERTEX
  8
0
  5
4839
 10
72.4037
 20
601.474
 30
1.42942e-14
  70
    32
  0
VERTEX
  8
0
  5
483A
 10
72.4402
 20
601.469
 30
1.43027e-14
  70
    32
  0
VERTEX
  8
0
  5
483B
 10
72.4766
 20
601.464
 30
1.43112e-14
  70
    32
  0
VERTEX
  8
0
  5
483C
 10
72.5129
 20
601.458
 30
1.43197e-14
  70
    32
  0
VERTEX
  8
0
  5
483D
 10
72.5491
 20
601.452
 30
1.43281e-14
  70
    32
  0
VERTEX
  8
0
  5
483E
 10
72.5853
 20
601.445
 30
1.43366e-14
  70
    32
  0
VERTEX
  8
0
  5
483F
 10
72.6213
 20
601.438
 30
1.43450e-14
  70
    32
  0
VERTEX
  8
0
  5
4840
 10
72.6573
 20
601.431
 30
1.43534e-14
  70
    32
  0
VERTEX
  8
0
  5
4841
 10
72.6932
 20
601.423
 30
1.43617e-14
  70
    32
  0
VERTEX
  8
0
  5
4842
 10
72.7289
 20
601.415
 30
1.43701e-14
  70
    32
  0
VERTEX
  8
0
  5
4843
 10
72.7646
 20
601.406
 30
1.43784e-14
  70
    32
  0
VERTEX
  8
0
  5
4844
 10
72.8001
 20
601.397
 30
1.43867e-14
  70
    32
  0
VERTEX
  8
0
  5
4845
 10
72.8356
 20
601.388
 30
1.43950e-14
  70
    32
  0
VERTEX
  8
0
  5
4846
 10
72.8709
 20
601.378
 30
1.44032e-14
  70
    32
  0
VERTEX
  8
0
  5
4847
 10
72.9060
 20
601.367
 30
1.44114e-14
  70
    32
  0
VERTEX
  8
0
  5
4848
 10
72.9410
 20
601.357
 30
1.44196e-14
  70
    32
  0
VERTEX
  8
0
  5
4849
 10
72.9759
 20
601.346
 30
1.44277e-14
  70
    32
  0
VERTEX
  8
0
  5
484A
 10
73.0107
 20
601.334
 30
1.44358e-14
  70
    32
  0
VERTEX
  8
0
  5
484B
 10
73.0453
 20
601.322
 30
1.44439e-14
  70
    32
  0
VERTEX
  8
0
  5
484C
 10
73.0797
 20
601.310
 30
1.44519e-14
  70
    32
  0
VERTEX
  8
0
  5
484D
 10
73.1140
 20
601.297
 30
1.44599e-14
  70
    32
  0
VERTEX
  8
0
  5
484E
 10
73.1481
 20
601.284
 30
1.44679e-14
  70
    32
  0
VERTEX
  8
0
  5
484F
 10
73.1820
 20
601.270
 30
1.44758e-14
  70
    32
  0
VERTEX
  8
0
  5
4850
 10
73.2157
 20
601.256
 30
1.44837e-14
  70
    32
  0
VERTEX
  8
0
  5
4851
 10
73.2493
 20
601.242
 30
1.44915e-14
  70
    32
  0
VERTEX
  8
0
  5
4852
 10
73.2827
 20
601.227
 30
1.44993e-14
  70
    32
  0
VERTEX
  8
0
  5
4853
 10
73.3158
 20
601.212
 30
1.45070e-14
  70
    32
  0
VERTEX
  8
0
  5
4854
 10
73.3488
 20
601.197
 30
1.45147e-14
  70
    32
  0
VERTEX
  8
0
  5
4855
 10
73.3816
 20
601.181
 30
1.45224e-14
  70
    32
  0
VERTEX
  8
0
  5
4856
 10
73.4142
 20
601.165
 30
1.45300e-14
  70
    32
  0
VERTEX
  8
0
  5
4857
 10
73.4466
 20
601.148
 30
1.45375e-14
  70
    32
  0
VERTEX
  8
0
  5
4858
 10
73.4787
 20
601.131
 30
1.45450e-14
  70
    32
  0
VERTEX
  8
0
  5
4859
 10
73.5106
 20
601.114
 30
1.45525e-14
  70
    32
  0
VERTEX
  8
0
  5
485A
 10
73.5423
 20
601.096
 30
1.45599e-14
  70
    32
  0
VERTEX
  8
0
  5
485B
 10
73.5738
 20
601.078
 30
1.45672e-14
  70
    32
  0
VERTEX
  8
0
  5
485C
 10
73.6050
 20
601.060
 30
1.45745e-14
  70
    32
  0
VERTEX
  8
0
  5
485D
 10
73.6360
 20
601.041
 30
1.45817e-14
  70
    32
  0
VERTEX
  8
0
  5
485E
 10
73.6667
 20
601.022
 30
1.45889e-14
  70
    32
  0
VERTEX
  8
0
  5
485F
 10
73.6972
 20
601.002
 30
1.45960e-14
  70
    32
  0
VERTEX
  8
0
  5
4860
 10
73.7274
 20
600.982
 30
1.46031e-14
  70
    32
  0
VERTEX
  8
0
  5
4861
 10
73.7574
 20
600.962
 30
1.46101e-14
  70
    32
  0
VERTEX
  8
0
  5
4862
 10
73.7871
 20
600.941
 30
1.46170e-14
  70
    32
  0
VERTEX
  8
0
  5
4863
 10
73.8165
 20
600.920
 30
1.46239e-14
  70
    32
  0
VERTEX
  8
0
  5
4864
 10
73.8457
 20
600.899
 30
1.46307e-14
  70
    32
  0
VERTEX
  8
0
  5
4865
 10
73.8746
 20
600.878
 30
1.46374e-14
  70
    32
  0
VERTEX
  8
0
  5
4866
 10
73.9032
 20
600.856
 30
1.46441e-14
  70
    32
  0
VERTEX
  8
0
  5
4867
 10
73.9315
 20
600.833
 30
1.46507e-14
  70
    32
  0
VERTEX
  8
0
  5
4868
 10
73.9595
 20
600.811
 30
1.46572e-14
  70
    32
  0
VERTEX
  8
0
  5
4869
 10
73.9872
 20
600.788
 30
1.46637e-14
  70
    32
  0
VERTEX
  8
0
  5
486A
 10
74.0147
 20
600.765
 30
1.46701e-14
  70
    32
  0
VERTEX
  8
0
  5
486B
 10
74.0418
 20
600.741
 30
1.46764e-14
  70
    32
  0
VERTEX
  8
0
  5
486C
 10
74.0686
 20
600.717
 30
1.46827e-14
  70
    32
  0
VERTEX
  8
0
  5
486D
 10
74.0951
 20
600.693
 30
1.46889e-14
  70
    32
  0
VERTEX
  8
0
  5
486E
 10
74.1213
 20
600.669
 30
1.46950e-14
  70
    32
  0
VERTEX
  8
0
  5
486F
 10
74.1472
 20
600.644
 30
1.47010e-14
  70
    32
  0
VERTEX
  8
0
  5
4870
 10
74.1727
 20
600.619
 30
1.47070e-14
  70
    32
  0
VERTEX
  8
0
  5
4871
 10
74.1980
 20
600.593
 30
1.47129e-14
  70
    32
  0
VERTEX
  8
0
  5
4872
 10
74.2229
 20
600.568
 30
1.47187e-14
  70
    32
  0
VERTEX
  8
0
  5
4873
 10
74.2474
 20
600.542
 30
1.47244e-14
  70
    32
  0
VERTEX
  8
0
  5
4874
 10
74.2716
 20
600.515
 30
1.47300e-14
  70
    32
  0
VERTEX
  8
0
  5
4875
 10
74.2955
 20
600.489
 30
1.47356e-14
  70
    32
  0
VERTEX
  8
0
  5
4876
 10
74.3190
 20
600.462
 30
1.47411e-14
  70
    32
  0
VERTEX
  8
0
  5
4877
 10
74.3422
 20
600.435
 30
1.47465e-14
  70
    32
  0
VERTEX
  8
0
  5
4878
 10
74.3650
 20
600.408
 30
1.47518e-14
  70
    32
  0
VERTEX
  8
0
  5
4879
 10
74.3875
 20
600.380
 30
1.47571e-14
  70
    32
  0
VERTEX
  8
0
  5
487A
 10
74.4096
 20
600.352
 30
1.47622e-14
  70
    32
  0
VERTEX
  8
0
  5
487B
 10
74.4314
 20
600.324
 30
1.47673e-14
  70
    32
  0
VERTEX
  8
0
  5
487C
 10
74.4528
 20
600.296
 30
1.47723e-14
  70
    32
  0
VERTEX
  8
0
  5
487D
 10
74.4738
 20
600.267
 30
1.47772e-14
  70
    32
  0
VERTEX
  8
0
  5
487E
 10
74.4944
 20
600.238
 30
1.47820e-14
  70
    32
  0
VERTEX
  8
0
  5
487F
 10
74.5147
 20
600.209
 30
1.47868e-14
  70
    32
  0
VERTEX
  8
0
  5
4880
 10
74.5346
 20
600.180
 30
1.47914e-14
  70
    32
  0
VERTEX
  8
0
  5
4881
 10
74.5541
 20
600.150
 30
1.47959e-14
  70
    32
  0
VERTEX
  8
0
  5
4882
 10
74.5732
 20
600.121
 30
1.48004e-14
  70
    32
  0
VERTEX
  8
0
  5
4883
 10
74.5919
 20
600.091
 30
1.48048e-14
  70
    32
  0
VERTEX
  8
0
  5
4884
 10
74.6103
 20
600.060
 30
1.48091e-14
  70
    32
  0
VERTEX
  8
0
  5
4885
 10
74.6282
 20
600.030
 30
1.48132e-14
  70
    32
  0
VERTEX
  8
0
  5
4886
 10
74.6458
 20
599.999
 30
1.48173e-14
  70
    32
  0
VERTEX
  8
0
  5
4887
 10
74.6629
 20
599.969
 30
1.48213e-14
  70
    32
  0
VERTEX
  8
0
  5
4888
 10
74.6797
 20
599.938
 30
1.48253e-14
  70
    32
  0
VERTEX
  8
0
  5
4889
 10
74.6960
 20
599.906
 30
1.48291e-14
  70
    32
  0
VERTEX
  8
0
  5
488A
 10
74.7120
 20
599.875
 30
1.48328e-14
  70
    32
  0
VERTEX
  8
0
  5
488B
 10
74.7275
 20
599.843
 30
1.48364e-14
  70
    32
  0
VERTEX
  8
0
  5
488C
 10
74.7426
 20
599.812
 30
1.48399e-14
  70
    32
  0
VERTEX
  8
0
  5
488D
 10
74.7573
 20
599.780
 30
1.48434e-14
  70
    32
  0
VERTEX
  8
0
  5
488E
 10
74.7716
 20
599.748
 30
1.48467e-14
  70
    32
  0
VERTEX
  8
0
  5
488F
 10
74.7855
 20
599.715
 30
1.48500e-14
  70
    32
  0
VERTEX
  8
0
  5
4890
 10
74.7990
 20
599.683
 30
1.48531e-14
  70
    32
  0
VERTEX
  8
0
  5
4891
 10
74.8120
 20
599.650
 30
1.48561e-14
  70
    32
  0
VERTEX
  8
0
  5
4892
 10
74.8246
 20
599.618
 30
1.48591e-14
  70
    32
  0
VERTEX
  8
0
  5
4893
 10
74.8368
 20
599.585
 30
1.48619e-14
  70
    32
  0
VERTEX
  8
0
  5
4894
 10
74.8486
 20
599.552
 30
1.48647e-14
  70
    32
  0
VERTEX
  8
0
  5
4895
 10
74.8599
 20
599.518
 30
1.48673e-14
  70
    32
  0
VERTEX
  8
0
  5
4896
 10
74.8708
 20
599.485
 30
1.48699e-14
  70
    32
  0
VERTEX
  8
0
  5
4897
 10
74.8813
 20
599.452
 30
1.48723e-14
  70
    32
  0
VERTEX
  8
0
  5
4898
 10
74.8913
 20
599.418
 30
1.48746e-14
  70
    32
  0
VERTEX
  8
0
  5
4899
 10
74.9009
 20
599.385
 30
1.48769e-14
  70
    32
  0
VERTEX
  8
0
  5
489A
 10
74.9101
 20
599.351
 30
1.48790e-14
  70
    32
  0
VERTEX
  8
0
  5
489B
 10
74.9188
 20
599.317
 30
1.48811e-14
  70
    32
  0
VERTEX
  8
0
  5
489C
 10
74.9271
 20
599.283
 30
1.48830e-14
  70
    32
  0
VERTEX
  8
0
  5
489D
 10
74.9350
 20
599.249
 30
1.48848e-14
  70
    32
  0
VERTEX
  8
0
  5
489E
 10
74.9424
 20
599.215
 30
1.48865e-14
  70
    32
  0
VERTEX
  8
0
  5
489F
 10
74.9493
 20
599.181
 30
1.48882e-14
  70
    32
  0
VERTEX
  8
0
  5
48A0
 10
74.9558
 20
599.146
 30
1.48897e-14
  70
    32
  0
VERTEX
  8
0
  5
48A1
 10
74.9619
 20
599.112
 30
1.48911e-14
  70
    32
  0
VERTEX
  8
0
  5
48A2
 10
74.9675
 20
599.078
 30
1.48924e-14
  70
    32
  0
VERTEX
  8
0
  5
48A3
 10
74.9727
 20
599.043
 30
1.48936e-14
  70
    32
  0
VERTEX
  8
0
  5
48A4
 10
74.9774
 20
599.009
 30
1.48947e-14
  70
    32
  0
VERTEX
  8
0
  5
48A5
 10
74.9817
 20
598.974
 30
1.48957e-14
  70
    32
  0
VERTEX
  8
0
  5
48A6
 10
74.9856
 20
598.939
 30
1.48966e-14
  70
    32
  0
VERTEX
  8
0
  5
48A7
 10
74.9889
 20
598.905
 30
1.48974e-14
  70
    32
  0
VERTEX
  8
0
  5
48A8
 10
74.9919
 20
598.870
 30
1.48981e-14
  70
    32
  0
VERTEX
  8
0
  5
48A9
 10
74.9944
 20
598.835
 30
1.48987e-14
  70
    32
  0
VERTEX
  8
0
  5
48AA
 10
74.9964
 20
598.800
 30
1.48992e-14
  70
    32
  0
VERTEX
  8
0
  5
48AB
 10
74.9980
 20
598.766
 30
1.48995e-14
  70
    32
  0
VERTEX
  8
0
  5
48AC
 10
74.9991
 20
598.731
 30
1.48998e-14
  70
    32
  0
VERTEX
  8
0
  5
48AD
 10
74.9998
 20
598.696
 30
1.48999e-14
  70
    32
  0
VERTEX
  8
0
  5
48AE
 10
75.0000
 20
598.661
 30
1.49000e-14
  70
    32
  0
SEQEND
  8
0
  5
48AF
  0
LINE
  5
44E8
  8
0
  6
CONTINUOUS
 62
     3
 10
-71.9999999999998437
 20
601.4999999999996589
 30
-0.0000000000000142
 11
72.0000000000002558
 21
601.4999999999996589
 31
0.0000000000000178
  0
POLYLINE
  5
44E9
  8
0
  6
CONTINUOUS
 62
     3
 10
-74.9999999999998437
 20
598.6611192644646735
 30
-0.0000000000000149
 66
     1
 70
     8
  0
VERTEX
  8
0
  5
48B0
 10
-75.0000
 20
598.661
 30
-1.49000e-14
  70
    32
  0
VERTEX
  8
0
  5
48B1
 10
-74.9998
 20
598.696
 30
-1.48999e-14
  70
    32
  0
VERTEX
  8
0
  5
48B2
 10
-74.9991
 20
598.731
 30
-1.48998e-14
  70
    32
  0
VERTEX
  8
0
  5
48B3
 10
-74.9980
 20
598.766
 30
-1.48995e-14
  70
    32
  0
VERTEX
  8
0
  5
48B4
 10
-74.9964
 20
598.800
 30
-1.48992e-14
  70
    32
  0
VERTEX
  8
0
  5
48B5
 10
-74.9944
 20
598.835
 30
-1.48987e-14
  70
    32
  0
VERTEX
  8
0
  5
48B6
 10
-74.9919
 20
598.870
 30
-1.48981e-14
  70
    32
  0
VERTEX
  8
0
  5
48B7
 10
-74.9889
 20
598.905
 30
-1.48974e-14
  70
    32
  0
VERTEX
  8
0
  5
48B8
 10
-74.9856
 20
598.939
 30
-1.48966e-14
  70
    32
  0
VERTEX
  8
0
  5
48B9
 10
-74.9817
 20
598.974
 30
-1.48957e-14
  70
    32
  0
VERTEX
  8
0
  5
48BA
 10
-74.9774
 20
599.009
 30
-1.48947e-14
  70
    32
  0
VERTEX
  8
0
  5
48BB
 10
-74.9727
 20
599.043
 30
-1.48936e-14
  70
    32
  0
VERTEX
  8
0
  5
48BC
 10
-74.9675
 20
599.078
 30
-1.48924e-14
  70
    32
  0
VERTEX
  8
0
  5
48BD
 10
-74.9619
 20
599.112
 30
-1.48911e-14
  70
    32
  0
VERTEX
  8
0
  5
48BE
 10
-74.9558
 20
599.146
 30
-1.48897e-14
  70
    32
  0
VERTEX
  8
0
  5
48BF
 10
-74.9493
 20
599.181
 30
-1.48882e-14
  70
    32
  0
VERTEX
  8
0
  5
48C0
 10
-74.9424
 20
599.215
 30
-1.48865e-14
  70
    32
  0
VERTEX
  8
0
  5
48C1
 10
-74.9350
 20
599.249
 30
-1.48848e-14
  70
    32
  0
VERTEX
  8
0
  5
48C2
 10
-74.9271
 20
599.283
 30
-1.48830e-14
  70
    32
  0
VERTEX
  8
0
  5
48C3
 10
-74.9188
 20
599.317
 30
-1.48811e-14
  70
    32
  0
VERTEX
  8
0
  5
48C4
 10
-74.9101
 20
599.351
 30
-1.48790e-14
  70
    32
  0
VERTEX
  8
0
  5
48C5
 10
-74.9009
 20
599.385
 30
-1.48769e-14
  70
    32
  0
VERTEX
  8
0
  5
48C6
 10
-74.8913
 20
599.418
 30
-1.48746e-14
  70
    32
  0
VERTEX
  8
0
  5
48C7
 10
-74.8813
 20
599.452
 30
-1.48723e-14
  70
    32
  0
VERTEX
  8
0
  5
48C8
 10
-74.8708
 20
599.485
 30
-1.48699e-14
  70
    32
  0
VERTEX
  8
0
  5
48C9
 10
-74.8599
 20
599.518
 30
-1.48673e-14
  70
    32
  0
VERTEX
  8
0
  5
48CA
 10
-74.8486
 20
599.552
 30
-1.48647e-14
  70
    32
  0
VERTEX
  8
0
  5
48CB
 10
-74.8368
 20
599.585
 30
-1.48619e-14
  70
    32
  0
VERTEX
  8
0
  5
48CC
 10
-74.8246
 20
599.618
 30
-1.48591e-14
  70
    32
  0
VERTEX
  8
0
  5
48CD
 10
-74.8120
 20
599.650
 30
-1.48561e-14
  70
    32
  0
VERTEX
  8
0
  5
48CE
 10
-74.7990
 20
599.683
 30
-1.48531e-14
  70
    32
  0
VERTEX
  8
0
  5
48CF
 10
-74.7855
 20
599.715
 30
-1.48500e-14
  70
    32
  0
VERTEX
  8
0
  5
48D0
 10
-74.7716
 20
599.748
 30
-1.48467e-14
  70
    32
  0
VERTEX
  8
0
  5
48D1
 10
-74.7573
 20
599.780
 30
-1.48434e-14
  70
    32
  0
VERTEX
  8
0
  5
48D2
 10
-74.7426
 20
599.812
 30
-1.48399e-14
  70
    32
  0
VERTEX
  8
0
  5
48D3
 10
-74.7275
 20
599.843
 30
-1.48364e-14
  70
    32
  0
VERTEX
  8
0
  5
48D4
 10
-74.7120
 20
599.875
 30
-1.48328e-14
  70
    32
  0
VERTEX
  8
0
  5
48D5
 10
-74.6960
 20
599.906
 30
-1.48291e-14
  70
    32
  0
VERTEX
  8
0
  5
48D6
 10
-74.6797
 20
599.938
 30
-1.48253e-14
  70
    32
  0
VERTEX
  8
0
  5
48D7
 10
-74.6629
 20
599.969
 30
-1.48213e-14
  70
    32
  0
VERTEX
  8
0
  5
48D8
 10
-74.6458
 20
599.999
 30
-1.48173e-14
  70
    32
  0
VERTEX
  8
0
  5
48D9
 10
-74.6282
 20
600.030
 30
-1.48132e-14
  70
    32
  0
VERTEX
  8
0
  5
48DA
 10
-74.6103
 20
600.060
 30
-1.48091e-14
  70
    32
  0
VERTEX
  8
0
  5
48DB
 10
-74.5919
 20
600.091
 30
-1.48048e-14
  70
    32
  0
VERTEX
  8
0
  5
48DC
 10
-74.5732
 20
600.121
 30
-1.48004e-14
  70
    32
  0
VERTEX
  8
0
  5
48DD
 10
-74.5541
 20
600.150
 30
-1.47959e-14
  70
    32
  0
VERTEX
  8
0
  5
48DE
 10
-74.5346
 20
600.180
 30
-1.47914e-14
  70
    32
  0
VERTEX
  8
0
  5
48DF
 10
-74.5147
 20
600.209
 30
-1.47868e-14
  70
    32
  0
VERTEX
  8
0
  5
48E0
 10
-74.4944
 20
600.238
 30
-1.47820e-14
  70
    32
  0
VERTEX
  8
0
  5
48E1
 10
-74.4738
 20
600.267
 30
-1.47772e-14
  70
    32
  0
VERTEX
  8
0
  5
48E2
 10
-74.4528
 20
600.296
 30
-1.47723e-14
  70
    32
  0
VERTEX
  8
0
  5
48E3
 10
-74.4314
 20
600.324
 30
-1.47673e-14
  70
    32
  0
VERTEX
  8
0
  5
48E4
 10
-74.4096
 20
600.352
 30
-1.47622e-14
  70
    32
  0
VERTEX
  8
0
  5
48E5
 10
-74.3875
 20
600.380
 30
-1.47571e-14
  70
    32
  0
VERTEX
  8
0
  5
48E6
 10
-74.3650
 20
600.408
 30
-1.47518e-14
  70
    32
  0
VERTEX
  8
0
  5
48E7
 10
-74.3422
 20
600.435
 30
-1.47465e-14
  70
    32
  0
VERTEX
  8
0
  5
48E8
 10
-74.3190
 20
600.462
 30
-1.47411e-14
  70
    32
  0
VERTEX
  8
0
  5
48E9
 10
-74.2955
 20
600.489
 30
-1.47356e-14
  70
    32
  0
VERTEX
  8
0
  5
48EA
 10
-74.2716
 20
600.515
 30
-1.47300e-14
  70
    32
  0
VERTEX
  8
0
  5
48EB
 10
-74.2474
 20
600.542
 30
-1.47244e-14
  70
    32
  0
VERTEX
  8
0
  5
48EC
 10
-74.2229
 20
600.568
 30
-1.47187e-14
  70
    32
  0
VERTEX
  8
0
  5
48ED
 10
-74.1980
 20
600.593
 30
-1.47129e-14
  70
    32
  0
VERTEX
  8
0
  5
48EE
 10
-74.1727
 20
600.619
 30
-1.47070e-14
  70
    32
  0
VERTEX
  8
0
  5
48EF
 10
-74.1472
 20
600.644
 30
-1.47010e-14
  70
    32
  0
VERTEX
  8
0
  5
48F0
 10
-74.1213
 20
600.669
 30
-1.46950e-14
  70
    32
  0
VERTEX
  8
0
  5
48F1
 10
-74.0951
 20
600.693
 30
-1.46889e-14
  70
    32
  0
VERTEX
  8
0
  5
48F2
 10
-74.0686
 20
600.717
 30
-1.46827e-14
  70
    32
  0
VERTEX
  8
0
  5
48F3
 10
-74.0418
 20
600.741
 30
-1.46764e-14
  70
    32
  0
VERTEX
  8
0
  5
48F4
 10
-74.0147
 20
600.765
 30
-1.46701e-14
  70
    32
  0
VERTEX
  8
0
  5
48F5
 10
-73.9872
 20
600.788
 30
-1.46637e-14
  70
    32
  0
VERTEX
  8
0
  5
48F6
 10
-73.9595
 20
600.811
 30
-1.46572e-14
  70
    32
  0
VERTEX
  8
0
  5
48F7
 10
-73.9315
 20
600.833
 30
-1.46507e-14
  70
    32
  0
VERTEX
  8
0
  5
48F8
 10
-73.9032
 20
600.856
 30
-1.46441e-14
  70
    32
  0
VERTEX
  8
0
  5
48F9
 10
-73.8746
 20
600.878
 30
-1.46374e-14
  70
    32
  0
VERTEX
  8
0
  5
48FA
 10
-73.8457
 20
600.899
 30
-1.46307e-14
  70
    32
  0
VERTEX
  8
0
  5
48FB
 10
-73.8165
 20
600.920
 30
-1.46239e-14
  70
    32
  0
VERTEX
  8
0
  5
48FC
 10
-73.7871
 20
600.941
 30
-1.46170e-14
  70
    32
  0
VERTEX
  8
0
  5
48FD
 10
-73.7574
 20
600.962
 30
-1.46101e-14
  70
    32
  0
VERTEX
  8
0
  5
48FE
 10
-73.7274
 20
600.982
 30
-1.46031e-14
  70
    32
  0
VERTEX
  8
0
  5
48FF
 10
-73.6972
 20
601.002
 30
-1.45960e-14
  70
    32
  0
VERTEX
  8
0
  5
4900
 10
-73.6667
 20
601.022
 30
-1.45889e-14
  70
    32
  0
VERTEX
  8
0
  5
4901
 10
-73.6360
 20
601.041
 30
-1.45817e-14
  70
    32
  0
VERTEX
  8
0
  5
4902
 10
-73.6050
 20
601.060
 30
-1.45745e-14
  70
    32
  0
VERTEX
  8
0
  5
4903
 10
-73.5738
 20
601.078
 30
-1.45672e-14
  70
    32
  0
VERTEX
  8
0
  5
4904
 10
-73.5423
 20
601.096
 30
-1.45599e-14
  70
    32
  0
VERTEX
  8
0
  5
4905
 10
-73.5106
 20
601.114
 30
-1.45525e-14
  70
    32
  0
VERTEX
  8
0
  5
4906
 10
-73.4787
 20
601.131
 30
-1.45450e-14
  70
    32
  0
VERTEX
  8
0
  5
4907
 10
-73.4466
 20
601.148
 30
-1.45375e-14
  70
    32
  0
VERTEX
  8
0
  5
4908
 10
-73.4142
 20
601.165
 30
-1.45300e-14
  70
    32
  0
VERTEX
  8
0
  5
4909
 10
-73.3816
 20
601.181
 30
-1.45224e-14
  70
    32
  0
VERTEX
  8
0
  5
490A
 10
-73.3488
 20
601.197
 30
-1.45147e-14
  70
    32
  0
VERTEX
  8
0
  5
490B
 10
-73.3158
 20
601.212
 30
-1.45070e-14
  70
    32
  0
VERTEX
  8
0
  5
490C
 10
-73.2827
 20
601.227
 30
-1.44993e-14
  70
    32
  0
VERTEX
  8
0
  5
490D
 10
-73.2493
 20
601.242
 30
-1.44915e-14
  70
    32
  0
VERTEX
  8
0
  5
490E
 10
-73.2157
 20
601.256
 30
-1.44837e-14
  70
    32
  0
VERTEX
  8
0
  5
490F
 10
-73.1820
 20
601.270
 30
-1.44758e-14
  70
    32
  0
VERTEX
  8
0
  5
4910
 10
-73.1481
 20
601.284
 30
-1.44679e-14
  70
    32
  0
VERTEX
  8
0
  5
4911
 10
-73.1140
 20
601.297
 30
-1.44599e-14
  70
    32
  0
VERTEX
  8
0
  5
4912
 10
-73.0797
 20
601.310
 30
-1.44519e-14
  70
    32
  0
VERTEX
  8
0
  5
4913
 10
-73.0453
 20
601.322
 30
-1.44439e-14
  70
    32
  0
VERTEX
  8
0
  5
4914
 10
-73.0107
 20
601.334
 30
-1.44358e-14
  70
    32
  0
VERTEX
  8
0
  5
4915
 10
-72.9759
 20
601.346
 30
-1.44277e-14
  70
    32
  0
VERTEX
  8
0
  5
4916
 10
-72.9410
 20
601.357
 30
-1.44196e-14
  70
    32
  0
VERTEX
  8
0
  5
4917
 10
-72.9060
 20
601.367
 30
-1.44114e-14
  70
    32
  0
VERTEX
  8
0
  5
4918
 10
-72.8709
 20
601.378
 30
-1.44032e-14
  70
    32
  0
VERTEX
  8
0
  5
4919
 10
-72.8356
 20
601.388
 30
-1.43950e-14
  70
    32
  0
VERTEX
  8
0
  5
491A
 10
-72.8001
 20
601.397
 30
-1.43867e-14
  70
    32
  0
VERTEX
  8
0
  5
491B
 10
-72.7646
 20
601.406
 30
-1.43784e-14
  70
    32
  0
VERTEX
  8
0
  5
491C
 10
-72.7289
 20
601.415
 30
-1.43701e-14
  70
    32
  0
VERTEX
  8
0
  5
491D
 10
-72.6932
 20
601.423
 30
-1.43617e-14
  70
    32
  0
VERTEX
  8
0
  5
491E
 10
-72.6573
 20
601.431
 30
-1.43534e-14
  70
    32
  0
VERTEX
  8
0
  5
491F
 10
-72.6213
 20
601.438
 30
-1.43450e-14
  70
    32
  0
VERTEX
  8
0
  5
4920
 10
-72.5853
 20
601.445
 30
-1.43366e-14
  70
    32
  0
VERTEX
  8
0
  5
4921
 10
-72.5491
 20
601.452
 30
-1.43281e-14
  70
    32
  0
VERTEX
  8
0
  5
4922
 10
-72.5129
 20
601.458
 30
-1.43197e-14
  70
    32
  0
VERTEX
  8
0
  5
4923
 10
-72.4766
 20
601.464
 30
-1.43112e-14
  70
    32
  0
VERTEX
  8
0
  5
4924
 10
-72.4402
 20
601.469
 30
-1.43027e-14
  70
    32
  0
VERTEX
  8
0
  5
4925
 10
-72.4037
 20
601.474
 30
-1.42942e-14
  70
    32
  0
VERTEX
  8
0
  5
4926
 10
-72.3672
 20
601.479
 30
-1.42857e-14
  70
    32
  0
VERTEX
  8
0
  5
4927
 10
-72.3307
 20
601.483
 30
-1.42772e-14
  70
    32
  0
VERTEX
  8
0
  5
4928
 10
-72.2941
 20
601.486
 30
-1.42686e-14
  70
    32
  0
VERTEX
  8
0
  5
4929
 10
-72.2574
 20
601.490
 30
-1.42601e-14
  70
    32
  0
VERTEX
  8
0
  5
492A
 10
-72.2207
 20
601.492
 30
-1.42515e-14
  70
    32
  0
VERTEX
  8
0
  5
492B
 10
-72.1840
 20
601.495
 30
-1.42429e-14
  70
    32
  0
VERTEX
  8
0
  5
492C
 10
-72.1472
 20
601.497
 30
-1.42343e-14
  70
    32
  0
VERTEX
  8
0
  5
492D
 10
-72.1104
 20
601.498
 30
-1.42258e-14
  70
    32
  0
VERTEX
  8
0
  5
492E
 10
-72.0736
 20
601.499
 30
-1.42172e-14
  70
    32
  0
VERTEX
  8
0
  5
492F
 10
-72.0368
 20
601.500
 30
-1.42086e-14
  70
    32
  0
VERTEX
  8
0
  5
4930
 10
-72.0000
 20
601.500
 30
-1.42000e-14
  70
    32
  0
SEQEND
  8
0
  5
4931
  0
LINE
  5
44EA
  8
0
  6
CONTINUOUS
 62
     3
 10
75.0000000000004832
 20
523.8617506110061868
 30
0.0000000000000169
 11
75.0000000000004832
 21
523.783246676641852
 31
0.0000000000000169
  0
LINE
  5
44EB
  8
0
  6
CONTINUOUS
 62
     3
 10
73.5000000000005116
 20
523.8617506110061868
 30
0.0000000000000164
 11
75.0000000000005116
 21
523.8617506110061868
 31
0.0000000000000168
  0
LINE
  5
44EC
  8
0
  6
CONTINUOUS
 62
     3
 10
-75.0000000000000853
 20
523.783246676641852
 30
-0.0000000000000169
 11
-75.0000000000000853
 21
523.8617506110061868
 31
-0.0000000000000169
  0
LINE
  5
44ED
  8
0
  6
CONTINUOUS
 62
     3
 10
-75.0000000000000853
 20
523.8617506110061868
 30
-0.0000000000000169
 11
-73.5000000000000853
 21
523.8617506110061868
 31
-0.0000000000000165
  0
LINE
  5
44EE
  8
0
  6
CONTINUOUS
 62
     3
 10
75.0000000000005116
 20
528.8548982847792104
 30
0.0000000000000169
 11
73.5000000000005258
 21
528.8548982847792104
 31
0.0000000000000165
  0
LINE
  5
44EF
  8
0
  6
CONTINUOUS
 62
     3
 10
75.0000000000005116
 20
555.6047614421855769
 30
0.0000000000000169
 11
75.0000000000005116
 21
528.8548982847792104
 31
0.0000000000000169
  0
LINE
  5
44F0
  8
0
  6
CONTINUOUS
 62
     3
 10
-75.0000000000000711
 20
528.8548982847792104
 30
-0.0000000000000169
 11
-75.0000000000000711
 21
555.6047614421855769
 31
-0.0000000000000169
  0
LINE
  5
44F1
  8
0
  6
CONTINUOUS
 62
     3
 10
-73.5000000000000853
 20
528.8548982847792104
 30
-0.0000000000000164
 11
-75.0000000000000853
 21
528.8548982847792104
 31
-0.0000000000000168
  0
LINE
  5
44F2
  8
0
  6
CONTINUOUS
 62
     3
 10
-73.5000000000000995
 20
528.8548982847790967
 30
-0.0000000000000164
 11
-73.5000000000000995
 21
523.8617506110061868
 31
-0.0000000000000164
  0
LINE
  5
44F3
  8
0
  6
CONTINUOUS
 62
     3
 10
-75.0000000000000995
 20
528.8548982847790967
 30
-0.0000000000000169
 11
-75.0000000000000995
 21
523.8617506110061868
 31
-0.0000000000000169
  0
LINE
  5
44F4
  8
0
  6
CONTINUOUS
 62
     3
 10
-73.5000000000000853
 20
404.0262064404573152
 30
-0.0000000000000164
 11
-73.5000000000000853
 21
399.033058766684519
 31
-0.0000000000000164
  0
LINE
  5
44F5
  8
0
  6
CONTINUOUS
 62
     3
 10
-75.0000000000000853
 20
404.0262064404573152
 30
-0.0000000000000169
 11
-75.0000000000000853
 21
399.033058766684519
 31
-0.0000000000000169
  0
LINE
  5
44F6
  8
0
  6
CONTINUOUS
 62
     3
 10
-73.5000000000000853
 20
279.1975145961357043
 30
-0.000000000000016
 11
-73.5000000000000853
 21
274.2043669223627944
 31
-0.000000000000016
  0
LINE
  5
44F7
  8
0
  6
CONTINUOUS
 62
     3
 10
-75.0000000000000853
 20
279.1975145961357043
 30
-0.000000000000016
 11
-75.0000000000000853
 21
274.2043669223627944
 31
-0.000000000000016
  0
LINE
  5
44F8
  8
0
  6
CONTINUOUS
 62
     3
 10
-73.5000000000000711
 20
154.3688227518138092
 30
-0.0000000000000178
 11
-73.5000000000000711
 21
149.375675078041013
 31
-0.0000000000000178
  0
LINE
  5
44F9
  8
0
  6
CONTINUOUS
 62
     3
 10
-75.0000000000000711
 20
154.3688227518138092
 30
-0.0000000000000178
 11
-75.0000000000000711
 21
149.375675078041013
 31
-0.0000000000000178
  0
LINE
  5
44FA
  8
0
  6
CONTINUOUS
 62
     3
 10
-73.5000000000000711
 20
29.5401309074921983
 30
-0.0000000000000178
 11
-73.5000000000000711
 21
24.5469832337192884
 31
-0.0000000000000178
  0
LINE
  5
44FB
  8
0
  6
CONTINUOUS
 62
     3
 10
-75.0000000000000711
 20
29.5401309074921983
 30
-0.0000000000000178
 11
-75.0000000000000711
 21
24.5469832337192884
 31
-0.0000000000000178
  0
LINE
  5
44FC
  8
0
  6
CONTINUOUS
 62
     3
 10
75.0000000000005116
 20
523.8617506110061868
 30
0.0000000000000169
 11
75.0000000000005116
 21
528.8548982847790967
 31
0.0000000000000169
  0
LINE
  5
44FD
  8
0
  6
CONTINUOUS
 62
     3
 10
73.5000000000005258
 20
523.8617506110061868
 30
0.0000000000000164
 11
73.5000000000005258
 21
528.8548982847790967
 31
0.0000000000000164
  0
LINE
  5
44FE
  8
0
  6
CONTINUOUS
 62
     3
 10
75.0000000000004832
 20
399.033058766684519
 30
0.0000000000000169
 11
75.0000000000004832
 21
404.0262064404573152
 31
0.0000000000000169
  0
LINE
  5
44FF
  8
0
  6
CONTINUOUS
 62
     3
 10
73.5000000000005116
 20
399.033058766684519
 30
0.000000000000016
 11
73.5000000000005116
 21
404.0262064404573152
 31
0.000000000000016
  0
LINE
  5
4500
  8
0
  6
CONTINUOUS
 62
     3
 10
75.0000000000004832
 20
274.2043669223626807
 30
0.000000000000016
 11
75.0000000000004832
 21
279.1975145961355906
 31
0.000000000000016
  0
LINE
  5
4501
  8
0
  6
CONTINUOUS
 62
     3
 10
73.5000000000004974
 20
274.2043669223626807
 30
0.000000000000016
 11
73.5000000000004974
 21
279.1975145961355906
 31
0.000000000000016
  0
LINE
  5
4502
  8
0
  6
CONTINUOUS
 62
     3
 10
75.0000000000004832
 20
149.3756750780408993
 30
0.0000000000000178
 11
75.0000000000004832
 21
154.3688227518138092
 31
0.0000000000000178
  0
LINE
  5
4503
  8
0
  6
CONTINUOUS
 62
     3
 10
73.5000000000004974
 20
149.3756750780408993
 30
0.0000000000000178
 11
73.5000000000004974
 21
154.3688227518138092
 31
0.0000000000000178
  0
LINE
  5
4504
  8
0
  6
CONTINUOUS
 62
     3
 10
73.5000000000004832
 20
24.5469832337192209
 30
0.0000000000000178
 11
73.5000000000004832
 21
29.5401309074920917
 31
0.0000000000000178
  0
LINE
  5
4505
  8
0
  6
CONTINUOUS
 62
     3
 10
75.000000000000469
 20
24.5469832337192209
 30
0.0000000000000178
 11
75.000000000000469
 21
29.5401309074920917
 31
0.0000000000000178
  0
LINE
  5
4506
  8
0
  6
CONTINUOUS
 62
     3
 10
74.2500000000003411
 20
555.6810834768912173
 30
0.0000000000000169
 11
74.2500000000003411
 21
529.1045556684676967
 31
0.0000000000000169
  0
LINE
  5
4507
  8
0
  6
CONTINUOUS
 62
     3
 10
74.2500000000003411
 20
529.1045556684676967
 30
0.0000000000000164
 11
74.2500000000003411
 21
529.0260517341032482
 31
0.0000000000000164
  0
LINE
  5
4508
  8
0
  6
CONTINUOUS
 62
     3
 10
74.2500000000003411
 20
1.5785039343637131
 30
0.0000000000000178
 11
74.2500000000003411
 21
1.499999999999299
 31
0.0000000000000178
  0
LINE
  5
4509
  8
0
  6
CONTINUOUS
 62
     3
 10
74.2500000000003411
 20
24.2973258500306102
 30
0.0000000000000178
 11
74.2500000000003411
 21
1.5785039343637659
 31
0.0000000000000178
  0
LINE
  5
450A
  8
0
  6
CONTINUOUS
 62
     3
 10
74.2500000000003411
 20
29.7897882911807912
 30
0.0000000000000178
 11
74.2500000000003411
 21
29.7112843568163711
 31
0.0000000000000178
  0
LINE
  5
450B
  8
0
  6
CONTINUOUS
 62
     3
 10
74.2500000000003411
 20
149.126017694352214
 30
0.0000000000000178
 11
74.2500000000003411
 21
29.7897882911807699
 31
0.0000000000000178
  0
LINE
  5
450C
  8
0
  6
CONTINUOUS
 62
     3
 10
74.2500000000003411
 20
154.6184801355024092
 30
0.0000000000000178
 11
74.2500000000003411
 21
154.5399762011379892
 31
0.0000000000000178
  0
LINE
  5
450D
  8
0
  6
CONTINUOUS
 62
     3
 10
74.2500000000003411
 20
273.9547095386737965
 30
0.000000000000016
 11
74.2500000000003411
 21
154.6184801355024092
 31
0.000000000000016
  0
LINE
  5
450E
  8
0
  6
CONTINUOUS
 62
     3
 10
74.2500000000003411
 20
279.4471719798239064
 30
0.000000000000016
 11
74.2500000000003411
 21
279.3686680454595148
 31
0.000000000000016
  0
LINE
  5
450F
  8
0
  6
CONTINUOUS
 62
     3
 10
74.2500000000003411
 20
398.7834013829956916
 30
0.0000000000000169
 11
74.2500000000003411
 21
279.4471719798240201
 31
0.0000000000000169
  0
LINE
  5
4510
  8
0
  6
CONTINUOUS
 62
     3
 10
74.2500000000003411
 20
404.2758638241458016
 30
0.0000000000000164
 11
74.2500000000003411
 21
404.1973598897815236
 31
0.0000000000000164
  0
LINE
  5
4511
  8
0
  6
CONTINUOUS
 62
     3
 10
74.2500000000003411
 20
523.6120932273174731
 30
0.0000000000000164
 11
74.2500000000003411
 21
404.2758638241458016
 31
0.0000000000000164
  0
LINE
  5
4512
  8
0
  6
CONTINUOUS
 62
     3
 10
74.2500000000003411
 20
404.2758638241458016
 30
0.0000000000000164
 11
73.4999999999999005
 21
404.2758638241458016
 31
0.0000000000000163
  0
LINE
  5
4513
  8
0
  6
CONTINUOUS
 62
     3
 10
74.2500000000003411
 20
404.1973598897815236
 30
0.0000000000000164
 11
73.4999999999999005
 21
404.1973598897815236
 31
0.0000000000000163
  0
LINE
  5
4514
  8
0
  6
CONTINUOUS
 62
     3
 10
74.2500000000003411
 20
279.4471719798240201
 30
0.000000000000016
 11
73.5000000000000426
 21
279.4471719798240201
 31
0.0000000000000158
  0
LINE
  5
4515
  8
0
  6
CONTINUOUS
 62
     3
 10
74.2500000000003411
 20
279.3686680454595148
 30
0.000000000000016
 11
73.5000000000000426
 21
279.3686680454595148
 31
0.0000000000000158
  0
LINE
  5
4516
  8
0
  6
CONTINUOUS
 62
     3
 10
74.2500000000003411
 20
154.6184801355024092
 30
0.0000000000000178
 11
73.500000000000199
 21
154.6184801355024092
 31
0.0000000000000176
  0
LINE
  5
4517
  8
0
  6
CONTINUOUS
 62
     3
 10
74.2500000000003411
 20
154.5399762011379892
 30
0.000000000000016
 11
73.500000000000199
 21
154.5399762011379892
 31
0.0000000000000158
  0
LINE
  5
4518
  8
0
  6
CONTINUOUS
 62
     3
 10
74.2500000000003411
 20
29.7897882911807983
 30
0.0000000000000178
 11
73.5000000000003268
 21
29.7897882911807983
 31
0.0000000000000176
  0
LINE
  5
4519
  8
0
  6
CONTINUOUS
 62
     3
 10
74.2500000000003411
 20
29.7112843568163782
 30
0.0000000000000178
 11
73.5000000000003268
 21
29.7112843568163782
 31
0.0000000000000176
  0
LINE
  5
451A
  8
0
  6
CONTINUOUS
 62
     3
 10
74.2500000000003411
 20
1.578503934363767
 30
0.0000000000000178
 11
2.500000000000369
 21
1.5785039343636991
 31
0.0000000000000018
  0
LINE
  5
451B
  8
0
  6
CONTINUOUS
 62
     3
 10
-73.4999999999996447
 20
29.7112843568162397
 30
-0.0000000000000178
 11
-74.2839142090593754
 21
29.7112843568162397
 31
-0.0000000000000179
  0
LINE
  5
451C
  8
0
  6
CONTINUOUS
 62
     3
 10
-73.4999999999997442
 20
154.5399762011379039
 30
-0.000000000000016
 11
-74.2839142090593754
 21
154.5399762011379039
 31
-0.0000000000000162
  0
LINE
  5
451D
  8
0
  6
CONTINUOUS
 62
     3
 10
-73.4999999999998153
 20
279.3686680454594011
 30
-0.000000000000016
 11
-74.2839142090593754
 21
279.3686680454594011
 31
-0.0000000000000162
  0
LINE
  5
451E
  8
0
  6
CONTINUOUS
 62
     3
 10
-73.4999999999999147
 20
404.1973598897812963
 30
-0.0000000000000164
 11
-74.2839142090593754
 21
404.1973598897812963
 31
-0.0000000000000166
  0
LINE
  5
451F
  8
0
  6
CONTINUOUS
 62
     3
 10
-73.4999999999999858
 20
529.0260517341031345
 30
-0.000000000000016
 11
-74.2839142090593754
 21
529.0260517341031345
 31
-0.0000000000000162
  0
LINE
  5
4520
  8
0
  6
CONTINUOUS
 62
     3
 10
74.2500000000003411
 20
529.0260517341032482
 30
0.0000000000000169
 11
73.4999999999997158
 21
529.0260517341032482
 31
0.0000000000000167
  0
LINE
  5
4521
  8
0
  6
CONTINUOUS
 62
     3
 10
74.2500000000003411
 20
529.1045556684676967
 30
0.0000000000000164
 11
73.4999999999997158
 21
529.1045556684676967
 31
0.0000000000000163
  0
LINE
  5
4522
  8
0
  6
CONTINUOUS
 62
     3
 10
73.4999999999997442
 20
529.1045556684676967
 30
0.0000000000000164
 11
73.4999999999997442
 21
523.6120932273174731
 31
0.0000000000000164
  0
LINE
  5
4523
  8
0
  6
CONTINUOUS
 62
     3
 10
73.4999999999997442
 20
523.6120932273174731
 30
0.0000000000000164
 11
74.2500000000003411
 21
523.6120932273174731
 31
0.0000000000000166
  0
LINE
  5
4524
  8
0
  6
CONTINUOUS
 62
     3
 10
73.4999999999999005
 20
404.2758638241458016
 30
0.0000000000000164
 11
73.4999999999999005
 21
398.7834013829956916
 31
0.0000000000000164
  0
LINE
  5
4525
  8
0
  6
CONTINUOUS
 62
     3
 10
73.4999999999999005
 20
398.7834013829956916
 30
0.000000000000016
 11
74.2500000000003411
 21
398.7834013829956916
 31
0.0000000000000162
  0
LINE
  5
4526
  8
0
  6
CONTINUOUS
 62
     3
 10
73.5000000000000426
 20
279.4471719798240201
 30
0.000000000000016
 11
73.5000000000000568
 21
273.9547095386737965
 31
0.000000000000016
  0
LINE
  5
4527
  8
0
  6
CONTINUOUS
 62
     3
 10
73.5000000000000568
 20
273.9547095386737965
 30
0.000000000000016
 11
74.2500000000003411
 21
273.9547095386737965
 31
0.0000000000000162
  0
LINE
  5
4528
  8
0
  6
CONTINUOUS
 62
     3
 10
73.500000000000199
 20
154.6184801355024092
 30
0.0000000000000178
 11
73.500000000000199
 21
149.126017694352214
 31
0.0000000000000178
  0
LINE
  5
4529
  8
0
  6
CONTINUOUS
 62
     3
 10
73.500000000000199
 20
149.126017694352214
 30
0.0000000000000178
 11
74.2500000000003411
 21
149.126017694352214
 31
0.0000000000000179
  0
LINE
  5
452A
  8
0
  6
CONTINUOUS
 62
     3
 10
73.5000000000003268
 20
29.7897882911807983
 30
0.0000000000000178
 11
73.5000000000003268
 21
24.2973258500306386
 31
0.0000000000000178
  0
LINE
  5
452B
  8
0
  6
CONTINUOUS
 62
     3
 10
73.5000000000003411
 20
24.2973258500306315
 30
0.0000000000000178
 11
74.2500000000003411
 21
24.2973258500306102
 31
0.0000000000000179
  0
LINE
  5
452C
  8
0
  6
CONTINUOUS
 62
     3
 10
2.500000000000381
 20
1.578503934363654
 30
0.0
 11
2.500000000000381
 21
1.5000000000000091
 31
0.0
  0
LINE
  5
452D
  8
0
  6
CONTINUOUS
 62
     3
 10
-2.4999999999996181
 20
1.5000000000000091
 30
0.0
 11
-2.4999999999996181
 21
1.578503934363638
 31
0.0
  0
LINE
  5
452E
  8
0
  6
CONTINUOUS
 62
     3
 10
-74.2839142090593754
 20
1.499999999999442
 30
-0.0000000000000178
 11
-74.2839142090593754
 21
1.5785039343638561
 31
-0.0000000000000178
  0
LINE
  5
452F
  8
0
  6
CONTINUOUS
 62
     3
 10
-2.4999999999996181
 20
1.578503934363654
 30
0.0
 11
-74.2839142090593754
 21
1.578503934363902
 31
-0.0000000000000159
  0
LINE
  5
4530
  8
0
  6
CONTINUOUS
 62
     3
 10
-73.4999999999996305
 20
24.2973258500305214
 30
-0.0000000000000178
 11
-73.4999999999996305
 21
29.7897882911806811
 31
-0.0000000000000178
  0
LINE
  5
4531
  8
0
  6
CONTINUOUS
 62
     3
 10
-74.2839142090593754
 20
29.711284356816229
 30
-0.0000000000000178
 11
-74.2839142090593754
 21
29.7897882911806384
 31
-0.0000000000000178
  0
LINE
  5
4532
  8
0
  6
CONTINUOUS
 62
     3
 10
-73.4999999999996447
 20
29.7897882911806597
 30
-0.0000000000000178
 11
-74.2839142090593754
 21
29.7897882911806597
 31
-0.0000000000000179
  0
LINE
  5
4533
  8
0
  6
CONTINUOUS
 62
     3
 10
-73.4999999999997158
 20
149.1260176943521003
 30
-0.0000000000000178
 11
-73.4999999999997158
 21
154.6184801355022955
 31
-0.0000000000000178
  0
LINE
  5
4534
  8
0
  6
CONTINUOUS
 62
     3
 10
-74.2839142090593754
 20
154.5399762011379039
 30
-0.000000000000016
 11
-74.2839142090593754
 21
154.6184801355022955
 31
-0.000000000000016
  0
LINE
  5
4535
  8
0
  6
CONTINUOUS
 62
     3
 10
-73.4999999999997442
 20
154.6184801355022955
 30
-0.0000000000000178
 11
-74.2839142090593754
 21
154.6184801355022955
 31
-0.0000000000000179
  0
LINE
  5
4536
  8
0
  6
CONTINUOUS
 62
     3
 10
-73.4999999999998295
 20
273.954709538673626
 30
-0.000000000000016
 11
-73.4999999999998295
 21
279.4471719798237928
 31
-0.000000000000016
  0
LINE
  5
4537
  8
0
  6
CONTINUOUS
 62
     3
 10
-74.2839142090593754
 20
279.3686680454594011
 30
-0.000000000000016
 11
-74.2839142090593754
 21
279.4471719798237928
 31
-0.000000000000016
  0
LINE
  5
4538
  8
0
  6
CONTINUOUS
 62
     3
 10
-73.4999999999998153
 20
279.4471719798237928
 30
-0.000000000000016
 11
-74.2839142090593754
 21
279.4471719798237928
 31
-0.0000000000000162
  0
LINE
  5
4539
  8
0
  6
CONTINUOUS
 62
     3
 10
-73.4999999999999147
 20
398.7834013829956916
 30
-0.000000000000016
 11
-73.4999999999999147
 21
404.2758638241456879
 31
-0.000000000000016
  0
LINE
  5
453A
  8
0
  6
CONTINUOUS
 62
     3
 10
-74.2839142090593754
 20
404.1973598897812963
 30
-0.0000000000000164
 11
-74.2839142090593754
 21
404.2758638241456879
 31
-0.0000000000000164
  0
LINE
  5
453B
  8
0
  6
CONTINUOUS
 62
     3
 10
-73.4999999999999147
 20
404.2758638241456879
 30
-0.0000000000000164
 11
-74.2839142090593754
 21
404.2758638241456879
 31
-0.0000000000000166
  0
LINE
  5
453C
  8
0
  6
CONTINUOUS
 62
     3
 10
-73.4999999999999716
 20
523.6120932273173594
 30
-0.0000000000000164
 11
-73.4999999999999858
 21
529.1045556684674693
 31
-0.0000000000000164
  0
LINE
  5
453D
  8
0
  6
CONTINUOUS
 62
     3
 10
-74.2839142090593754
 20
529.0260517341031345
 30
-0.0000000000000169
 11
-74.2839142090593754
 21
529.1045556684674693
 31
-0.0000000000000169
  0
LINE
  5
453E
  8
0
  6
CONTINUOUS
 62
     3
 10
-73.4999999999999858
 20
529.1045556684674693
 30
-0.0000000000000164
 11
-74.2839142090593754
 21
529.1045556684674693
 31
-0.0000000000000166
  0
LINE
  5
453F
  8
0
  6
CONTINUOUS
 62
     3
 10
-74.2839142090593754
 20
1.5785039343638809
 30
-0.0000000000000178
 11
-74.2839142090593754
 21
24.2973258500304894
 31
-0.0000000000000178
  0
LINE
  5
4540
  8
0
  6
CONTINUOUS
 62
     3
 10
-74.2839142090593754
 20
555.6810834768908762
 30
-0.0000000000000169
 11
74.2500000000003411
 21
555.6810834768911036
 31
0.0000000000000161
  0
LINE
  5
4541
  8
0
  6
CONTINUOUS
 62
     3
 10
-74.2839142090593754
 20
529.1045556684674693
 30
-0.0000000000000164
 11
-74.2839142090593754
 21
555.6810834768908762
 31
-0.0000000000000164
  0
LINE
  5
4542
  8
0
  6
CONTINUOUS
 62
     3
 10
-74.2839142090593754
 20
523.6120932273172457
 30
-0.0000000000000164
 11
-73.4999999999999716
 21
523.6120932273172457
 31
-0.0000000000000163
  0
LINE
  5
4543
  8
0
  6
CONTINUOUS
 62
     3
 10
-74.2839142090593754
 20
404.2758638241456879
 30
-0.0000000000000164
 11
-74.2839142090593754
 21
523.6120932273172457
 31
-0.0000000000000164
  0
LINE
  5
4544
  8
0
  6
CONTINUOUS
 62
     3
 10
-74.2839142090593754
 20
398.7834013829956916
 30
-0.0000000000000169
 11
-73.4999999999999147
 21
398.7834013829956916
 31
-0.0000000000000167
  0
LINE
  5
4545
  8
0
  6
CONTINUOUS
 62
     3
 10
-74.2839142090593754
 20
279.4471719798237928
 30
-0.000000000000016
 11
-74.2839142090593754
 21
398.7834013829956916
 31
-0.000000000000016
  0
LINE
  5
4546
  8
0
  6
CONTINUOUS
 62
     3
 10
-74.2839142090593754
 20
273.9547095386736828
 30
-0.000000000000016
 11
-73.4999999999998295
 21
273.9547095386736828
 31
-0.0000000000000158
  0
LINE
  5
4547
  8
0
  6
CONTINUOUS
 62
     3
 10
-74.2839142090593754
 20
154.6184801355022955
 30
-0.0000000000000178
 11
-74.2839142090593754
 21
273.9547095386736828
 31
-0.0000000000000178
  0
LINE
  5
4548
  8
0
  6
CONTINUOUS
 62
     3
 10
-74.2839142090593754
 20
149.1260176943521003
 30
-0.0000000000000178
 11
-73.4999999999997158
 21
149.1260176943521003
 31
-0.0000000000000176
  0
LINE
  5
4549
  8
0
  6
CONTINUOUS
 62
     3
 10
-74.2839142090593754
 20
29.7897882911806313
 30
-0.0000000000000178
 11
-74.2839142090593754
 21
149.1260176943521003
 31
-0.0000000000000178
  0
LINE
  5
454A
  8
0
  6
CONTINUOUS
 62
     3
 10
-74.2839142090593754
 20
24.2973258500304787
 30
-0.0000000000000178
 11
-73.4999999999996305
 21
24.2973258500305
 31
-0.0000000000000176
  0
LINE
  5
454B
  8
0
  6
CONTINUOUS
 62
     3
 10
-194.9999999999998863
 20
1.5000000000000071
 30
-0.0000000000000426
 11
-194.9999999999998863
 21
0.0000000000000073
 31
-0.0000000000000426
  0
LINE
  5
454C
  8
0
  6
CONTINUOUS
 62
     3
 10
-174.9999999999998863
 20
0.0000000000000086
 30
-0.0000000000000284
 11
-194.9999999999998863
 21
0.0000000000000073
 31
-0.0000000000000426
  0
LINE
  5
454D
  8
0
  6
CONTINUOUS
 62
     3
 10
-174.9999999999998863
 20
1.500000000000008
 30
-0.0000000000000284
 11
-194.9999999999998863
 21
1.5000000000000071
 31
-0.0000000000000426
  0
LINE
  5
454E
  8
0
  6
CONTINUOUS
 62
     3
 10
-174.9999999999998863
 20
0.0000000000000087
 30
-0.0000000000000284
 11
175.0000000000001137
 21
0.0000000000000087
 31
0.0000000000000493
  0
LINE
  5
454F
  8
0
  6
CONTINUOUS
 62
     3
 10
-174.9999999999998863
 20
1.500000000000008
 30
-0.0000000000000284
 11
175.0000000000001137
 21
1.500000000000008
 31
0.0000000000000493
  0
LINE
  5
4550
  8
0
  6
CONTINUOUS
 62
     3
 10
195.0000000000001137
 20
0.0000000000000073
 30
0.0000000000000426
 11
175.0000000000001137
 21
0.0000000000000086
 31
0.0000000000000284
  0
LINE
  5
4551
  8
0
  6
CONTINUOUS
 62
     3
 10
195.0000000000001137
 20
1.5000000000000071
 30
0.0000000000000426
 11
195.0000000000001137
 21
0.0000000000000073
 31
0.0000000000000426
  0
LINE
  5
4552
  8
0
  6
CONTINUOUS
 62
     3
 10
195.0000000000001137
 20
1.5000000000000071
 30
0.0000000000000426
 11
175.0000000000001137
 21
1.500000000000008
 31
0.0000000000000284
  0
LINE
  5
4553
  8
0
  6
VERDECKT
 62
     1
 10
75.0000000000003553
 20
1.4999999999997149
 30
0.0000000000000169
 11
75.0000000000003553
 21
0.3190269259772551
 31
0.0000000000000169
  0
LINE
  5
4554
  8
0
  6
VERDECKT
 62
     1
 10
73.5000000000003553
 20
0.3190269259772551
 30
0.0000000000000164
 11
73.5000000000003553
 21
1.4999999999997149
 31
0.0000000000000164
  0
LINE
  5
4555
  8
0
  6
VERDECKT
 62
     1
 10
75.0000000000003695
 20
0.3190269259772525
 30
0.0000000000000169
 11
73.5000000000003553
 21
0.3190269259772527
 31
0.0000000000000165
  0
LINE
  5
4556
  8
0
  6
VERDECKT
 62
     1
 10
-74.9999999999999432
 20
0.3190269259772551
 30
-0.0000000000000164
 11
-74.9999999999999432
 21
1.4999999999997149
 31
-0.0000000000000164
  0
LINE
  5
4557
  8
0
  6
VERDECKT
 62
     1
 10
-73.4999999999999432
 20
0.3190269259767415
 30
-0.0000000000000164
 11
-74.9999999999999432
 21
0.3190269259767415
 31
-0.0000000000000168
  0
LINE
  5
4558
  8
0
  6
VERDECKT
 62
     1
 10
-73.4999999999999574
 20
1.4999999999997149
 30
-0.0000000000000164
 11
-73.4999999999999574
 21
0.3190269259772551
 31
-0.0000000000000164
  0
LINE
  5
4559
  8
0
  6
VERDECKT
 62
     1
 10
73.500000000000469
 20
1.4999999999997169
 30
0.0000000000000178
 11
73.500000000000469
 21
24.2188219156662399
 31
0.0000000000000178
  0
LINE
  5
455A
  8
0
  6
VERDECKT
 62
     1
 10
-73.5000000000000426
 20
24.2188219156660693
 30
-0.0000000000000178
 11
-73.5000000000000426
 21
1.4999999999997149
 31
-0.0000000000000178
  0
LINE
  5
455B
  8
0
  6
VERDECKT
 62
     1
 10
73.500000000000469
 20
29.4616269731277498
 30
0.0000000000000178
 11
75.000000000000469
 21
29.4616269731277498
 31
0.0000000000000181
  0
LINE
  5
455C
  8
0
  6
VERDECKT
 62
     1
 10
-75.0000000000000568
 20
29.4616269731277498
 30
-0.0000000000000178
 11
-73.5000000000000568
 21
29.4616269731277498
 31
-0.0000000000000174
  0
LINE
  5
455D
  8
0
  6
VERDECKT
 62
     1
 10
73.500000000000469
 20
29.7897882911807415
 30
0.0000000000000178
 11
73.5000000000004832
 21
149.0475137599877939
 31
0.0000000000000178
  0
LINE
  5
455E
  8
0
  6
VERDECKT
 62
     1
 10
-73.5000000000000568
 20
149.0475137599877087
 30
-0.000000000000016
 11
-73.5000000000000426
 21
29.7897882911805709
 31
-0.000000000000016
  0
LINE
  5
455F
  8
0
  6
VERDECKT
 62
     1
 10
73.5000000000004832
 20
154.2903188174495028
 30
0.000000000000016
 11
75.000000000000469
 21
154.2903188174495028
 31
0.0000000000000163
  0
LINE
  5
4560
  8
0
  6
VERDECKT
 62
     1
 10
-75.0000000000000711
 20
154.2903188174495028
 30
-0.000000000000016
 11
-73.5000000000000711
 21
154.2903188174495028
 31
-0.0000000000000157
  0
LINE
  5
4561
  8
0
  6
VERDECKT
 62
     1
 10
73.5000000000004832
 20
154.6184801355024092
 30
0.000000000000016
 11
73.5000000000004832
 21
273.8762056043094049
 31
0.000000000000016
  0
LINE
  5
4562
  8
0
  6
VERDECKT
 62
     1
 10
-73.5000000000000711
 20
273.8762056043091775
 30
-0.000000000000016
 11
-73.5000000000000711
 21
154.6184801355022955
 31
-0.000000000000016
  0
LINE
  5
4563
  8
0
  6
VERDECKT
 62
     1
 10
73.5000000000004832
 20
279.1190106617713127
 30
0.000000000000016
 11
75.0000000000004832
 21
279.1190106617713127
 31
0.0000000000000163
  0
LINE
  5
4564
  8
0
  6
VERDECKT
 62
     1
 10
-75.0000000000000711
 20
279.1190106617713127
 30
-0.000000000000016
 11
-73.5000000000000853
 21
279.1190106617713127
 31
-0.0000000000000157
  0
LINE
  5
4565
  8
0
  6
VERDECKT
 62
     1
 10
73.5000000000004974
 20
279.4471719798240201
 30
0.000000000000016
 11
73.5000000000004974
 21
398.7048974486313
 31
0.000000000000016
  0
LINE
  5
4566
  8
0
  6
VERDECKT
 62
     1
 10
-73.5000000000000853
 20
398.7048974486311863
 30
-0.0000000000000164
 11
-73.5000000000000853
 21
279.4471719798237928
 31
-0.0000000000000164
  0
LINE
  5
4567
  8
0
  6
VERDECKT
 62
     1
 10
73.5000000000004974
 20
403.9477025060929805
 30
0.0000000000000164
 11
75.0000000000004832
 21
403.9477025060929805
 31
0.0000000000000168
  0
LINE
  5
4568
  8
0
  6
VERDECKT
 62
     1
 10
-75.0000000000000711
 20
403.9477025060929805
 30
-0.0000000000000169
 11
-73.5000000000000853
 21
403.9477025060929805
 31
-0.0000000000000165
  0
LINE
  5
4569
  8
0
  6
VERDECKT
 62
     1
 10
73.5000000000004974
 20
404.2758638241458016
 30
0.0000000000000164
 11
73.5000000000005116
 21
523.5335892929531383
 31
0.0000000000000164
  0
LINE
  5
456A
  8
0
  6
VERDECKT
 62
     1
 10
-73.5000000000000995
 20
523.5335892929530246
 30
-0.0000000000000164
 11
-73.5000000000000853
 21
404.2758638241456879
 31
-0.0000000000000164
  0
LINE
  5
456B
  8
0
  6
VERDECKT
 62
     1
 10
-74.2839142090593754
 20
555.6047614421855769
 30
-0.0000000000000169
 11
-73.5000000000000853
 21
555.6047614421855769
 31
-0.0000000000000167
  0
LINE
  5
456C
  8
0
  6
VERDECKT
 62
     1
 10
-73.5000000000000853
 20
555.6810834768908762
 30
-0.000000000000016
 11
-73.5000000000000853
 21
555.6047614421855769
 31
-0.000000000000016
  0
LINE
  5
456D
  8
0
  6
VERDECKT
 62
     1
 10
73.5000000000005116
 20
555.6047614421855769
 30
0.000000000000016
 11
73.5000000000005116
 21
555.6810834768911036
 31
0.000000000000016
  0
LINE
  5
456E
  8
0
  6
VERDECKT
 62
     1
 10
73.5000000000005116
 20
555.6047614421855769
 30
0.000000000000016
 11
74.2500000000003411
 21
555.6047614421855769
 31
0.0000000000000162
  0
LINE
  5
456F
  8
0
  6
VERDECKT
 62
     1
 10
73.5000000000005116
 20
528.7763943504146482
 30
0.000000000000016
 11
75.0000000000004832
 21
528.7763943504146482
 31
0.0000000000000163
  0
LINE
  5
4570
  8
0
  6
VERDECKT
 62
     1
 10
73.5000000000005116
 20
529.1045556684676967
 30
0.000000000000016
 11
73.5000000000005116
 21
555.6047614421855769
 31
0.000000000000016
  0
LINE
  5
4571
  8
0
  6
VERDECKT
 62
     1
 10
-75.0000000000000853
 20
528.7763943504146482
 30
-0.0000000000000169
 11
-73.5000000000000853
 21
528.7763943504146482
 31
-0.0000000000000165
  0
LINE
  5
4572
  8
0
  6
VERDECKT
 62
     1
 10
-73.5000000000000853
 20
555.6047614421855769
 30
-0.000000000000016
 11
-73.5000000000000853
 21
529.1045556684674693
 31
-0.000000000000016
  0
LINE
  5
4573
  8
0
  6
VERDECKT
 62
     1
 10
73.5000000000003411
 20
0.0569880295620324
 30
0.0000000000000164
 11
75.0000000000003411
 21
0.0569880295620322
 31
0.0000000000000168
  0
LINE
  5
4574
  8
0
  6
VERDECKT
 62
     1
 10
-74.9999999999999147
 20
0.0569880295615781
 30
-0.0000000000000164
 11
-73.4999999999999147
 21
0.0569880295615781
 31
-0.0000000000000161
  0
LINE
  5
4575
  8
0
  6
VERDECKT
 62
     1
 10
73.5000000000003268
 20
0.0569880295615612
 30
0.0000000000000164
 11
73.5000000000003411
 21
0.3190269259766717
 31
0.0000000000000164
  0
LINE
  5
4576
  8
0
  6
VERDECKT
 62
     1
 10
-74.9999999999999147
 20
0.3190269259766707
 30
-0.0000000000000164
 11
-74.9999999999999147
 21
0.0569880295615603
 31
-0.0000000000000164
  0
LINE
  5
4577
  8
0
  6
VERDECKT
 62
     1
 10
75.0000000000003268
 20
0.0569880295620458
 30
0.0000000000000169
 11
75.0000000000003553
 21
0.3190269259772606
 31
0.0000000000000169
  0
LINE
  5
4578
  8
0
  6
VERDECKT
 62
     1
 10
-73.4999999999999147
 20
0.0569880295615597
 30
-0.0000000000000164
 11
-73.4999999999999289
 21
0.3190269259766701
 31
-0.0000000000000164
  0
LINE
  5
4579
  8
0
  6
VERDECKT
 62
     1
 10
-74.2839142090593754
 20
24.2188219156660587
 30
-0.0000000000000178
 11
-73.4999999999996305
 21
24.21882191566608
 31
-0.0000000000000176
  0
LINE
  5
457A
  8
0
  6
VERDECKT
 62
     1
 10
-74.2839142090593754
 20
149.0475137599877087
 30
-0.000000000000016
 11
-73.4999999999997158
 21
149.0475137599877087
 31
-0.0000000000000158
  0
LINE
  5
457B
  8
0
  6
VERDECKT
 62
     1
 10
-74.2839142090593754
 20
273.8762056043091775
 30
-0.000000000000016
 11
-73.4999999999998295
 21
273.8762056043091775
 31
-0.0000000000000158
  0
LINE
  5
457C
  8
0
  6
VERDECKT
 62
     1
 10
-74.2839142090593754
 20
398.7048974486311863
 30
-0.0000000000000164
 11
-73.4999999999999147
 21
398.7048974486311863
 31
-0.0000000000000163
  0
LINE
  5
457D
  8
0
  6
VERDECKT
 62
     1
 10
-74.2839142090593754
 20
523.5335892929529109
 30
-0.0000000000000164
 11
-73.4999999999999716
 21
523.5335892929529109
 31
-0.0000000000000163
  0
LINE
  5
457E
  8
0
  6
VERDECKT
 62
     1
 10
-74.2839142090593754
 20
555.6025795425266551
 30
-0.0000000000000169
 11
74.2500000000003411
 21
555.6025795425266551
 31
0.0000000000000161
  0
LINE
  5
457F
  8
0
  6
VERDECKT
 62
     1
 10
73.4999999999997442
 20
523.5335892929531383
 30
0.0000000000000164
 11
74.2500000000003411
 21
523.5335892929531383
 31
0.0000000000000166
  0
LINE
  5
4580
  8
0
  6
VERDECKT
 62
     1
 10
73.4999999999999005
 20
398.7048974486313
 30
0.0000000000000164
 11
74.2500000000003411
 21
398.7048974486313
 31
0.0000000000000166
  0
LINE
  5
4581
  8
0
  6
VERDECKT
 62
     1
 10
73.5000000000000568
 20
273.8762056043094049
 30
0.000000000000016
 11
74.2500000000003411
 21
273.8762056043094049
 31
0.0000000000000162
  0
LINE
  5
4582
  8
0
  6
VERDECKT
 62
     1
 10
73.500000000000199
 20
149.0475137599877939
 30
0.000000000000016
 11
74.2500000000003411
 21
149.0475137599877939
 31
0.0000000000000162
  0
LINE
  5
4583
  8
0
  6
VERDECKT
 62
     1
 10
73.5000000000003411
 20
24.2188219156662399
 30
0.0000000000000178
 11
74.2500000000003411
 21
24.2188219156662186
 31
0.0000000000000179
  0
LINE
  5
4584
  8
0
  6
VERDECKT
 62
     1
 10
2.500000000000381
 20
0.0020556978674351
 30
0.0
 11
-2.4999999999996172
 21
0.0020556978674304
 31
-0.0000000000000011
  0
LINE
  5
4585
  8
0
  6
VERDECKT
 62
     1
 10
73.4999999999997442
 20
523.5335892929531383
 30
0.0000000000000164
 11
73.4999999999997442
 21
523.6120932273174731
 31
0.0000000000000164
  0
LINE
  5
4586
  8
0
  6
VERDECKT
 62
     1
 10
73.4999999999999005
 20
398.7048974486313
 30
0.0000000000000164
 11
73.4999999999999005
 21
398.7834013829956916
 31
0.0000000000000164
  0
LINE
  5
4587
  8
0
  6
VERDECKT
 62
     1
 10
73.5000000000000568
 20
273.8762056043094049
 30
0.000000000000016
 11
73.5000000000000568
 21
273.9547095386737965
 31
0.000000000000016
  0
LINE
  5
4588
  8
0
  6
VERDECKT
 62
     1
 10
73.500000000000199
 20
149.0475137599877939
 30
0.000000000000016
 11
73.500000000000199
 21
149.126017694352214
 31
0.000000000000016
  0
LINE
  5
4589
  8
0
  6
VERDECKT
 62
     1
 10
73.5000000000003411
 20
24.2188219156662399
 30
0.0000000000000178
 11
73.5000000000003411
 21
24.2973258500306493
 31
0.0000000000000178
  0
LINE
  5
458A
  8
0
  6
VERDECKT
 62
     1
 10
2.500000000000381
 20
1.5000000000000091
 30
0.0
 11
2.5000000000003819
 21
0.0805596322318074
 31
0.0
  0
LINE
  5
458B
  8
0
  6
VERDECKT
 62
     1
 10
2.5000000000003819
 20
0.0020556978674351
 30
0.0
 11
2.5000000000003828
 21
0.0805596322318495
 31
0.0
  0
LINE
  5
458C
  8
0
  6
VERDECKT
 62
     1
 10
2.5000000000003819
 20
0.0805596322318267
 30
0.0
 11
-2.4999999999996159
 21
0.0805596322318221
 31
-0.0000000000000011
  0
LINE
  5
458D
  8
0
  6
VERDECKT
 62
     1
 10
-2.4999999999996159
 20
0.0020556978674351
 30
0.0
 11
-2.499999999999615
 21
0.0805596322318495
 31
0.0
  0
LINE
  5
458E
  8
0
  6
VERDECKT
 62
     1
 10
-2.499999999999615
 20
0.0805596322318267
 30
0.0
 11
-2.4999999999996181
 21
1.5000000000000091
 31
0.0
  0
LINE
  5
458F
  8
0
  6
VERDECKT
 62
     1
 10
-73.4999999999996305
 20
24.2188219156660693
 30
-0.0000000000000178
 11
-73.4999999999996305
 21
24.2973258500304787
 31
-0.0000000000000178
  0
LINE
  5
4590
  8
0
  6
VERDECKT
 62
     1
 10
-73.4999999999997158
 20
149.0475137599877087
 30
-0.000000000000016
 11
-73.4999999999997158
 21
149.1260176943521003
 31
-0.000000000000016
  0
LINE
  5
4591
  8
0
  6
VERDECKT
 62
     1
 10
-73.4999999999998295
 20
273.8762056043091775
 30
-0.000000000000016
 11
-73.4999999999998295
 21
273.954709538673626
 31
-0.000000000000016
  0
LINE
  5
4592
  8
0
  6
VERDECKT
 62
     1
 10
-73.4999999999999147
 20
398.7048974486311863
 30
-0.0000000000000164
 11
-73.4999999999999147
 21
398.7834013829955779
 31
-0.0000000000000164
  0
LINE
  5
4593
  8
0
  6
VERDECKT
 62
     1
 10
-73.4999999999999716
 20
523.5335892929530246
 30
-0.0000000000000164
 11
-73.4999999999999716
 21
523.6120932273173594
 31
-0.0000000000000164
  0
LINE
  5
4594
  8
0
  6
VERDECKT
 62
     1
 10
-75.4999999999999147
 20
1.5
 30
-0.0000000000000169
 11
-75.4999999999999147
 21
0.0
 31
-0.0000000000000169
  0
LINE
  5
4595
  8
0
  6
VERDECKT
 62
     1
 10
-73.9999999999998721
 20
1.5000000000000011
 30
-0.0000000000000178
 11
-73.9999999999998721
 21
0.0000000000000011
 31
-0.0000000000000178
  0
LINE
  5
4596
  8
0
  6
VERDECKT
 62
     1
 10
-2.7499999999999032
 20
1.5000000000000011
 30
0.0
 11
-2.7499999999999032
 21
0.0000000000000013
 31
0.0
  0
LINE
  5
4597
  8
0
  6
VERDECKT
 62
     1
 10
2.7500000000000959
 20
1.5000000000000011
 30
0.0
 11
2.7500000000000959
 21
0.0000000000000013
 31
0.0
  0
LINE
  5
4598
  8
0
  6
VERDECKT
 62
     1
 10
74.0000000000001421
 20
1.5000000000000011
 30
0.0000000000000178
 11
74.0000000000001421
 21
0.0000000000000011
 31
0.0000000000000178
  0
LINE
  5
4599
  8
0
  6
VERDECKT
 62
     1
 10
75.5000000000001279
 20
1.5
 30
0.0000000000000169
 11
75.5000000000001279
 21
0.0
 31
0.0000000000000169
  0
LINE
  5
459A
  8
0
  6
VERDECKT
 62
     1
 10
178.5000000000001137
 20
1.5000000000000071
 30
0.0000000000000426
 11
178.5000000000001137
 21
0.0000000000000073
 31
0.0000000000000426
  0
LINE
  5
459B
  8
0
  6
VERDECKT
 62
     1
 10
171.5000000000001137
 20
1.5000000000000071
 30
0.0000000000000426
 11
171.5000000000001137
 21
0.0000000000000073
 31
0.0000000000000426
  0
LINE
  5
459C
  8
0
  6
VERDECKT
 62
     1
 10
-171.4999999999998863
 20
1.5000000000000071
 30
-0.0000000000000426
 11
-171.4999999999998863
 21
0.0000000000000073
 31
-0.0000000000000426
  0
LINE
  5
459D
  8
0
  6
VERDECKT
 62
     1
 10
-178.4999999999998863
 20
1.5000000000000071
 30
-0.0000000000000426
 11
-178.4999999999998863
 21
0.0000000000000073
 31
-0.0000000000000426
  0
ENDBLK
  5
459F
  8
0
  0
BLOCK
  8
0
  2
A$C2198A00B
 70
     0
 10
0.0
 20
0.0
 30
0.0
  3
A$C2198A00B
  1

  0
LINE
  5
45A3
  8
0
  6
CONTINUOUS
 62
     3
 10
-2.4999999999997762
 20
-24.9558047155833194
 30
0.0000000000000055
 11
-2.4999999999997748
 21
-25.0343086499477394
 31
0.0000000000000056
210
0.0
220
1.0
230
-0.0000000000000002
  0
LINE
  5
45A4
  8
0
  6
CONTINUOUS
 62
     3
 10
-2.4999999999997762
 20
-24.9558047155833194
 30
0.0000000000000055
 11
-2.4999999999997762
 21
-23.4578604134514599
 31
0.0000000000000052
210
0.0
220
1.0
230
-0.0000000000000002
  0
LINE
  5
45A5
  8
0
  6
CONTINUOUS
 62
     3
 10
2.5000000000002229
 20
-24.9558047155833194
 30
0.0000000000000055
 11
2.5000000000002229
 21
-23.4578604134514599
 31
0.0000000000000052
210
0.0
220
1.0
230
-0.0000000000000002
  0
LINE
  5
45A6
  8
0
  6
CONTINUOUS
 62
     3
 10
2.5000000000002238
 20
-25.0343086499477288
 30
0.0000000000000056
 11
2.5000000000002238
 21
-24.9558047155833194
 31
0.0000000000000055
210
0.0
220
1.0
230
-0.0000000000000002
  0
LINE
  5
45A7
  8
0
  6
CONTINUOUS
 62
     3
 10
2.5000000000002229
 20
-23.4578604134514599
 30
0.0000000000000052
 11
-2.4999999999997762
 21
-23.4578604134514599
 31
0.0000000000000052
210
0.0
220
1.0
230
-0.0000000000000002
  0
LINE
  5
45A8
  8
0
  6
CONTINUOUS
 62
     3
 10
2.5000000000002229
 20
-24.9558047155833194
 30
0.0000000000000055
 11
-2.4999999999997762
 21
-24.9558047155833194
 31
0.0000000000000055
210
0.0
220
1.0
230
-0.0000000000000002
  0
LINE
  5
45A9
  8
0
  6
CONTINUOUS
 62
     3
 10
-71.999999999999801
 20
-23.5322501309508496
 30
0.0000000000000052
 11
-2.4999999999997722
 21
-23.5322501309508496
 31
0.0000000000000052
210
0.0
220
1.0
230
-0.0000000000000002
  0
POLYLINE
  5
45AA
  8
0
  6
CONTINUOUS
 62
     3
 10
-73.4999999999998153
 20
-22.0301916119539918
 30
0.0000000000000049
 66
     1
 70
     8
  0
VERTEX
  8
0
  5
4932
 10
-73.5000
 20
-22.0302
 30
4.90000e-15
  70
    32
  0
VERTEX
  8
0
  5
4933
 10
-73.4999
 20
-22.0486
 30
4.90368e-15
  70
    32
  0
VERTEX
  8
0
  5
4934
 10
-73.4995
 20
-22.0671
 30
4.90736e-15
  70
    32
  0
VERTEX
  8
0
  5
4935
 10
-73.4990
 20
-22.0855
 30
4.91104e-15
  70
    32
  0
VERTEX
  8
0
  5
4936
 10
-73.4982
 20
-22.1039
 30
4.91472e-15
  70
    32
  0
VERTEX
  8
0
  5
4937
 10
-73.4972
 20
-22.1223
 30
4.91840e-15
  70
    32
  0
VERTEX
  8
0
  5
4938
 10
-73.4959
 20
-22.1407
 30
4.92207e-15
  70
    32
  0
VERTEX
  8
0
  5
4939
 10
-73.4945
 20
-22.1591
 30
4.92574e-15
  70
    32
  0
VERTEX
  8
0
  5
493A
 10
-73.4928
 20
-22.1774
 30
4.92941e-15
  70
    32
  0
VERTEX
  8
0
  5
493B
 10
-73.4909
 20
-22.1958
 30
4.93307e-15
  70
    32
  0
VERTEX
  8
0
  5
493C
 10
-73.4887
 20
-22.2141
 30
4.93672e-15
  70
    32
  0
VERTEX
  8
0
  5
493D
 10
-73.4864
 20
-22.2323
 30
4.94037e-15
  70
    32
  0
VERTEX
  8
0
  5
493E
 10
-73.4838
 20
-22.2506
 30
4.94402e-15
  70
    32
  0
VERTEX
  8
0
  5
493F
 10
-73.4810
 20
-22.2688
 30
4.94766e-15
  70
    32
  0
VERTEX
  8
0
  5
4940
 10
-73.4779
 20
-22.2870
 30
4.95129e-15
  70
    32
  0
VERTEX
  8
0
  5
4941
 10
-73.4747
 20
-22.3051
 30
4.95491e-15
  70
    32
  0
VERTEX
  8
0
  5
4942
 10
-73.4712
 20
-22.3232
 30
4.95853e-15
  70
    32
  0
VERTEX
  8
0
  5
4943
 10
-73.4675
 20
-22.3413
 30
4.96213e-15
  70
    32
  0
VERTEX
  8
0
  5
4944
 10
-73.4636
 20
-22.3593
 30
4.96573e-15
  70
    32
  0
VERTEX
  8
0
  5
4945
 10
-73.4594
 20
-22.3773
 30
4.96932e-15
  70
    32
  0
VERTEX
  8
0
  5
4946
 10
-73.4550
 20
-22.3952
 30
4.97289e-15
  70
    32
  0
VERTEX
  8
0
  5
4947
 10
-73.4505
 20
-22.4130
 30
4.97646e-15
  70
    32
  0
VERTEX
  8
0
  5
4948
 10
-73.4457
 20
-22.4308
 30
4.98001e-15
  70
    32
  0
VERTEX
  8
0
  5
4949
 10
-73.4406
 20
-22.4485
 30
4.98356e-15
  70
    32
  0
VERTEX
  8
0
  5
494A
 10
-73.4354
 20
-22.4662
 30
4.98709e-15
  70
    32
  0
VERTEX
  8
0
  5
494B
 10
-73.4300
 20
-22.4838
 30
4.99060e-15
  70
    32
  0
VERTEX
  8
0
  5
494C
 10
-73.4243
 20
-22.5014
 30
4.99410e-15
  70
    32
  0
VERTEX
  8
0
  5
494D
 10
-73.4184
 20
-22.5188
 30
4.99759e-15
  70
    32
  0
VERTEX
  8
0
  5
494E
 10
-73.4123
 20
-22.5362
 30
5.00107e-15
  70
    32
  0
VERTEX
  8
0
  5
494F
 10
-73.4060
 20
-22.5535
 30
5.00453e-15
  70
    32
  0
VERTEX
  8
0
  5
4950
 10
-73.3995
 20
-22.5708
 30
5.00797e-15
  70
    32
  0
VERTEX
  8
0
  5
4951
 10
-73.3928
 20
-22.5879
 30
5.01140e-15
  70
    32
  0
VERTEX
  8
0
  5
4952
 10
-73.3858
 20
-22.6050
 30
5.01481e-15
  70
    32
  0
VERTEX
  8
0
  5
4953
 10
-73.3787
 20
-22.6220
 30
5.01820e-15
  70
    32
  0
VERTEX
  8
0
  5
4954
 10
-73.3713
 20
-22.6389
 30
5.02157e-15
  70
    32
  0
VERTEX
  8
0
  5
4955
 10
-73.3638
 20
-22.6557
 30
5.02493e-15
  70
    32
  0
VERTEX
  8
0
  5
4956
 10
-73.3560
 20
-22.6724
 30
5.02827e-15
  70
    32
  0
VERTEX
  8
0
  5
4957
 10
-73.3480
 20
-22.6890
 30
5.03158e-15
  70
    32
  0
VERTEX
  8
0
  5
4958
 10
-73.3398
 20
-22.7055
 30
5.03488e-15
  70
    32
  0
VERTEX
  8
0
  5
4959
 10
-73.3315
 20
-22.7219
 30
5.03816e-15
  70
    32
  0
VERTEX
  8
0
  5
495A
 10
-73.3229
 20
-22.7383
 30
5.04142e-15
  70
    32
  0
VERTEX
  8
0
  5
495B
 10
-73.3141
 20
-22.7545
 30
5.04466e-15
  70
    32
  0
VERTEX
  8
0
  5
495C
 10
-73.3051
 20
-22.7706
 30
5.04787e-15
  70
    32
  0
VERTEX
  8
0
  5
495D
 10
-73.2960
 20
-22.7865
 30
5.05106e-15
  70
    32
  0
VERTEX
  8
0
  5
495E
 10
-73.2866
 20
-22.8024
 30
5.05423e-15
  70
    32
  0
VERTEX
  8
0
  5
495F
 10
-73.2770
 20
-22.8182
 30
5.05738e-15
  70
    32
  0
VERTEX
  8
0
  5
4960
 10
-73.2673
 20
-22.8338
 30
5.06050e-15
  70
    32
  0
VERTEX
  8
0
  5
4961
 10
-73.2573
 20
-22.8493
 30
5.06360e-15
  70
    32
  0
VERTEX
  8
0
  5
4962
 10
-73.2472
 20
-22.8647
 30
5.06667e-15
  70
    32
  0
VERTEX
  8
0
  5
4963
 10
-73.2369
 20
-22.8800
 30
5.06972e-15
  70
    32
  0
VERTEX
  8
0
  5
4964
 10
-73.2264
 20
-22.8951
 30
5.07274e-15
  70
    32
  0
VERTEX
  8
0
  5
4965
 10
-73.2157
 20
-22.9101
 30
5.07574e-15
  70
    32
  0
VERTEX
  8
0
  5
4966
 10
-73.2048
 20
-22.9250
 30
5.07871e-15
  70
    32
  0
VERTEX
  8
0
  5
4967
 10
-73.1938
 20
-22.9397
 30
5.08165e-15
  70
    32
  0
VERTEX
  8
0
  5
4968
 10
-73.1825
 20
-22.9543
 30
5.08457e-15
  70
    32
  0
VERTEX
  8
0
  5
4969
 10
-73.1711
 20
-22.9688
 30
5.08746e-15
  70
    32
  0
VERTEX
  8
0
  5
496A
 10
-73.1595
 20
-22.9831
 30
5.09032e-15
  70
    32
  0
VERTEX
  8
0
  5
496B
 10
-73.1478
 20
-22.9973
 30
5.09315e-15
  70
    32
  0
VERTEX
  8
0
  5
496C
 10
-73.1358
 20
-23.0113
 30
5.09595e-15
  70
    32
  0
VERTEX
  8
0
  5
496D
 10
-73.1237
 20
-23.0252
 30
5.09872e-15
  70
    32
  0
VERTEX
  8
0
  5
496E
 10
-73.1114
 20
-23.0389
 30
5.10147e-15
  70
    32
  0
VERTEX
  8
0
  5
496F
 10
-73.0990
 20
-23.0525
 30
5.10418e-15
  70
    32
  0
VERTEX
  8
0
  5
4970
 10
-73.0864
 20
-23.0659
 30
5.10686e-15
  70
    32
  0
VERTEX
  8
0
  5
4971
 10
-73.0736
 20
-23.0792
 30
5.10951e-15
  70
    32
  0
VERTEX
  8
0
  5
4972
 10
-73.0607
 20
-23.0923
 30
5.11213e-15
  70
    32
  0
VERTEX
  8
0
  5
4973
 10
-73.0476
 20
-23.1053
 30
5.11472e-15
  70
    32
  0
VERTEX
  8
0
  5
4974
 10
-73.0343
 20
-23.1181
 30
5.11727e-15
  70
    32
  0
VERTEX
  8
0
  5
4975
 10
-73.0209
 20
-23.1307
 30
5.11980e-15
  70
    32
  0
VERTEX
  8
0
  5
4976
 10
-73.0073
 20
-23.1431
 30
5.12229e-15
  70
    32
  0
VERTEX
  8
0
  5
4977
 10
-72.9936
 20
-23.1554
 30
5.12474e-15
  70
    32
  0
VERTEX
  8
0
  5
4978
 10
-72.9798
 20
-23.1676
 30
5.12716e-15
  70
    32
  0
VERTEX
  8
0
  5
4979
 10
-72.9657
 20
-23.1795
 30
5.12955e-15
  70
    32
  0
VERTEX
  8
0
  5
497A
 10
-72.9516
 20
-23.1913
 30
5.13190e-15
  70
    32
  0
VERTEX
  8
0
  5
497B
 10
-72.9373
 20
-23.2029
 30
5.13422e-15
  70
    32
  0
VERTEX
  8
0
  5
497C
 10
-72.9228
 20
-23.2143
 30
5.13650e-15
  70
    32
  0
VERTEX
  8
0
  5
497D
 10
-72.9083
 20
-23.2256
 30
5.13875e-15
  70
    32
  0
VERTEX
  8
0
  5
497E
 10
-72.8935
 20
-23.2367
 30
5.14096e-15
  70
    32
  0
VERTEX
  8
0
  5
497F
 10
-72.8787
 20
-23.2475
 30
5.14314e-15
  70
    32
  0
VERTEX
  8
0
  5
4980
 10
-72.8637
 20
-23.2583
 30
5.14528e-15
  70
    32
  0
VERTEX
  8
0
  5
4981
 10
-72.8486
 20
-23.2688
 30
5.14738e-15
  70
    32
  0
VERTEX
  8
0
  5
4982
 10
-72.8334
 20
-23.2791
 30
5.14944e-15
  70
    32
  0
VERTEX
  8
0
  5
4983
 10
-72.8180
 20
-23.2893
 30
5.15147e-15
  70
    32
  0
VERTEX
  8
0
  5
4984
 10
-72.8025
 20
-23.2992
 30
5.15346e-15
  70
    32
  0
VERTEX
  8
0
  5
4985
 10
-72.7869
 20
-23.3090
 30
5.15541e-15
  70
    32
  0
VERTEX
  8
0
  5
4986
 10
-72.7712
 20
-23.3186
 30
5.15732e-15
  70
    32
  0
VERTEX
  8
0
  5
4987
 10
-72.7553
 20
-23.3279
 30
5.15919e-15
  70
    32
  0
VERTEX
  8
0
  5
4988
 10
-72.7393
 20
-23.3371
 30
5.16103e-15
  70
    32
  0
VERTEX
  8
0
  5
4989
 10
-72.7233
 20
-23.3461
 30
5.16282e-15
  70
    32
  0
VERTEX
  8
0
  5
498A
 10
-72.7071
 20
-23.3549
 30
5.16458e-15
  70
    32
  0
VERTEX
  8
0
  5
498B
 10
-72.6908
 20
-23.3635
 30
5.16629e-15
  70
    32
  0
VERTEX
  8
0
  5
498C
 10
-72.6744
 20
-23.3719
 30
5.16797e-15
  70
    32
  0
VERTEX
  8
0
  5
498D
 10
-72.6579
 20
-23.3801
 30
5.16960e-15
  70
    32
  0
VERTEX
  8
0
  5
498E
 10
-72.6413
 20
-23.3880
 30
5.17120e-15
  70
    32
  0
VERTEX
  8
0
  5
498F
 10
-72.6246
 20
-23.3958
 30
5.17275e-15
  70
    32
  0
VERTEX
  8
0
  5
4990
 10
-72.6079
 20
-23.4034
 30
5.17426e-15
  70
    32
  0
VERTEX
  8
0
  5
4991
 10
-72.5910
 20
-23.4108
 30
5.17573e-15
  70
    32
  0
VERTEX
  8
0
  5
4992
 10
-72.5740
 20
-23.4179
 30
5.17716e-15
  70
    32
  0
VERTEX
  8
0
  5
4993
 10
-72.5570
 20
-23.4249
 30
5.17855e-15
  70
    32
  0
VERTEX
  8
0
  5
4994
 10
-72.5398
 20
-23.4316
 30
5.17990e-15
  70
    32
  0
VERTEX
  8
0
  5
4995
 10
-72.5226
 20
-23.4381
 30
5.18120e-15
  70
    32
  0
VERTEX
  8
0
  5
4996
 10
-72.5053
 20
-23.4444
 30
5.18246e-15
  70
    32
  0
VERTEX
  8
0
  5
4997
 10
-72.4880
 20
-23.4505
 30
5.18368e-15
  70
    32
  0
VERTEX
  8
0
  5
4998
 10
-72.4705
 20
-23.4564
 30
5.18486e-15
  70
    32
  0
VERTEX
  8
0
  5
4999
 10
-72.4530
 20
-23.4621
 30
5.18599e-15
  70
    32
  0
VERTEX
  8
0
  5
499A
 10
-72.4354
 20
-23.4676
 30
5.18708e-15
  70
    32
  0
VERTEX
  8
0
  5
499B
 10
-72.4178
 20
-23.4728
 30
5.18813e-15
  70
    32
  0
VERTEX
  8
0
  5
499C
 10
-72.4001
 20
-23.4778
 30
5.18913e-15
  70
    32
  0
VERTEX
  8
0
  5
499D
 10
-72.3823
 20
-23.4826
 30
5.19009e-15
  70
    32
  0
VERTEX
  8
0
  5
499E
 10
-72.3645
 20
-23.4872
 30
5.19101e-15
  70
    32
  0
VERTEX
  8
0
  5
499F
 10
-72.3466
 20
-23.4916
 30
5.19188e-15
  70
    32
  0
VERTEX
  8
0
  5
49A0
 10
-72.3287
 20
-23.4958
 30
5.19271e-15
  70
    32
  0
VERTEX
  8
0
  5
49A1
 10
-72.3107
 20
-23.4997
 30
5.19350e-15
  70
    32
  0
VERTEX
  8
0
  5
49A2
 10
-72.2926
 20
-23.5034
 30
5.19424e-15
  70
    32
  0
VERTEX
  8
0
  5
49A3
 10
-72.2746
 20
-23.5069
 30
5.19493e-15
  70
    32
  0
VERTEX
  8
0
  5
49A4
 10
-72.2564
 20
-23.5101
 30
5.19558e-15
  70
    32
  0
VERTEX
  8
0
  5
49A5
 10
-72.2383
 20
-23.5132
 30
5.19619e-15
  70
    32
  0
VERTEX
  8
0
  5
49A6
 10
-72.2201
 20
-23.5160
 30
5.19675e-15
  70
    32
  0
VERTEX
  8
0
  5
49A7
 10
-72.2019
 20
-23.5186
 30
5.19727e-15
  70
    32
  0
VERTEX
  8
0
  5
49A8
 10
-72.1836
 20
-23.5210
 30
5.19774e-15
  70
    32
  0
VERTEX
  8
0
  5
49A9
 10
-72.1653
 20
-23.5231
 30
5.19817e-15
  70
    32
  0
VERTEX
  8
0
  5
49AA
 10
-72.1470
 20
-23.5250
 30
5.19856e-15
  70
    32
  0
VERTEX
  8
0
  5
49AB
 10
-72.1287
 20
-23.5267
 30
5.19889e-15
  70
    32
  0
VERTEX
  8
0
  5
49AC
 10
-72.1103
 20
-23.5282
 30
5.19919e-15
  70
    32
  0
VERTEX
  8
0
  5
49AD
 10
-72.0920
 20
-23.5294
 30
5.19944e-15
  70
    32
  0
VERTEX
  8
0
  5
49AE
 10
-72.0736
 20
-23.5304
 30
5.19964e-15
  70
    32
  0
VERTEX
  8
0
  5
49AF
 10
-72.0552
 20
-23.5312
 30
5.19980e-15
  70
    32
  0
VERTEX
  8
0
  5
49B0
 10
-72.0368
 20
-23.5318
 30
5.19991e-15
  70
    32
  0
VERTEX
  8
0
  5
49B1
 10
-72.0184
 20
-23.5321
 30
5.19998e-15
  70
    32
  0
VERTEX
  8
0
  5
49B2
 10
-72.0000
 20
-23.5323
 30
5.20000e-15
  70
    32
  0
SEQEND
  8
0
  5
49B3
  0
LINE
  5
45AB
  8
0
  6
CONTINUOUS
 62
     3
 10
-73.4999999999999147
 20
-2.4999999999997051
 30
0.0000000000000006
 11
-73.4999999999998153
 21
-22.0301916119539882
 31
0.0000000000000049
210
0.0
220
1.0
230
-0.0000000000000002
  0
LINE
  5
45AC
  8
0
  6
CONTINUOUS
 62
     3
 10
-74.9999999999999147
 20
-2.7500000000000071
 30
0.0000000000000006
 11
-74.9999999999999147
 21
-2.4999999999997051
 31
0.0000000000000006
210
0.0
220
1.0
230
-0.0000000000000002
  0
LINE
  5
45AD
  8
0
  6
CONTINUOUS
 62
     3
 10
-2.4999999999997748
 20
-25.0343086499477394
 30
0.0000000000000056
 11
-2.7499999999998961
 21
-25.0343086499477394
 31
0.0000000000000056
210
0.0
220
1.0
230
-0.0000000000000002
  0
LINE
  5
45AE
  8
0
  6
CONTINUOUS
 62
     3
 10
2.750000000000099
 20
-25.0343086499477394
 30
0.0000000000000056
 11
2.5000000000002238
 21
-25.0343086499477394
 31
0.0000000000000056
210
0.0
220
1.0
230
-0.0000000000000002
  0
LINE
  5
45AF
  8
0
  6
CONTINUOUS
 62
     3
 10
75.0000000000003268
 20
-2.4999999999997091
 30
0.0000000000000006
 11
75.0000000000003268
 21
-2.7499999999999889
 31
0.0000000000000006
210
0.0
220
1.0
230
-0.0000000000000002
  0
LINE
  5
45B0
  8
0
  6
CONTINUOUS
 62
     3
 10
73.5000000000002132
 20
-22.0301916119539811
 30
0.0000000000000049
 11
73.5000000000003268
 21
-2.4999999999997051
 31
0.0000000000000006
210
0.0
220
1.0
230
-0.0000000000000002
  0
POLYLINE
  5
45B1
  8
0
  6
CONTINUOUS
 62
     3
 10
72.0000000000001847
 20
-23.5322501309508567
 30
0.0000000000000052
 66
     1
 70
     8
  0
VERTEX
  8
0
  5
49B4
 10
72.0000
 20
-23.5323
 30
5.20000e-15
  70
    32
  0
VERTEX
  8
0
  5
49B5
 10
72.0184
 20
-23.5321
 30
5.19998e-15
  70
    32
  0
VERTEX
  8
0
  5
49B6
 10
72.0368
 20
-23.5318
 30
5.19991e-15
  70
    32
  0
VERTEX
  8
0
  5
49B7
 10
72.0552
 20
-23.5312
 30
5.19980e-15
  70
    32
  0
VERTEX
  8
0
  5
49B8
 10
72.0736
 20
-23.5304
 30
5.19964e-15
  70
    32
  0
VERTEX
  8
0
  5
49B9
 10
72.0920
 20
-23.5294
 30
5.19944e-15
  70
    32
  0
VERTEX
  8
0
  5
49BA
 10
72.1103
 20
-23.5282
 30
5.19919e-15
  70
    32
  0
VERTEX
  8
0
  5
49BB
 10
72.1287
 20
-23.5267
 30
5.19889e-15
  70
    32
  0
VERTEX
  8
0
  5
49BC
 10
72.1470
 20
-23.5250
 30
5.19856e-15
  70
    32
  0
VERTEX
  8
0
  5
49BD
 10
72.1653
 20
-23.5231
 30
5.19817e-15
  70
    32
  0
VERTEX
  8
0
  5
49BE
 10
72.1836
 20
-23.5210
 30
5.19774e-15
  70
    32
  0
VERTEX
  8
0
  5
49BF
 10
72.2019
 20
-23.5186
 30
5.19727e-15
  70
    32
  0
VERTEX
  8
0
  5
49C0
 10
72.2201
 20
-23.5160
 30
5.19675e-15
  70
    32
  0
VERTEX
  8
0
  5
49C1
 10
72.2383
 20
-23.5132
 30
5.19619e-15
  70
    32
  0
VERTEX
  8
0
  5
49C2
 10
72.2564
 20
-23.5101
 30
5.19558e-15
  70
    32
  0
VERTEX
  8
0
  5
49C3
 10
72.2746
 20
-23.5069
 30
5.19493e-15
  70
    32
  0
VERTEX
  8
0
  5
49C4
 10
72.2926
 20
-23.5034
 30
5.19424e-15
  70
    32
  0
VERTEX
  8
0
  5
49C5
 10
72.3107
 20
-23.4997
 30
5.19350e-15
  70
    32
  0
VERTEX
  8
0
  5
49C6
 10
72.3287
 20
-23.4958
 30
5.19271e-15
  70
    32
  0
VERTEX
  8
0
  5
49C7
 10
72.3466
 20
-23.4916
 30
5.19188e-15
  70
    32
  0
VERTEX
  8
0
  5
49C8
 10
72.3645
 20
-23.4872
 30
5.19101e-15
  70
    32
  0
VERTEX
  8
0
  5
49C9
 10
72.3823
 20
-23.4826
 30
5.19009e-15
  70
    32
  0
VERTEX
  8
0
  5
49CA
 10
72.4001
 20
-23.4778
 30
5.18913e-15
  70
    32
  0
VERTEX
  8
0
  5
49CB
 10
72.4178
 20
-23.4728
 30
5.18813e-15
  70
    32
  0
VERTEX
  8
0
  5
49CC
 10
72.4354
 20
-23.4676
 30
5.18708e-15
  70
    32
  0
VERTEX
  8
0
  5
49CD
 10
72.4530
 20
-23.4621
 30
5.18599e-15
  70
    32
  0
VERTEX
  8
0
  5
49CE
 10
72.4705
 20
-23.4564
 30
5.18486e-15
  70
    32
  0
VERTEX
  8
0
  5
49CF
 10
72.4880
 20
-23.4505
 30
5.18368e-15
  70
    32
  0
VERTEX
  8
0
  5
49D0
 10
72.5053
 20
-23.4444
 30
5.18246e-15
  70
    32
  0
VERTEX
  8
0
  5
49D1
 10
72.5226
 20
-23.4381
 30
5.18120e-15
  70
    32
  0
VERTEX
  8
0
  5
49D2
 10
72.5398
 20
-23.4316
 30
5.17990e-15
  70
    32
  0
VERTEX
  8
0
  5
49D3
 10
72.5570
 20
-23.4249
 30
5.17855e-15
  70
    32
  0
VERTEX
  8
0
  5
49D4
 10
72.5740
 20
-23.4179
 30
5.17716e-15
  70
    32
  0
VERTEX
  8
0
  5
49D5
 10
72.5910
 20
-23.4108
 30
5.17573e-15
  70
    32
  0
VERTEX
  8
0
  5
49D6
 10
72.6079
 20
-23.4034
 30
5.17426e-15
  70
    32
  0
VERTEX
  8
0
  5
49D7
 10
72.6246
 20
-23.3958
 30
5.17275e-15
  70
    32
  0
VERTEX
  8
0
  5
49D8
 10
72.6413
 20
-23.3880
 30
5.17120e-15
  70
    32
  0
VERTEX
  8
0
  5
49D9
 10
72.6579
 20
-23.3801
 30
5.16960e-15
  70
    32
  0
VERTEX
  8
0
  5
49DA
 10
72.6744
 20
-23.3719
 30
5.16797e-15
  70
    32
  0
VERTEX
  8
0
  5
49DB
 10
72.6908
 20
-23.3635
 30
5.16629e-15
  70
    32
  0
VERTEX
  8
0
  5
49DC
 10
72.7071
 20
-23.3549
 30
5.16458e-15
  70
    32
  0
VERTEX
  8
0
  5
49DD
 10
72.7233
 20
-23.3461
 30
5.16282e-15
  70
    32
  0
VERTEX
  8
0
  5
49DE
 10
72.7393
 20
-23.3371
 30
5.16103e-15
  70
    32
  0
VERTEX
  8
0
  5
49DF
 10
72.7553
 20
-23.3279
 30
5.15919e-15
  70
    32
  0
VERTEX
  8
0
  5
49E0
 10
72.7712
 20
-23.3186
 30
5.15732e-15
  70
    32
  0
VERTEX
  8
0
  5
49E1
 10
72.7869
 20
-23.3090
 30
5.15541e-15
  70
    32
  0
VERTEX
  8
0
  5
49E2
 10
72.8025
 20
-23.2992
 30
5.15346e-15
  70
    32
  0
VERTEX
  8
0
  5
49E3
 10
72.8180
 20
-23.2893
 30
5.15147e-15
  70
    32
  0
VERTEX
  8
0
  5
49E4
 10
72.8334
 20
-23.2791
 30
5.14944e-15
  70
    32
  0
VERTEX
  8
0
  5
49E5
 10
72.8486
 20
-23.2688
 30
5.14738e-15
  70
    32
  0
VERTEX
  8
0
  5
49E6
 10
72.8637
 20
-23.2583
 30
5.14528e-15
  70
    32
  0
VERTEX
  8
0
  5
49E7
 10
72.8787
 20
-23.2475
 30
5.14314e-15
  70
    32
  0
VERTEX
  8
0
  5
49E8
 10
72.8935
 20
-23.2367
 30
5.14096e-15
  70
    32
  0
VERTEX
  8
0
  5
49E9
 10
72.9083
 20
-23.2256
 30
5.13875e-15
  70
    32
  0
VERTEX
  8
0
  5
49EA
 10
72.9228
 20
-23.2143
 30
5.13650e-15
  70
    32
  0
VERTEX
  8
0
  5
49EB
 10
72.9373
 20
-23.2029
 30
5.13422e-15
  70
    32
  0
VERTEX
  8
0
  5
49EC
 10
72.9516
 20
-23.1913
 30
5.13190e-15
  70
    32
  0
VERTEX
  8
0
  5
49ED
 10
72.9657
 20
-23.1795
 30
5.12955e-15
  70
    32
  0
VERTEX
  8
0
  5
49EE
 10
72.9798
 20
-23.1676
 30
5.12716e-15
  70
    32
  0
VERTEX
  8
0
  5
49EF
 10
72.9936
 20
-23.1554
 30
5.12474e-15
  70
    32
  0
VERTEX
  8
0
  5
49F0
 10
73.0073
 20
-23.1431
 30
5.12229e-15
  70
    32
  0
VERTEX
  8
0
  5
49F1
 10
73.0209
 20
-23.1307
 30
5.11980e-15
  70
    32
  0
VERTEX
  8
0
  5
49F2
 10
73.0343
 20
-23.1181
 30
5.11727e-15
  70
    32
  0
VERTEX
  8
0
  5
49F3
 10
73.0476
 20
-23.1053
 30
5.11472e-15
  70
    32
  0
VERTEX
  8
0
  5
49F4
 10
73.0607
 20
-23.0923
 30
5.11213e-15
  70
    32
  0
VERTEX
  8
0
  5
49F5
 10
73.0736
 20
-23.0792
 30
5.10951e-15
  70
    32
  0
VERTEX
  8
0
  5
49F6
 10
73.0864
 20
-23.0659
 30
5.10686e-15
  70
    32
  0
VERTEX
  8
0
  5
49F7
 10
73.0990
 20
-23.0525
 30
5.10418e-15
  70
    32
  0
VERTEX
  8
0
  5
49F8
 10
73.1114
 20
-23.0389
 30
5.10147e-15
  70
    32
  0
VERTEX
  8
0
  5
49F9
 10
73.1237
 20
-23.0252
 30
5.09872e-15
  70
    32
  0
VERTEX
  8
0
  5
49FA
 10
73.1358
 20
-23.0113
 30
5.09595e-15
  70
    32
  0
VERTEX
  8
0
  5
49FB
 10
73.1478
 20
-22.9973
 30
5.09315e-15
  70
    32
  0
VERTEX
  8
0
  5
49FC
 10
73.1595
 20
-22.9831
 30
5.09032e-15
  70
    32
  0
VERTEX
  8
0
  5
49FD
 10
73.1711
 20
-22.9688
 30
5.08746e-15
  70
    32
  0
VERTEX
  8
0
  5
49FE
 10
73.1825
 20
-22.9543
 30
5.08457e-15
  70
    32
  0
VERTEX
  8
0
  5
49FF
 10
73.1938
 20
-22.9397
 30
5.08165e-15
  70
    32
  0
VERTEX
  8
0
  5
4A00
 10
73.2048
 20
-22.9250
 30
5.07871e-15
  70
    32
  0
VERTEX
  8
0
  5
4A01
 10
73.2157
 20
-22.9101
 30
5.07574e-15
  70
    32
  0
VERTEX
  8
0
  5
4A02
 10
73.2264
 20
-22.8951
 30
5.07274e-15
  70
    32
  0
VERTEX
  8
0
  5
4A03
 10
73.2369
 20
-22.8800
 30
5.06972e-15
  70
    32
  0
VERTEX
  8
0
  5
4A04
 10
73.2472
 20
-22.8647
 30
5.06667e-15
  70
    32
  0
VERTEX
  8
0
  5
4A05
 10
73.2573
 20
-22.8493
 30
5.06360e-15
  70
    32
  0
VERTEX
  8
0
  5
4A06
 10
73.2673
 20
-22.8338
 30
5.06050e-15
  70
    32
  0
VERTEX
  8
0
  5
4A07
 10
73.2770
 20
-22.8182
 30
5.05738e-15
  70
    32
  0
VERTEX
  8
0
  5
4A08
 10
73.2866
 20
-22.8024
 30
5.05423e-15
  70
    32
  0
VERTEX
  8
0
  5
4A09
 10
73.2960
 20
-22.7865
 30
5.05106e-15
  70
    32
  0
VERTEX
  8
0
  5
4A0A
 10
73.3051
 20
-22.7706
 30
5.04787e-15
  70
    32
  0
VERTEX
  8
0
  5
4A0B
 10
73.3141
 20
-22.7545
 30
5.04466e-15
  70
    32
  0
VERTEX
  8
0
  5
4A0C
 10
73.3229
 20
-22.7383
 30
5.04142e-15
  70
    32
  0
VERTEX
  8
0
  5
4A0D
 10
73.3315
 20
-22.7219
 30
5.03816e-15
  70
    32
  0
VERTEX
  8
0
  5
4A0E
 10
73.3398
 20
-22.7055
 30
5.03488e-15
  70
    32
  0
VERTEX
  8
0
  5
4A0F
 10
73.3480
 20
-22.6890
 30
5.03158e-15
  70
    32
  0
VERTEX
  8
0
  5
4A10
 10
73.3560
 20
-22.6724
 30
5.02827e-15
  70
    32
  0
VERTEX
  8
0
  5
4A11
 10
73.3638
 20
-22.6557
 30
5.02493e-15
  70
    32
  0
VERTEX
  8
0
  5
4A12
 10
73.3713
 20
-22.6389
 30
5.02157e-15
  70
    32
  0
VERTEX
  8
0
  5
4A13
 10
73.3787
 20
-22.6220
 30
5.01820e-15
  70
    32
  0
VERTEX
  8
0
  5
4A14
 10
73.3858
 20
-22.6050
 30
5.01481e-15
  70
    32
  0
VERTEX
  8
0
  5
4A15
 10
73.3928
 20
-22.5879
 30
5.01140e-15
  70
    32
  0
VERTEX
  8
0
  5
4A16
 10
73.3995
 20
-22.5708
 30
5.00797e-15
  70
    32
  0
VERTEX
  8
0
  5
4A17
 10
73.4060
 20
-22.5535
 30
5.00453e-15
  70
    32
  0
VERTEX
  8
0
  5
4A18
 10
73.4123
 20
-22.5362
 30
5.00107e-15
  70
    32
  0
VERTEX
  8
0
  5
4A19
 10
73.4184
 20
-22.5188
 30
4.99759e-15
  70
    32
  0
VERTEX
  8
0
  5
4A1A
 10
73.4243
 20
-22.5014
 30
4.99410e-15
  70
    32
  0
VERTEX
  8
0
  5
4A1B
 10
73.4300
 20
-22.4838
 30
4.99060e-15
  70
    32
  0
VERTEX
  8
0
  5
4A1C
 10
73.4354
 20
-22.4662
 30
4.98709e-15
  70
    32
  0
VERTEX
  8
0
  5
4A1D
 10
73.4406
 20
-22.4485
 30
4.98356e-15
  70
    32
  0
VERTEX
  8
0
  5
4A1E
 10
73.4457
 20
-22.4308
 30
4.98001e-15
  70
    32
  0
VERTEX
  8
0
  5
4A1F
 10
73.4505
 20
-22.4130
 30
4.97646e-15
  70
    32
  0
VERTEX
  8
0
  5
4A20
 10
73.4550
 20
-22.3952
 30
4.97289e-15
  70
    32
  0
VERTEX
  8
0
  5
4A21
 10
73.4594
 20
-22.3773
 30
4.96932e-15
  70
    32
  0
VERTEX
  8
0
  5
4A22
 10
73.4636
 20
-22.3593
 30
4.96573e-15
  70
    32
  0
VERTEX
  8
0
  5
4A23
 10
73.4675
 20
-22.3413
 30
4.96213e-15
  70
    32
  0
VERTEX
  8
0
  5
4A24
 10
73.4712
 20
-22.3232
 30
4.95853e-15
  70
    32
  0
VERTEX
  8
0
  5
4A25
 10
73.4747
 20
-22.3051
 30
4.95491e-15
  70
    32
  0
VERTEX
  8
0
  5
4A26
 10
73.4779
 20
-22.2870
 30
4.95129e-15
  70
    32
  0
VERTEX
  8
0
  5
4A27
 10
73.4810
 20
-22.2688
 30
4.94766e-15
  70
    32
  0
VERTEX
  8
0
  5
4A28
 10
73.4838
 20
-22.2506
 30
4.94402e-15
  70
    32
  0
VERTEX
  8
0
  5
4A29
 10
73.4864
 20
-22.2323
 30
4.94037e-15
  70
    32
  0
VERTEX
  8
0
  5
4A2A
 10
73.4887
 20
-22.2141
 30
4.93672e-15
  70
    32
  0
VERTEX
  8
0
  5
4A2B
 10
73.4909
 20
-22.1958
 30
4.93307e-15
  70
    32
  0
VERTEX
  8
0
  5
4A2C
 10
73.4928
 20
-22.1774
 30
4.92941e-15
  70
    32
  0
VERTEX
  8
0
  5
4A2D
 10
73.4945
 20
-22.1591
 30
4.92574e-15
  70
    32
  0
VERTEX
  8
0
  5
4A2E
 10
73.4959
 20
-22.1407
 30
4.92207e-15
  70
    32
  0
VERTEX
  8
0
  5
4A2F
 10
73.4972
 20
-22.1223
 30
4.91840e-15
  70
    32
  0
VERTEX
  8
0
  5
4A30
 10
73.4982
 20
-22.1039
 30
4.91472e-15
  70
    32
  0
VERTEX
  8
0
  5
4A31
 10
73.4990
 20
-22.0855
 30
4.91104e-15
  70
    32
  0
VERTEX
  8
0
  5
4A32
 10
73.4995
 20
-22.0671
 30
4.90736e-15
  70
    32
  0
VERTEX
  8
0
  5
4A33
 10
73.4999
 20
-22.0486
 30
4.90368e-15
  70
    32
  0
VERTEX
  8
0
  5
4A34
 10
73.5000
 20
-22.0302
 30
4.90000e-15
  70
    32
  0
SEQEND
  8
0
  5
4A35
  0
LINE
  5
45B2
  8
0
  6
CONTINUOUS
 62
     3
 10
2.5000000000002238
 20
-23.5322501309508496
 30
0.0000000000000052
 11
72.000000000000199
 21
-23.5322501309508496
 31
0.0000000000000052
210
0.0
220
1.0
230
-0.0000000000000002
  0
LINE
  5
45B3
  8
0
  6
CONTINUOUS
 62
     3
 10
75.0000000000003695
 20
2.5000000000002909
 30
-0.0000000000000006
 11
73.5000000000003553
 21
2.5000000000002909
 31
-0.0000000000000006
210
0.0
220
1.0
230
-0.0000000000000002
  0
LINE
  5
45B4
  8
0
  6
CONTINUOUS
 62
     3
 10
-73.4999999999999432
 20
2.5000000000002909
 30
-0.0000000000000006
 11
-74.9999999999999432
 21
2.5000000000002909
 31
-0.0000000000000006
210
0.0
220
1.0
230
-0.0000000000000002
  0
LINE
  5
45B5
  8
0
  6
CONTINUOUS
 62
     3
 10
75.0000000000003553
 20
2.7500000000000111
 30
-0.0000000000000006
 11
75.0000000000003553
 21
2.5000000000002909
 31
-0.0000000000000006
210
0.0
220
1.0
230
-0.0000000000000002
  0
LINE
  5
45B6
  8
0
  6
CONTINUOUS
 62
     3
 10
73.5000000000004547
 20
23.5322501309513399
 30
-0.0000000000000052
 11
73.588328841458889
 21
23.5322501309513399
 31
-0.0000000000000052
210
0.0
220
1.0
230
-0.0000000000000002
  0
LINE
  5
45B7
  8
0
  6
CONTINUOUS
 62
     3
 10
73.5000000000003553
 20
2.5000000000002909
 30
-0.0000000000000006
 11
73.500000000000469
 21
23.5322501309513292
 31
-0.0000000000000052
210
0.0
220
1.0
230
-0.0000000000000002
  0
LINE
  5
45B8
  8
0
  6
CONTINUOUS
 62
     3
 10
-74.9999999999999432
 20
2.500000000000298
 30
-0.0000000000000006
 11
-74.9999999999999432
 21
2.7499999999999929
 31
-0.0000000000000006
210
0.0
220
1.0
230
-0.0000000000000002
  0
LINE
  5
45B9
  8
0
  6
CONTINUOUS
 62
     3
 10
-73.5000000000000711
 20
23.5322501309513399
 30
-0.0000000000000052
 11
-73.4999999999999574
 21
2.5000000000002909
 31
-0.0000000000000006
210
0.0
220
1.0
230
-0.0000000000000002
  0
LINE
  5
45BA
  8
0
  6
CONTINUOUS
 62
     3
 10
-73.5883288414586048
 20
23.5322501309513399
 30
-0.0000000000000052
 11
-73.5000000000000568
 21
23.5322501309513399
 31
-0.0000000000000052
210
0.0
220
1.0
230
-0.0000000000000002
  0
LINE
  5
45BB
  8
0
  6
CONTINUOUS
 62
     3
 10
73.5000000000003411
 20
-2.499999999999702
 30
0.0000000000000006
 11
75.0000000000003411
 21
-2.499999999999702
 31
0.0000000000000006
210
0.0
220
1.0
230
-0.0000000000000002
  0
LINE
  5
45BC
  8
0
  6
CONTINUOUS
 62
     3
 10
-74.9999999999999147
 20
-2.499999999999702
 30
0.0000000000000006
 11
-73.4999999999999147
 21
-2.499999999999702
 31
0.0000000000000006
210
0.0
220
1.0
230
-0.0000000000000002
  0
LINE
  5
45BD
  8
0
  6
CONTINUOUS
 62
     3
 10
73.5000000000003268
 20
-2.4999999999996838
 30
0.0000000000000006
 11
73.5000000000003411
 21
2.5000000000003229
 31
-0.0000000000000006
210
0.0
220
1.0
230
-0.0000000000000002
  0
LINE
  5
45BE
  8
0
  6
CONTINUOUS
 62
     3
 10
-74.9999999999999147
 20
2.5000000000003268
 30
-0.0000000000000006
 11
-74.9999999999999147
 21
-2.4999999999996798
 31
0.0000000000000006
210
0.0
220
1.0
230
-0.0000000000000002
  0
LINE
  5
45BF
  8
0
  6
CONTINUOUS
 62
     3
 10
75.0000000000003268
 20
-2.4999999999997051
 30
0.0000000000000006
 11
75.0000000000003553
 21
2.500000000000298
 31
-0.0000000000000006
210
0.0
220
1.0
230
-0.0000000000000002
  0
LINE
  5
45C0
  8
0
  6
CONTINUOUS
 62
     3
 10
-73.4999999999999147
 20
-2.4999999999996838
 30
0.0000000000000006
 11
-73.4999999999999289
 21
2.5000000000003229
 31
-0.0000000000000006
210
0.0
220
1.0
230
-0.0000000000000002
  0
LINE
  5
45C1
  8
0
  6
CONTINUOUS
 62
     3
 10
2.7500000000000848
 20
25.0301944330831887
 30
-0.0000000000000056
 11
2.500000000000369
 21
25.0301944330831887
 31
-0.0000000000000056
210
0.0
220
1.0
230
-0.0000000000000002
  0
LINE
  5
45C2
  8
0
  6
CONTINUOUS
 62
     3
 10
73.5883288414589174
 20
23.5322501309513186
 30
-0.0000000000000052
 11
2.500000000000369
 21
23.5322501309513186
 31
-0.0000000000000052
210
0.0
220
1.0
230
-0.0000000000000002
  0
LINE
  5
45C3
  8
0
  6
CONTINUOUS
 62
     3
 10
-73.4999999999998863
 20
-5.5070355578767254
 30
0.0000000000000012
 11
73.5000000000003126
 21
-5.5070355578767423
 31
0.0000000000000012
210
0.0
220
1.0
230
-0.0000000000000002
  0
LINE
  5
45C4
  8
0
  6
CONTINUOUS
 62
     3
 10
2.5000000000003748
 20
23.5322501309513292
 30
-0.0000000000000052
 11
2.500000000000377
 21
23.6107540653157386
 31
-0.0000000000000052
210
0.0
220
1.0
230
-0.0000000000000002
  0
LINE
  5
45C5
  8
0
  6
CONTINUOUS
 62
     3
 10
2.5000000000003761
 20
23.6107540653157386
 30
-0.0000000000000052
 11
-2.4999999999996221
 21
23.6107540653157386
 31
-0.0000000000000052
210
0.0
220
1.0
230
-0.0000000000000002
  0
LINE
  5
45C6
  8
0
  6
CONTINUOUS
 62
     3
 10
-2.4999999999996212
 20
23.6107540653157386
 30
-0.0000000000000052
 11
-2.499999999999623
 21
23.5322501309513292
 31
-0.0000000000000052
210
0.0
220
1.0
230
-0.0000000000000002
  0
LINE
  5
45C7
  8
0
  6
CONTINUOUS
 62
     3
 10
-2.499999999999623
 20
23.5322501309513292
 30
-0.0000000000000052
 11
-73.5883288414586048
 21
23.5322501309513186
 31
-0.0000000000000052
210
0.0
220
1.0
230
-0.0000000000000002
  0
LINE
  5
45C8
  8
0
  6
CONTINUOUS
 62
     3
 10
2.500000000000377
 20
23.6107540653157386
 30
-0.0000000000000052
 11
2.500000000000377
 21
25.1086983674476016
 31
-0.0000000000000056
210
0.0
220
1.0
230
-0.0000000000000002
  0
LINE
  5
45C9
  8
0
  6
CONTINUOUS
 62
     3
 10
2.5000000000003761
 20
25.1086983674476087
 30
-0.0000000000000056
 11
-2.4999999999996221
 21
25.1086983674476087
 31
-0.0000000000000056
210
0.0
220
1.0
230
-0.0000000000000002
  0
LINE
  5
45CA
  8
0
  6
CONTINUOUS
 62
     3
 10
-2.4999999999996212
 20
23.6107540653157386
 30
-0.0000000000000052
 11
-2.4999999999996212
 21
25.1086983674476016
 31
-0.0000000000000056
210
0.0
220
1.0
230
-0.0000000000000002
  0
LINE
  5
45CB
  8
0
  6
CONTINUOUS
 62
     3
 10
-2.499999999999623
 20
25.0301944330831887
 30
-0.0000000000000056
 11
-2.749999999999909
 21
25.0301944330831887
 31
-0.0000000000000056
210
0.0
220
1.0
230
-0.0000000000000002
  0
LINE
  5
45CC
  8
0
  6
CONTINUOUS
 62
     3
 10
72.5000000000001421
 20
-23.9999999999999503
 30
0.0000000000000053
 11
2.7500000000001128
 21
-23.9999999999999787
 31
0.0000000000000053
210
0.0
220
1.0
230
-0.0000000000000002
  0
LINE
  5
45CD
  8
0
  6
CONTINUOUS
 62
     3
 10
2.750000000000103
 20
-23.9999999999999787
 30
0.0000000000000053
 11
2.750000000000103
 21
-25.4999999999999893
 31
0.0000000000000057
210
0.0
220
1.0
230
-0.0000000000000002
  0
LINE
  5
45CE
  8
0
  6
CONTINUOUS
 62
     3
 10
2.750000000000103
 20
-25.4999999999999787
 30
0.0000000000000057
 11
-2.7499999999998961
 21
-25.4999999999999787
 31
0.0000000000000057
210
0.0
220
1.0
230
-0.0000000000000002
  0
LINE
  5
45CF
  8
0
  6
CONTINUOUS
 62
     3
 10
-2.7499999999998961
 20
-25.4999999999999787
 30
0.0000000000000057
 11
-2.7499999999998961
 21
-23.9999999999999787
 31
0.0000000000000053
210
0.0
220
1.0
230
-0.0000000000000002
  0
LINE
  5
45D0
  8
0
  6
CONTINUOUS
 62
     3
 10
-2.7499999999998961
 20
-23.9999999999999787
 30
0.0000000000000053
 11
-72.4999999999998437
 21
-24.0000000000000213
 31
0.0000000000000053
210
0.0
220
1.0
230
-0.0000000000000002
  0
ARC
  5
45D1
  8
0
  6
CONTINUOUS
 62
     3
 10
72.4999999999998721
 20
-22.5000000000000107
 30
0.0
 40
1.5
210
0.0
220
-0.0000000000000002
230
-1.0
 50
270.0
 51
359.9999999999992042
  0
LINE
  5
45D2
  8
0
  6
CONTINUOUS
 62
     3
 10
-73.9999999999998579
 20
-22.5000000000000497
 30
0.000000000000005
 11
-73.9999999999999005
 21
-2.7500000000000071
 31
0.0000000000000006
210
0.0
220
1.0
230
-0.0000000000000002
  0
LINE
  5
45D3
  8
0
  6
CONTINUOUS
 62
     3
 10
-73.9999999999999147
 20
-2.750000000000008
 30
0.0000000000000006
 11
-75.4999999999999289
 21
-2.750000000000008
 31
0.0000000000000006
210
0.0
220
1.0
230
-0.0000000000000002
  0
LINE
  5
45D4
  8
0
  6
CONTINUOUS
 62
     3
 10
-75.4999999999999289
 20
-2.750000000000008
 30
0.0000000000000006
 11
-75.4999999999999289
 21
2.7499999999999929
 31
-0.0000000000000006
210
0.0
220
1.0
230
-0.0000000000000002
  0
LINE
  5
45D5
  8
0
  6
CONTINUOUS
 62
     3
 10
-75.4999999999999147
 20
2.749999999999992
 30
-0.0000000000000006
 11
-73.9999999999999147
 21
2.7499999999999911
 31
-0.0000000000000006
210
0.0
220
1.0
230
-0.0000000000000002
  0
LINE
  5
45D6
  8
0
  6
CONTINUOUS
 62
     3
 10
-73.9999999999999289
 20
2.7499999999999911
 30
-0.0000000000000006
 11
-73.9999999999998863
 21
22.5
 31
-0.000000000000005
210
0.0
220
1.0
230
-0.0000000000000002
  0
ARC
  5
45D7
  8
0
  6
CONTINUOUS
 62
     3
 10
72.4999999999998721
 20
22.4999999999999609
 30
0.0
 40
1.500000000000014
210
0.0
220
-0.0000000000000002
230
-1.0
 50
0.0000000000016284
 51
90.0
  0
LINE
  5
45D8
  8
0
  6
CONTINUOUS
 62
     3
 10
-72.4999999999998721
 20
23.9999999999999609
 30
-0.0000000000000053
 11
-2.7499999999999001
 21
24.0000000000000107
 31
-0.0000000000000053
210
0.0
220
1.0
230
-0.0000000000000002
  0
LINE
  5
45D9
  8
0
  6
CONTINUOUS
 62
     3
 10
-2.7499999999999081
 20
24.0000000000000107
 30
-0.0000000000000053
 11
-2.7499999999999081
 21
25.5000000000000107
 31
-0.0000000000000057
210
0.0
220
1.0
230
-0.0000000000000002
  0
LINE
  5
45DA
  8
0
  6
CONTINUOUS
 62
     3
 10
-2.749999999999909
 20
25.5000000000000107
 30
-0.0000000000000057
 11
2.750000000000091
 21
25.5000000000000107
 31
-0.0000000000000057
210
0.0
220
1.0
230
-0.0000000000000002
  0
LINE
  5
45DB
  8
0
  6
CONTINUOUS
 62
     3
 10
2.750000000000091
 20
25.5000000000000107
 30
-0.0000000000000057
 11
2.750000000000091
 21
24.0000000000000107
 31
-0.0000000000000053
210
0.0
220
1.0
230
-0.0000000000000002
  0
LINE
  5
45DC
  8
0
  6
CONTINUOUS
 62
     3
 10
2.750000000000091
 20
24.0000000000000107
 30
-0.0000000000000053
 11
72.5000000000001279
 21
23.9999999999999787
 31
-0.0000000000000053
210
0.0
220
1.0
230
-0.0000000000000002
  0
ARC
  5
45DD
  8
0
  6
CONTINUOUS
 62
     3
 10
-72.5000000000001137
 20
22.5000000000000107
 30
0.0
 40
1.5000000000000071
210
0.0
220
-0.0000000000000002
230
-1.0
 50
90.0000000000005542
 51
179.9999999999996874
  0
LINE
  5
45DE
  8
0
  6
CONTINUOUS
 62
     3
 10
74.0000000000001421
 20
22.5000000000000213
 30
-0.000000000000005
 11
74.0000000000001421
 21
2.7500000000000111
 31
-0.0000000000000006
210
0.0
220
1.0
230
-0.0000000000000002
  0
LINE
  5
45DF
  8
0
  6
CONTINUOUS
 62
     3
 10
74.0000000000001137
 20
2.7500000000000102
 30
-0.0000000000000006
 11
75.5000000000001279
 21
2.7500000000000111
 31
-0.0000000000000006
210
0.0
220
1.0
230
-0.0000000000000002
  0
LINE
  5
45E0
  8
0
  6
CONTINUOUS
 62
     3
 10
75.5000000000001421
 20
2.7500000000000111
 30
-0.0000000000000006
 11
75.5000000000001421
 21
-2.7499999999999889
 31
0.0000000000000006
210
0.0
220
1.0
230
-0.0000000000000002
  0
LINE
  5
45E1
  8
0
  6
CONTINUOUS
 62
     3
 10
75.5000000000001421
 20
-2.7499999999999898
 30
0.0000000000000006
 11
74.0000000000001137
 21
-2.7499999999999898
 31
0.0000000000000006
210
0.0
220
1.0
230
-0.0000000000000002
  0
LINE
  5
45E2
  8
0
  6
CONTINUOUS
 62
     3
 10
74.0000000000001137
 20
-2.7499999999999889
 30
0.0000000000000006
 11
74.0000000000001421
 21
-22.5
 31
0.000000000000005
210
0.0
220
1.0
230
-0.0000000000000002
  0
ARC
  5
45E3
  8
0
  6
CONTINUOUS
 62
     3
 10
-72.5000000000001421
 20
-22.4999999999999893
 30
0.0
 40
1.5
210
0.0
220
-0.0000000000000002
230
-1.0
 50
180.000000000000199
 51
270.0
  0
CIRCLE
  5
45E4
  8
0
  6
CONTINUOUS
 62
     3
 10
-175.0
 20
125.0
 30
0.0
 40
3.4999999999999898
210
0.0
220
-0.0000000000000002
230
-1.0
  0
CIRCLE
  5
45E5
  8
0
  6
CONTINUOUS
 62
     3
 10
-175.0000000000001137
 20
-125.0
 30
0.0
 40
3.499999999999992
210
0.0
220
-0.0000000000000002
230
-1.0
  0
CIRCLE
  5
45E6
  8
0
  6
CONTINUOUS
 62
     3
 10
174.9999999999998863
 20
-125.0
 30
0.0
 40
3.5000000000000089
210
0.0
220
-0.0000000000000002
230
-1.0
  0
CIRCLE
  5
45E7
  8
0
  6
CONTINUOUS
 62
     3
 10
174.9999999999998863
 20
125.0
 30
0.0
 40
3.4999999999999871
210
0.0
220
-0.0000000000000002
230
-1.0
  0
ARC
  5
45E8
  8
0
  6
CONTINUOUS
 62
     3
 10
174.9999999999998863
 20
-125.0
 30
0.0
 40
20.0
210
0.0
220
-0.0000000000000002
230
-1.0
 50
270.0
 51
0.0
  0
LINE
  5
45E9
  8
0
  6
CONTINUOUS
 62
     3
 10
-194.999999999999801
 20
-125.0
 30
0.0000000000000278
 11
-195.0
 21
125.0
 31
-0.0000000000000278
210
0.0
220
1.0
230
-0.0000000000000002
  0
ARC
  5
45EA
  8
0
  6
CONTINUOUS
 62
     3
 10
174.9999999999998863
 20
125.0
 30
0.0
 40
20.0
210
0.0
220
-0.0000000000000002
230
-1.0
 50
0.0
 51
90.0
  0
LINE
  5
45EB
  8
0
  6
CONTINUOUS
 62
     3
 10
-174.9999999999998863
 20
145.0
 30
-0.0000000000000322
 11
175.0
 21
145.0
 31
-0.0000000000000322
210
0.0
220
1.0
230
-0.0000000000000002
  0
ARC
  5
45EC
  8
0
  6
CONTINUOUS
 62
     3
 10
-175.0
 20
125.0
 30
0.0
 40
20.0
210
0.0
220
-0.0000000000000002
230
-1.0
 50
90.0
 51
180.0
  0
LINE
  5
45ED
  8
0
  6
CONTINUOUS
 62
     3
 10
195.0
 20
125.0
 30
-0.0000000000000278
 11
195.0000000000001137
 21
-125.0
 31
0.0000000000000278
210
0.0
220
1.0
230
-0.0000000000000002
  0
ARC
  5
45EE
  8
0
  6
CONTINUOUS
 62
     3
 10
-175.0000000000001137
 20
-125.0
 30
0.0
 40
20.0
210
0.0
220
-0.0000000000000002
230
-1.0
 50
180.0
 51
270.0
  0
LINE
  5
45EF
  8
0
  6
CONTINUOUS
 62
     3
 10
175.0000000000001137
 20
-145.0
 30
0.0000000000000322
 11
-174.9999999999998863
 21
-145.0
 31
0.0000000000000322
210
0.0
220
1.0
230
-0.0000000000000002
  0
LINE
  5
45F0
  8
0
  6
VERDECKT
 62
     1
 10
-74.9999999999998153
 20
-22.0301916119539882
 30
0.0000000000000049
 11
-74.9999999999999147
 21
-2.7500000000000071
 31
0.0000000000000006
210
0.0
220
1.0
230
-0.0000000000000002
  0
POLYLINE
  5
45F1
  8
0
  6
VERDECKT
 62
     1
 10
-71.9999999999998153
 20
-25.0343086499477394
 30
0.0000000000000056
 66
     1
 70
     8
  0
VERTEX
  8
0
  5
4A36
 10
-72.0000
 20
-25.0343
 30
5.60000e-15
  70
    32
  0
VERTEX
  8
0
  5
4A37
 10
-72.0368
 20
-25.0341
 30
5.59995e-15
  70
    32
  0
VERTEX
  8
0
  5
4A38
 10
-72.0736
 20
-25.0334
 30
5.59979e-15
  70
    32
  0
VERTEX
  8
0
  5
4A39
 10
-72.1104
 20
-25.0323
 30
5.59953e-15
  70
    32
  0
VERTEX
  8
0
  5
4A3A
 10
-72.1472
 20
-25.0307
 30
5.59916e-15
  70
    32
  0
VERTEX
  8
0
  5
4A3B
 10
-72.1840
 20
-25.0287
 30
5.59868e-15
  70
    32
  0
VERTEX
  8
0
  5
4A3C
 10
-72.2207
 20
-25.0262
 30
5.59810e-15
  70
    32
  0
VERTEX
  8
0
  5
4A3D
 10
-72.2574
 20
-25.0232
 30
5.59742e-15
  70
    32
  0
VERTEX
  8
0
  5
4A3E
 10
-72.2941
 20
-25.0198
 30
5.59663e-15
  70
    32
  0
VERTEX
  8
0
  5
4A3F
 10
-72.3307
 20
-25.0160
 30
5.59573e-15
  70
    32
  0
VERTEX
  8
0
  5
4A40
 10
-72.3672
 20
-25.0117
 30
5.59474e-15
  70
    32
  0
VERTEX
  8
0
  5
4A41
 10
-72.4037
 20
-25.0070
 30
5.59363e-15
  70
    32
  0
VERTEX
  8
0
  5
4A42
 10
-72.4402
 20
-25.0018
 30
5.59242e-15
  70
    32
  0
VERTEX
  8
0
  5
4A43
 10
-72.4766
 20
-24.9962
 30
5.59111e-15
  70
    32
  0
VERTEX
  8
0
  5
4A44
 10
-72.5129
 20
-24.9901
 30
5.58969e-15
  70
    32
  0
VERTEX
  8
0
  5
4A45
 10
-72.5491
 20
-24.9836
 30
5.58817e-15
  70
    32
  0
VERTEX
  8
0
  5
4A46
 10
-72.5853
 20
-24.9766
 30
5.58655e-15
  70
    32
  0
VERTEX
  8
0
  5
4A47
 10
-72.6213
 20
-24.9692
 30
5.58482e-15
  70
    32
  0
VERTEX
  8
0
  5
4A48
 10
-72.6573
 20
-24.9613
 30
5.58299e-15
  70
    32
  0
VERTEX
  8
0
  5
4A49
 10
-72.6932
 20
-24.9530
 30
5.58106e-15
  70
    32
  0
VERTEX
  8
0
  5
4A4A
 10
-72.7289
 20
-24.9443
 30
5.57902e-15
  70
    32
  0
VERTEX
  8
0
  5
4A4B
 10
-72.7646
 20
-24.9351
 30
5.57688e-15
  70
    32
  0
VERTEX
  8
0
  5
4A4C
 10
-72.8001
 20
-24.9255
 30
5.57464e-15
  70
    32
  0
VERTEX
  8
0
  5
4A4D
 10
-72.8356
 20
-24.9154
 30
5.57230e-15
  70
    32
  0
VERTEX
  8
0
  5
4A4E
 10
-72.8709
 20
-24.9050
 30
5.56986e-15
  70
    32
  0
VERTEX
  8
0
  5
4A4F
 10
-72.9060
 20
-24.8940
 30
5.56731e-15
  70
    32
  0
VERTEX
  8
0
  5
4A50
 10
-72.9410
 20
-24.8827
 30
5.56467e-15
  70
    32
  0
VERTEX
  8
0
  5
4A51
 10
-72.9759
 20
-24.8709
 30
5.56193e-15
  70
    32
  0
VERTEX
  8
0
  5
4A52
 10
-73.0107
 20
-24.8587
 30
5.55908e-15
  70
    32
  0
VERTEX
  8
0
  5
4A53
 10
-73.0453
 20
-24.8461
 30
5.55614e-15
  70
    32
  0
VERTEX
  8
0
  5
4A54
 10
-73.0797
 20
-24.8330
 30
5.55309e-15
  70
    32
  0
VERTEX
  8
0
  5
4A55
 10
-73.1140
 20
-24.8195
 30
5.54995e-15
  70
    32
  0
VERTEX
  8
0
  5
4A56
 10
-73.1481
 20
-24.8056
 30
5.54672e-15
  70
    32
  0
VERTEX
  8
0
  5
4A57
 10
-73.1820
 20
-24.7913
 30
5.54338e-15
  70
    32
  0
VERTEX
  8
0
  5
4A58
 10
-73.2157
 20
-24.7766
 30
5.53995e-15
  70
    32
  0
VERTEX
  8
0
  5
4A59
 10
-73.2493
 20
-24.7614
 30
5.53642e-15
  70
    32
  0
VERTEX
  8
0
  5
4A5A
 10
-73.2827
 20
-24.7459
 30
5.53279e-15
  70
    32
  0
VERTEX
  8
0
  5
4A5B
 10
-73.3158
 20
-24.7299
 30
5.52907e-15
  70
    32
  0
VERTEX
  8
0
  5
4A5C
 10
-73.3488
 20
-24.7135
 30
5.52526e-15
  70
    32
  0
VERTEX
  8
0
  5
4A5D
 10
-73.3816
 20
-24.6968
 30
5.52135e-15
  70
    32
  0
VERTEX
  8
0
  5
4A5E
 10
-73.4142
 20
-24.6796
 30
5.51734e-15
  70
    32
  0
VERTEX
  8
0
  5
4A5F
 10
-73.4466
 20
-24.6620
 30
5.51325e-15
  70
    32
  0
VERTEX
  8
0
  5
4A60
 10
-73.4787
 20
-24.6440
 30
5.50906e-15
  70
    32
  0
VERTEX
  8
0
  5
4A61
 10
-73.5106
 20
-24.6257
 30
5.50478e-15
  70
    32
  0
VERTEX
  8
0
  5
4A62
 10
-73.5423
 20
-24.6069
 30
5.50041e-15
  70
    32
  0
VERTEX
  8
0
  5
4A63
 10
-73.5738
 20
-24.5878
 30
5.49595e-15
  70
    32
  0
VERTEX
  8
0
  5
4A64
 10
-73.6050
 20
-24.5682
 30
5.49140e-15
  70
    32
  0
VERTEX
  8
0
  5
4A65
 10
-73.6360
 20
-24.5483
 30
5.48676e-15
  70
    32
  0
VERTEX
  8
0
  5
4A66
 10
-73.6667
 20
-24.5280
 30
5.48203e-15
  70
    32
  0
VERTEX
  8
0
  5
4A67
 10
-73.6972
 20
-24.5074
 30
5.47721e-15
  70
    32
  0
VERTEX
  8
0
  5
4A68
 10
-73.7274
 20
-24.4863
 30
5.47231e-15
  70
    32
  0
VERTEX
  8
0
  5
4A69
 10
-73.7574
 20
-24.4649
 30
5.46732e-15
  70
    32
  0
VERTEX
  8
0
  5
4A6A
 10
-73.7871
 20
-24.4431
 30
5.46225e-15
  70
    32
  0
VERTEX
  8
0
  5
4A6B
 10
-73.8165
 20
-24.4210
 30
5.45709e-15
  70
    32
  0
VERTEX
  8
0
  5
4A6C
 10
-73.8457
 20
-24.3985
 30
5.45184e-15
  70
    32
  0
VERTEX
  8
0
  5
4A6D
 10
-73.8746
 20
-24.3756
 30
5.44652e-15
  70
    32
  0
VERTEX
  8
0
  5
4A6E
 10
-73.9032
 20
-24.3524
 30
5.44111e-15
  70
    32
  0
VERTEX
  8
0
  5
4A6F
 10
-73.9315
 20
-24.3288
 30
5.43562e-15
  70
    32
  0
VERTEX
  8
0
  5
4A70
 10
-73.9595
 20
-24.3049
 30
5.43005e-15
  70
    32
  0
VERTEX
  8
0
  5
4A71
 10
-73.9872
 20
-24.2807
 30
5.42440e-15
  70
    32
  0
VERTEX
  8
0
  5
4A72
 10
-74.0147
 20
-24.2561
 30
5.41867e-15
  70
    32
  0
VERTEX
  8
0
  5
4A73
 10
-74.0418
 20
-24.2312
 30
5.41286e-15
  70
    32
  0
VERTEX
  8
0
  5
4A74
 10
-74.0686
 20
-24.2059
 30
5.40697e-15
  70
    32
  0
VERTEX
  8
0
  5
4A75
 10
-74.0951
 20
-24.1803
 30
5.40101e-15
  70
    32
  0
VERTEX
  8
0
  5
4A76
 10
-74.1213
 20
-24.1544
 30
5.39497e-15
  70
    32
  0
VERTEX
  8
0
  5
4A77
 10
-74.1472
 20
-24.1282
 30
5.38886e-15
  70
    32
  0
VERTEX
  8
0
  5
4A78
 10
-74.1727
 20
-24.1017
 30
5.38268e-15
  70
    32
  0
VERTEX
  8
0
  5
4A79
 10
-74.1980
 20
-24.0748
 30
5.37642e-15
  70
    32
  0
VERTEX
  8
0
  5
4A7A
 10
-74.2229
 20
-24.0476
 30
5.37009e-15
  70
    32
  0
VERTEX
  8
0
  5
4A7B
 10
-74.2474
 20
-24.0202
 30
5.36369e-15
  70
    32
  0
VERTEX
  8
0
  5
4A7C
 10
-74.2716
 20
-23.9924
 30
5.35722e-15
  70
    32
  0
VERTEX
  8
0
  5
4A7D
 10
-74.2955
 20
-23.9643
 30
5.35068e-15
  70
    32
  0
VERTEX
  8
0
  5
4A7E
 10
-74.3190
 20
-23.9360
 30
5.34408e-15
  70
    32
  0
VERTEX
  8
0
  5
4A7F
 10
-74.3422
 20
-23.9073
 30
5.33740e-15
  70
    32
  0
VERTEX
  8
0
  5
4A80
 10
-74.3650
 20
-23.8784
 30
5.33066e-15
  70
    32
  0
VERTEX
  8
0
  5
4A81
 10
-74.3875
 20
-23.8492
 30
5.32386e-15
  70
    32
  0
VERTEX
  8
0
  5
4A82
 10
-74.4096
 20
-23.8197
 30
5.31699e-15
  70
    32
  0
VERTEX
  8
0
  5
4A83
 10
-74.4314
 20
-23.7900
 30
5.31006e-15
  70
    32
  0
VERTEX
  8
0
  5
4A84
 10
-74.4528
 20
-23.7600
 30
5.30307e-15
  70
    32
  0
VERTEX
  8
0
  5
4A85
 10
-74.4738
 20
-23.7297
 30
5.29601e-15
  70
    32
  0
VERTEX
  8
0
  5
4A86
 10
-74.4944
 20
-23.6992
 30
5.28890e-15
  70
    32
  0
VERTEX
  8
0
  5
4A87
 10
-74.5147
 20
-23.6684
 30
5.28173e-15
  70
    32
  0
VERTEX
  8
0
  5
4A88
 10
-74.5346
 20
-23.6374
 30
5.27450e-15
  70
    32
  0
VERTEX
  8
0
  5
4A89
 10
-74.5541
 20
-23.6061
 30
5.26721e-15
  70
    32
  0
VERTEX
  8
0
  5
4A8A
 10
-74.5732
 20
-23.5746
 30
5.25987e-15
  70
    32
  0
VERTEX
  8
0
  5
4A8B
 10
-74.5919
 20
-23.5429
 30
5.25248e-15
  70
    32
  0
VERTEX
  8
0
  5
4A8C
 10
-74.6103
 20
-23.5109
 30
5.24503e-15
  70
    32
  0
VERTEX
  8
0
  5
4A8D
 10
-74.6282
 20
-23.4787
 30
5.23753e-15
  70
    32
  0
VERTEX
  8
0
  5
4A8E
 10
-74.6458
 20
-23.4463
 30
5.22998e-15
  70
    32
  0
VERTEX
  8
0
  5
4A8F
 10
-74.6629
 20
-23.4137
 30
5.22238e-15
  70
    32
  0
VERTEX
  8
0
  5
4A90
 10
-74.6797
 20
-23.3809
 30
5.21473e-15
  70
    32
  0
VERTEX
  8
0
  5
4A91
 10
-74.6960
 20
-23.3478
 30
5.20703e-15
  70
    32
  0
VERTEX
  8
0
  5
4A92
 10
-74.7120
 20
-23.3146
 30
5.19929e-15
  70
    32
  0
VERTEX
  8
0
  5
4A93
 10
-74.7275
 20
-23.2812
 30
5.19150e-15
  70
    32
  0
VERTEX
  8
0
  5
4A94
 10
-74.7426
 20
-23.2476
 30
5.18367e-15
  70
    32
  0
VERTEX
  8
0
  5
4A95
 10
-74.7573
 20
-23.2138
 30
5.17579e-15
  70
    32
  0
VERTEX
  8
0
  5
4A96
 10
-74.7716
 20
-23.1798
 30
5.16788e-15
  70
    32
  0
VERTEX
  8
0
  5
4A97
 10
-74.7855
 20
-23.1457
 30
5.15992e-15
  70
    32
  0
VERTEX
  8
0
  5
4A98
 10
-74.7990
 20
-23.1114
 30
5.15193e-15
  70
    32
  0
VERTEX
  8
0
  5
4A99
 10
-74.8120
 20
-23.0769
 30
5.14389e-15
  70
    32
  0
VERTEX
  8
0
  5
4A9A
 10
-74.8246
 20
-23.0422
 30
5.13582e-15
  70
    32
  0
VERTEX
  8
0
  5
4A9B
 10
-74.8368
 20
-23.0075
 30
5.12772e-15
  70
    32
  0
VERTEX
  8
0
  5
4A9C
 10
-74.8486
 20
-22.9725
 30
5.11958e-15
  70
    32
  0
VERTEX
  8
0
  5
4A9D
 10
-74.8599
 20
-22.9375
 30
5.11140e-15
  70
    32
  0
VERTEX
  8
0
  5
4A9E
 10
-74.8708
 20
-22.9022
 30
5.10320e-15
  70
    32
  0
VERTEX
  8
0
  5
4A9F
 10
-74.8813
 20
-22.8669
 30
5.09496e-15
  70
    32
  0
VERTEX
  8
0
  5
4AA0
 10
-74.8913
 20
-22.8314
 30
5.08670e-15
  70
    32
  0
VERTEX
  8
0
  5
4AA1
 10
-74.9009
 20
-22.7958
 30
5.07841e-15
  70
    32
  0
VERTEX
  8
0
  5
4AA2
 10
-74.9101
 20
-22.7601
 30
5.07009e-15
  70
    32
  0
VERTEX
  8
0
  5
4AA3
 10
-74.9188
 20
-22.7243
 30
5.06174e-15
  70
    32
  0
VERTEX
  8
0
  5
4AA4
 10
-74.9271
 20
-22.6884
 30
5.05337e-15
  70
    32
  0
VERTEX
  8
0
  5
4AA5
 10
-74.9350
 20
-22.6524
 30
5.04498e-15
  70
    32
  0
VERTEX
  8
0
  5
4AA6
 10
-74.9424
 20
-22.6163
 30
5.03656e-15
  70
    32
  0
VERTEX
  8
0
  5
4AA7
 10
-74.9493
 20
-22.5801
 30
5.02813e-15
  70
    32
  0
VERTEX
  8
0
  5
4AA8
 10
-74.9558
 20
-22.5438
 30
5.01967e-15
  70
    32
  0
VERTEX
  8
0
  5
4AA9
 10
-74.9619
 20
-22.5074
 30
5.01120e-15
  70
    32
  0
VERTEX
  8
0
  5
4AAA
 10
-74.9675
 20
-22.4710
 30
5.00271e-15
  70
    32
  0
VERTEX
  8
0
  5
4AAB
 10
-74.9727
 20
-22.4345
 30
4.99421e-15
  70
    32
  0
VERTEX
  8
0
  5
4AAC
 10
-74.9774
 20
-22.3979
 30
4.98569e-15
  70
    32
  0
VERTEX
  8
0
  5
4AAD
 10
-74.9817
 20
-22.3613
 30
4.97716e-15
  70
    32
  0
VERTEX
  8
0
  5
4AAE
 10
-74.9856
 20
-22.3246
 30
4.96861e-15
  70
    32
  0
VERTEX
  8
0
  5
4AAF
 10
-74.9889
 20
-22.2879
 30
4.96006e-15
  70
    32
  0
VERTEX
  8
0
  5
4AB0
 10
-74.9919
 20
-22.2512
 30
4.95150e-15
  70
    32
  0
VERTEX
  8
0
  5
4AB1
 10
-74.9944
 20
-22.2144
 30
4.94292e-15
  70
    32
  0
VERTEX
  8
0
  5
4AB2
 10
-74.9964
 20
-22.1776
 30
4.93435e-15
  70
    32
  0
VERTEX
  8
0
  5
4AB3
 10
-74.9980
 20
-22.1408
 30
4.92577e-15
  70
    32
  0
VERTEX
  8
0
  5
4AB4
 10
-74.9991
 20
-22.1039
 30
4.91718e-15
  70
    32
  0
VERTEX
  8
0
  5
4AB5
 10
-74.9998
 20
-22.0671
 30
4.90859e-15
  70
    32
  0
VERTEX
  8
0
  5
4AB6
 10
-75.0000
 20
-22.0302
 30
4.90000e-15
  70
    32
  0
SEQEND
  8
0
  5
4AB7
  0
LINE
  5
45F2
  8
0
  6
VERDECKT
 62
     1
 10
-2.7499999999998961
 20
-25.0343086499477394
 30
0.0000000000000056
 11
-71.9999999999998153
 21
-25.0343086499477394
 31
0.0000000000000056
210
0.0
220
1.0
230
-0.0000000000000002
  0
LINE
  5
45F3
  8
0
  6
VERDECKT
 62
     1
 10
72.0000000000002274
 20
-25.0343086499477394
 30
0.0000000000000056
 11
2.750000000000099
 21
-25.0343086499477394
 31
0.0000000000000056
210
0.0
220
1.0
230
-0.0000000000000002
  0
POLYLINE
  5
45F4
  8
0
  6
VERDECKT
 62
     1
 10
75.0000000000002274
 20
-22.0301916119540024
 30
0.0000000000000049
 66
     1
 70
     8
  0
VERTEX
  8
0
  5
4AB8
 10
75.0000
 20
-22.0302
 30
4.90000e-15
  70
    32
  0
VERTEX
  8
0
  5
4AB9
 10
74.9998
 20
-22.0671
 30
4.90859e-15
  70
    32
  0
VERTEX
  8
0
  5
4ABA
 10
74.9991
 20
-22.1039
 30
4.91718e-15
  70
    32
  0
VERTEX
  8
0
  5
4ABB
 10
74.9980
 20
-22.1408
 30
4.92577e-15
  70
    32
  0
VERTEX
  8
0
  5
4ABC
 10
74.9964
 20
-22.1776
 30
4.93435e-15
  70
    32
  0
VERTEX
  8
0
  5
4ABD
 10
74.9944
 20
-22.2144
 30
4.94292e-15
  70
    32
  0
VERTEX
  8
0
  5
4ABE
 10
74.9919
 20
-22.2512
 30
4.95150e-15
  70
    32
  0
VERTEX
  8
0
  5
4ABF
 10
74.9889
 20
-22.2879
 30
4.96006e-15
  70
    32
  0
VERTEX
  8
0
  5
4AC0
 10
74.9856
 20
-22.3246
 30
4.96861e-15
  70
    32
  0
VERTEX
  8
0
  5
4AC1
 10
74.9817
 20
-22.3613
 30
4.97716e-15
  70
    32
  0
VERTEX
  8
0
  5
4AC2
 10
74.9774
 20
-22.3979
 30
4.98569e-15
  70
    32
  0
VERTEX
  8
0
  5
4AC3
 10
74.9727
 20
-22.4345
 30
4.99421e-15
  70
    32
  0
VERTEX
  8
0
  5
4AC4
 10
74.9675
 20
-22.4710
 30
5.00271e-15
  70
    32
  0
VERTEX
  8
0
  5
4AC5
 10
74.9619
 20
-22.5074
 30
5.01120e-15
  70
    32
  0
VERTEX
  8
0
  5
4AC6
 10
74.9558
 20
-22.5438
 30
5.01967e-15
  70
    32
  0
VERTEX
  8
0
  5
4AC7
 10
74.9493
 20
-22.5801
 30
5.02813e-15
  70
    32
  0
VERTEX
  8
0
  5
4AC8
 10
74.9424
 20
-22.6163
 30
5.03656e-15
  70
    32
  0
VERTEX
  8
0
  5
4AC9
 10
74.9350
 20
-22.6524
 30
5.04498e-15
  70
    32
  0
VERTEX
  8
0
  5
4ACA
 10
74.9271
 20
-22.6884
 30
5.05337e-15
  70
    32
  0
VERTEX
  8
0
  5
4ACB
 10
74.9188
 20
-22.7243
 30
5.06174e-15
  70
    32
  0
VERTEX
  8
0
  5
4ACC
 10
74.9101
 20
-22.7601
 30
5.07009e-15
  70
    32
  0
VERTEX
  8
0
  5
4ACD
 10
74.9009
 20
-22.7958
 30
5.07841e-15
  70
    32
  0
VERTEX
  8
0
  5
4ACE
 10
74.8913
 20
-22.8314
 30
5.08670e-15
  70
    32
  0
VERTEX
  8
0
  5
4ACF
 10
74.8813
 20
-22.8669
 30
5.09496e-15
  70
    32
  0
VERTEX
  8
0
  5
4AD0
 10
74.8708
 20
-22.9022
 30
5.10320e-15
  70
    32
  0
VERTEX
  8
0
  5
4AD1
 10
74.8599
 20
-22.9375
 30
5.11140e-15
  70
    32
  0
VERTEX
  8
0
  5
4AD2
 10
74.8486
 20
-22.9725
 30
5.11958e-15
  70
    32
  0
VERTEX
  8
0
  5
4AD3
 10
74.8368
 20
-23.0075
 30
5.12772e-15
  70
    32
  0
VERTEX
  8
0
  5
4AD4
 10
74.8246
 20
-23.0422
 30
5.13582e-15
  70
    32
  0
VERTEX
  8
0
  5
4AD5
 10
74.8120
 20
-23.0769
 30
5.14389e-15
  70
    32
  0
VERTEX
  8
0
  5
4AD6
 10
74.7990
 20
-23.1114
 30
5.15193e-15
  70
    32
  0
VERTEX
  8
0
  5
4AD7
 10
74.7855
 20
-23.1457
 30
5.15992e-15
  70
    32
  0
VERTEX
  8
0
  5
4AD8
 10
74.7716
 20
-23.1798
 30
5.16788e-15
  70
    32
  0
VERTEX
  8
0
  5
4AD9
 10
74.7573
 20
-23.2138
 30
5.17579e-15
  70
    32
  0
VERTEX
  8
0
  5
4ADA
 10
74.7426
 20
-23.2476
 30
5.18367e-15
  70
    32
  0
VERTEX
  8
0
  5
4ADB
 10
74.7275
 20
-23.2812
 30
5.19150e-15
  70
    32
  0
VERTEX
  8
0
  5
4ADC
 10
74.7120
 20
-23.3146
 30
5.19929e-15
  70
    32
  0
VERTEX
  8
0
  5
4ADD
 10
74.6960
 20
-23.3478
 30
5.20703e-15
  70
    32
  0
VERTEX
  8
0
  5
4ADE
 10
74.6797
 20
-23.3809
 30
5.21473e-15
  70
    32
  0
VERTEX
  8
0
  5
4ADF
 10
74.6629
 20
-23.4137
 30
5.22238e-15
  70
    32
  0
VERTEX
  8
0
  5
4AE0
 10
74.6458
 20
-23.4463
 30
5.22998e-15
  70
    32
  0
VERTEX
  8
0
  5
4AE1
 10
74.6282
 20
-23.4787
 30
5.23753e-15
  70
    32
  0
VERTEX
  8
0
  5
4AE2
 10
74.6103
 20
-23.5109
 30
5.24503e-15
  70
    32
  0
VERTEX
  8
0
  5
4AE3
 10
74.5919
 20
-23.5429
 30
5.25248e-15
  70
    32
  0
VERTEX
  8
0
  5
4AE4
 10
74.5732
 20
-23.5746
 30
5.25987e-15
  70
    32
  0
VERTEX
  8
0
  5
4AE5
 10
74.5541
 20
-23.6061
 30
5.26721e-15
  70
    32
  0
VERTEX
  8
0
  5
4AE6
 10
74.5346
 20
-23.6374
 30
5.27450e-15
  70
    32
  0
VERTEX
  8
0
  5
4AE7
 10
74.5147
 20
-23.6684
 30
5.28173e-15
  70
    32
  0
VERTEX
  8
0
  5
4AE8
 10
74.4944
 20
-23.6992
 30
5.28890e-15
  70
    32
  0
VERTEX
  8
0
  5
4AE9
 10
74.4738
 20
-23.7297
 30
5.29601e-15
  70
    32
  0
VERTEX
  8
0
  5
4AEA
 10
74.4528
 20
-23.7600
 30
5.30307e-15
  70
    32
  0
VERTEX
  8
0
  5
4AEB
 10
74.4314
 20
-23.7900
 30
5.31006e-15
  70
    32
  0
VERTEX
  8
0
  5
4AEC
 10
74.4096
 20
-23.8197
 30
5.31699e-15
  70
    32
  0
VERTEX
  8
0
  5
4AED
 10
74.3875
 20
-23.8492
 30
5.32386e-15
  70
    32
  0
VERTEX
  8
0
  5
4AEE
 10
74.3650
 20
-23.8784
 30
5.33066e-15
  70
    32
  0
VERTEX
  8
0
  5
4AEF
 10
74.3422
 20
-23.9073
 30
5.33740e-15
  70
    32
  0
VERTEX
  8
0
  5
4AF0
 10
74.3190
 20
-23.9360
 30
5.34408e-15
  70
    32
  0
VERTEX
  8
0
  5
4AF1
 10
74.2955
 20
-23.9643
 30
5.35068e-15
  70
    32
  0
VERTEX
  8
0
  5
4AF2
 10
74.2716
 20
-23.9924
 30
5.35722e-15
  70
    32
  0
VERTEX
  8
0
  5
4AF3
 10
74.2474
 20
-24.0202
 30
5.36369e-15
  70
    32
  0
VERTEX
  8
0
  5
4AF4
 10
74.2229
 20
-24.0476
 30
5.37009e-15
  70
    32
  0
VERTEX
  8
0
  5
4AF5
 10
74.1980
 20
-24.0748
 30
5.37642e-15
  70
    32
  0
VERTEX
  8
0
  5
4AF6
 10
74.1727
 20
-24.1017
 30
5.38268e-15
  70
    32
  0
VERTEX
  8
0
  5
4AF7
 10
74.1472
 20
-24.1282
 30
5.38886e-15
  70
    32
  0
VERTEX
  8
0
  5
4AF8
 10
74.1213
 20
-24.1544
 30
5.39497e-15
  70
    32
  0
VERTEX
  8
0
  5
4AF9
 10
74.0951
 20
-24.1803
 30
5.40101e-15
  70
    32
  0
VERTEX
  8
0
  5
4AFA
 10
74.0686
 20
-24.2059
 30
5.40697e-15
  70
    32
  0
VERTEX
  8
0
  5
4AFB
 10
74.0418
 20
-24.2312
 30
5.41286e-15
  70
    32
  0
VERTEX
  8
0
  5
4AFC
 10
74.0147
 20
-24.2561
 30
5.41867e-15
  70
    32
  0
VERTEX
  8
0
  5
4AFD
 10
73.9872
 20
-24.2807
 30
5.42440e-15
  70
    32
  0
VERTEX
  8
0
  5
4AFE
 10
73.9595
 20
-24.3049
 30
5.43005e-15
  70
    32
  0
VERTEX
  8
0
  5
4AFF
 10
73.9315
 20
-24.3288
 30
5.43562e-15
  70
    32
  0
VERTEX
  8
0
  5
4B00
 10
73.9032
 20
-24.3524
 30
5.44111e-15
  70
    32
  0
VERTEX
  8
0
  5
4B01
 10
73.8746
 20
-24.3756
 30
5.44652e-15
  70
    32
  0
VERTEX
  8
0
  5
4B02
 10
73.8457
 20
-24.3985
 30
5.45184e-15
  70
    32
  0
VERTEX
  8
0
  5
4B03
 10
73.8165
 20
-24.4210
 30
5.45709e-15
  70
    32
  0
VERTEX
  8
0
  5
4B04
 10
73.7871
 20
-24.4431
 30
5.46225e-15
  70
    32
  0
VERTEX
  8
0
  5
4B05
 10
73.7574
 20
-24.4649
 30
5.46732e-15
  70
    32
  0
VERTEX
  8
0
  5
4B06
 10
73.7274
 20
-24.4863
 30
5.47231e-15
  70
    32
  0
VERTEX
  8
0
  5
4B07
 10
73.6972
 20
-24.5074
 30
5.47721e-15
  70
    32
  0
VERTEX
  8
0
  5
4B08
 10
73.6667
 20
-24.5280
 30
5.48203e-15
  70
    32
  0
VERTEX
  8
0
  5
4B09
 10
73.6360
 20
-24.5483
 30
5.48676e-15
  70
    32
  0
VERTEX
  8
0
  5
4B0A
 10
73.6050
 20
-24.5682
 30
5.49140e-15
  70
    32
  0
VERTEX
  8
0
  5
4B0B
 10
73.5738
 20
-24.5878
 30
5.49595e-15
  70
    32
  0
VERTEX
  8
0
  5
4B0C
 10
73.5423
 20
-24.6069
 30
5.50041e-15
  70
    32
  0
VERTEX
  8
0
  5
4B0D
 10
73.5106
 20
-24.6257
 30
5.50478e-15
  70
    32
  0
VERTEX
  8
0
  5
4B0E
 10
73.4787
 20
-24.6440
 30
5.50906e-15
  70
    32
  0
VERTEX
  8
0
  5
4B0F
 10
73.4466
 20
-24.6620
 30
5.51325e-15
  70
    32
  0
VERTEX
  8
0
  5
4B10
 10
73.4142
 20
-24.6796
 30
5.51734e-15
  70
    32
  0
VERTEX
  8
0
  5
4B11
 10
73.3816
 20
-24.6968
 30
5.52135e-15
  70
    32
  0
VERTEX
  8
0
  5
4B12
 10
73.3488
 20
-24.7135
 30
5.52526e-15
  70
    32
  0
VERTEX
  8
0
  5
4B13
 10
73.3158
 20
-24.7299
 30
5.52907e-15
  70
    32
  0
VERTEX
  8
0
  5
4B14
 10
73.2827
 20
-24.7459
 30
5.53279e-15
  70
    32
  0
VERTEX
  8
0
  5
4B15
 10
73.2493
 20
-24.7614
 30
5.53642e-15
  70
    32
  0
VERTEX
  8
0
  5
4B16
 10
73.2157
 20
-24.7766
 30
5.53995e-15
  70
    32
  0
VERTEX
  8
0
  5
4B17
 10
73.1820
 20
-24.7913
 30
5.54338e-15
  70
    32
  0
VERTEX
  8
0
  5
4B18
 10
73.1481
 20
-24.8056
 30
5.54672e-15
  70
    32
  0
VERTEX
  8
0
  5
4B19
 10
73.1140
 20
-24.8195
 30
5.54995e-15
  70
    32
  0
VERTEX
  8
0
  5
4B1A
 10
73.0797
 20
-24.8330
 30
5.55309e-15
  70
    32
  0
VERTEX
  8
0
  5
4B1B
 10
73.0453
 20
-24.8461
 30
5.55614e-15
  70
    32
  0
VERTEX
  8
0
  5
4B1C
 10
73.0107
 20
-24.8587
 30
5.55908e-15
  70
    32
  0
VERTEX
  8
0
  5
4B1D
 10
72.9759
 20
-24.8709
 30
5.56193e-15
  70
    32
  0
VERTEX
  8
0
  5
4B1E
 10
72.9410
 20
-24.8827
 30
5.56467e-15
  70
    32
  0
VERTEX
  8
0
  5
4B1F
 10
72.9060
 20
-24.8940
 30
5.56731e-15
  70
    32
  0
VERTEX
  8
0
  5
4B20
 10
72.8709
 20
-24.9050
 30
5.56986e-15
  70
    32
  0
VERTEX
  8
0
  5
4B21
 10
72.8356
 20
-24.9154
 30
5.57230e-15
  70
    32
  0
VERTEX
  8
0
  5
4B22
 10
72.8001
 20
-24.9255
 30
5.57464e-15
  70
    32
  0
VERTEX
  8
0
  5
4B23
 10
72.7646
 20
-24.9351
 30
5.57688e-15
  70
    32
  0
VERTEX
  8
0
  5
4B24
 10
72.7289
 20
-24.9443
 30
5.57902e-15
  70
    32
  0
VERTEX
  8
0
  5
4B25
 10
72.6932
 20
-24.9530
 30
5.58106e-15
  70
    32
  0
VERTEX
  8
0
  5
4B26
 10
72.6573
 20
-24.9613
 30
5.58299e-15
  70
    32
  0
VERTEX
  8
0
  5
4B27
 10
72.6213
 20
-24.9692
 30
5.58482e-15
  70
    32
  0
VERTEX
  8
0
  5
4B28
 10
72.5853
 20
-24.9766
 30
5.58655e-15
  70
    32
  0
VERTEX
  8
0
  5
4B29
 10
72.5491
 20
-24.9836
 30
5.58817e-15
  70
    32
  0
VERTEX
  8
0
  5
4B2A
 10
72.5129
 20
-24.9901
 30
5.58969e-15
  70
    32
  0
VERTEX
  8
0
  5
4B2B
 10
72.4766
 20
-24.9962
 30
5.59111e-15
  70
    32
  0
VERTEX
  8
0
  5
4B2C
 10
72.4402
 20
-25.0018
 30
5.59242e-15
  70
    32
  0
VERTEX
  8
0
  5
4B2D
 10
72.4037
 20
-25.0070
 30
5.59363e-15
  70
    32
  0
VERTEX
  8
0
  5
4B2E
 10
72.3672
 20
-25.0117
 30
5.59474e-15
  70
    32
  0
VERTEX
  8
0
  5
4B2F
 10
72.3307
 20
-25.0160
 30
5.59573e-15
  70
    32
  0
VERTEX
  8
0
  5
4B30
 10
72.2941
 20
-25.0198
 30
5.59663e-15
  70
    32
  0
VERTEX
  8
0
  5
4B31
 10
72.2574
 20
-25.0232
 30
5.59742e-15
  70
    32
  0
VERTEX
  8
0
  5
4B32
 10
72.2207
 20
-25.0262
 30
5.59810e-15
  70
    32
  0
VERTEX
  8
0
  5
4B33
 10
72.1840
 20
-25.0287
 30
5.59868e-15
  70
    32
  0
VERTEX
  8
0
  5
4B34
 10
72.1472
 20
-25.0307
 30
5.59916e-15
  70
    32
  0
VERTEX
  8
0
  5
4B35
 10
72.1104
 20
-25.0323
 30
5.59953e-15
  70
    32
  0
VERTEX
  8
0
  5
4B36
 10
72.0736
 20
-25.0334
 30
5.59979e-15
  70
    32
  0
VERTEX
  8
0
  5
4B37
 10
72.0368
 20
-25.0341
 30
5.59995e-15
  70
    32
  0
VERTEX
  8
0
  5
4B38
 10
72.0000
 20
-25.0343
 30
5.60000e-15
  70
    32
  0
SEQEND
  8
0
  5
4B39
  0
LINE
  5
45F5
  8
0
  6
VERDECKT
 62
     1
 10
75.0000000000003268
 20
-2.7499999999999889
 30
0.0000000000000006
 11
75.0000000000002274
 21
-22.0301916119539989
 31
0.0000000000000049
210
0.0
220
1.0
230
-0.0000000000000002
  0
LINE
  5
45F6
  8
0
  6
VERDECKT
 62
     1
 10
75.000000000000469
 20
23.5322501309513399
 30
-0.0000000000000052
 11
75.0000000000003553
 21
2.7500000000000111
 31
-0.0000000000000006
210
0.0
220
1.0
230
-0.0000000000000002
  0
LINE
  5
45F7
  8
0
  6
VERDECKT
 62
     1
 10
73.588328841458889
 20
23.5322501309513399
 30
-0.0000000000000052
 11
75.0000000000004547
 21
23.5322501309513399
 31
-0.0000000000000052
210
0.0
220
1.0
230
-0.0000000000000002
  0
LINE
  5
45F8
  8
0
  6
VERDECKT
 62
     1
 10
-74.9999999999999432
 20
2.7499999999999929
 30
-0.0000000000000006
 11
-75.0000000000000568
 21
23.5322501309513399
 31
-0.0000000000000052
210
0.0
220
1.0
230
-0.0000000000000002
  0
LINE
  5
45F9
  8
0
  6
VERDECKT
 62
     1
 10
-75.0000000000000568
 20
23.5322501309513399
 30
-0.0000000000000052
 11
-73.5883288414586048
 21
23.5322501309513399
 31
-0.0000000000000052
210
0.0
220
1.0
230
-0.0000000000000002
  0
LINE
  5
45FA
  8
0
  6
VERDECKT
 62
     1
 10
73.500000000000469
 20
22.3285231373636499
 30
-0.000000000000005
 11
75.000000000000469
 21
22.3285231373636499
 31
-0.000000000000005
210
0.0
220
1.0
230
-0.0000000000000002
  0
LINE
  5
45FB
  8
0
  6
VERDECKT
 62
     1
 10
-75.0000000000000568
 20
22.3285231373636499
 30
-0.000000000000005
 11
-73.5000000000000568
 21
22.3285231373636499
 31
-0.000000000000005
210
0.0
220
1.0
230
-0.0000000000000002
  0
LINE
  5
45FC
  8
0
  6
VERDECKT
 62
     1
 10
75.000000000000469
 20
23.8264674394955094
 30
-0.0000000000000053
 11
75.000000000000469
 21
23.5322501309513505
 31
-0.0000000000000052
210
0.0
220
1.0
230
-0.0000000000000002
  0
LINE
  5
45FD
  8
0
  6
VERDECKT
 62
     1
 10
73.5000000000004832
 20
23.8264674394955094
 30
-0.0000000000000053
 11
75.0000000000004832
 21
23.8264674394954987
 31
-0.0000000000000053
210
0.0
220
1.0
230
-0.0000000000000002
  0
LINE
  5
45FE
  8
0
  6
VERDECKT
 62
     1
 10
-75.0000000000000711
 20
23.5322501309513505
 30
-0.0000000000000052
 11
-75.0000000000000711
 21
23.8264674394955094
 31
-0.0000000000000053
210
0.0
220
1.0
230
-0.0000000000000002
  0
LINE
  5
45FF
  8
0
  6
VERDECKT
 62
     1
 10
-75.0000000000000568
 20
23.8264674394955414
 30
-0.0000000000000053
 11
-73.5000000000000568
 21
23.8264674394955485
 31
-0.0000000000000053
210
0.0
220
1.0
230
-0.0000000000000002
  0
LINE
  5
4600
  8
0
  6
VERDECKT
 62
     1
 10
73.500000000000469
 20
22.0668433561489685
 30
-0.0000000000000049
 11
75.000000000000469
 21
22.0668433561489685
 31
-0.0000000000000049
210
0.0
220
1.0
230
-0.0000000000000002
  0
LINE
  5
4601
  8
0
  6
VERDECKT
 62
     1
 10
75.0000000000004832
 20
23.5647876582807712
 30
-0.0000000000000052
 11
73.5000000000004832
 21
23.5647876582807783
 31
-0.0000000000000052
210
0.0
220
1.0
230
-0.0000000000000002
  0
LINE
  5
4602
  8
0
  6
VERDECKT
 62
     1
 10
-73.5000000000000568
 20
23.5647876582808209
 30
-0.0000000000000052
 11
-75.0000000000000568
 21
23.5647876582808209
 31
-0.0000000000000052
210
0.0
220
1.0
230
-0.0000000000000002
  0
LINE
  5
4603
  8
0
  6
VERDECKT
 62
     1
 10
-75.0000000000000568
 20
22.0668433561489685
 30
-0.0000000000000049
 11
-73.5000000000000568
 21
22.0668433561489685
 31
-0.0000000000000049
210
0.0
220
1.0
230
-0.0000000000000002
  0
LINE
  5
4604
  8
0
  6
VERDECKT
 62
     1
 10
73.5000000000004832
 20
15.7865286069954198
 30
-0.0000000000000035
 11
75.000000000000469
 21
15.7865286069954198
 31
-0.0000000000000035
210
0.0
220
1.0
230
-0.0000000000000002
  0
LINE
  5
4605
  8
0
  6
VERDECKT
 62
     1
 10
-75.0000000000000711
 20
15.7865286069954198
 30
-0.0000000000000035
 11
-73.5000000000000711
 21
15.7865286069954198
 31
-0.0000000000000035
210
0.0
220
1.0
230
-0.0000000000000002
  0
LINE
  5
4606
  8
0
  6
VERDECKT
 62
     1
 10
73.5000000000004832
 20
17.2844729091273095
 30
-0.0000000000000038
 11
75.0000000000004832
 21
17.2844729091272988
 31
-0.0000000000000038
210
0.0
220
1.0
230
-0.0000000000000002
  0
LINE
  5
4607
  8
0
  6
VERDECKT
 62
     1
 10
-75.0000000000000568
 20
17.2844729091273415
 30
-0.0000000000000038
 11
-73.5000000000000711
 21
17.2844729091273415
 31
-0.0000000000000038
210
0.0
220
1.0
230
-0.0000000000000002
  0
LINE
  5
4608
  8
0
  6
VERDECKT
 62
     1
 10
73.5000000000004832
 20
15.5248488257806798
 30
-0.0000000000000034
 11
75.000000000000469
 21
15.5248488257806798
 31
-0.0000000000000034
210
0.0
220
1.0
230
-0.0000000000000002
  0
LINE
  5
4609
  8
0
  6
VERDECKT
 62
     1
 10
75.0000000000004832
 20
17.0227931279125784
 30
-0.0000000000000038
 11
73.5000000000004974
 21
17.0227931279125784
 31
-0.0000000000000038
210
0.0
220
1.0
230
-0.0000000000000002
  0
LINE
  5
460A
  8
0
  6
VERDECKT
 62
     1
 10
-73.5000000000000568
 20
17.0227931279126103
 30
-0.0000000000000038
 11
-75.0000000000000711
 21
17.0227931279126103
 31
-0.0000000000000038
210
0.0
220
1.0
230
-0.0000000000000002
  0
LINE
  5
460B
  8
0
  6
VERDECKT
 62
     1
 10
-75.0000000000000711
 20
15.5248488257806798
 30
-0.0000000000000034
 11
-73.5000000000000711
 21
15.5248488257806798
 31
-0.0000000000000034
210
0.0
220
1.0
230
-0.0000000000000002
  0
LINE
  5
460C
  8
0
  6
VERDECKT
 62
     1
 10
73.5000000000004832
 20
9.2445340766272395
 30
-0.0000000000000021
 11
75.0000000000004832
 21
9.2445340766272395
 31
-0.0000000000000021
210
0.0
220
1.0
230
-0.0000000000000002
  0
LINE
  5
460D
  8
0
  6
VERDECKT
 62
     1
 10
-75.0000000000000711
 20
9.2445340766272395
 30
-0.0000000000000021
 11
-73.5000000000000853
 21
9.2445340766272395
 31
-0.0000000000000021
210
0.0
220
1.0
230
-0.0000000000000002
  0
LINE
  5
460E
  8
0
  6
VERDECKT
 62
     1
 10
73.5000000000005116
 20
10.7424783787591203
 30
-0.0000000000000024
 11
75.0000000000004832
 21
10.7424783787591096
 31
-0.0000000000000024
210
0.0
220
1.0
230
-0.0000000000000002
  0
LINE
  5
460F
  8
0
  6
VERDECKT
 62
     1
 10
-75.0000000000000711
 20
10.7424783787591398
 30
-0.0000000000000024
 11
-73.5000000000000853
 21
10.7424783787591505
 31
-0.0000000000000024
210
0.0
220
1.0
230
-0.0000000000000002
  0
LINE
  5
4610
  8
0
  6
VERDECKT
 62
     1
 10
73.5000000000004832
 20
8.9828542954125492
 30
-0.000000000000002
 11
75.0000000000004832
 21
8.9828542954125492
 31
-0.000000000000002
210
0.0
220
1.0
230
-0.0000000000000002
  0
LINE
  5
4611
  8
0
  6
VERDECKT
 62
     1
 10
75.0000000000005116
 20
10.4807985975443803
 30
-0.0000000000000023
 11
73.5000000000005116
 21
10.4807985975443891
 31
-0.0000000000000023
210
0.0
220
1.0
230
-0.0000000000000002
  0
LINE
  5
4612
  8
0
  6
VERDECKT
 62
     1
 10
-73.5000000000000711
 20
10.4807985975444193
 30
-0.0000000000000023
 11
-75.0000000000000853
 21
10.4807985975444105
 31
-0.0000000000000023
210
0.0
220
1.0
230
-0.0000000000000002
  0
LINE
  5
4613
  8
0
  6
VERDECKT
 62
     1
 10
-75.0000000000000711
 20
8.9828542954125492
 30
-0.000000000000002
 11
-73.5000000000000853
 21
8.9828542954125492
 31
-0.000000000000002
210
0.0
220
1.0
230
-0.0000000000000002
  0
LINE
  5
4614
  8
0
  6
VERDECKT
 62
     1
 10
73.5000000000004974
 20
2.7025395462590791
 30
-0.0000000000000006
 11
75.0000000000004832
 21
2.7025395462590791
 31
-0.0000000000000006
210
0.0
220
1.0
230
-0.0000000000000002
  0
LINE
  5
4615
  8
0
  6
VERDECKT
 62
     1
 10
-75.0000000000000711
 20
2.7025395462590791
 30
-0.0000000000000006
 11
-73.5000000000000853
 21
2.7025395462590791
 31
-0.0000000000000006
210
0.0
220
1.0
230
-0.0000000000000002
  0
LINE
  5
4616
  8
0
  6
VERDECKT
 62
     1
 10
73.5000000000005116
 20
4.2004838483909372
 30
-0.0000000000000009
 11
75.0000000000005116
 21
4.2004838483909293
 31
-0.0000000000000009
210
0.0
220
1.0
230
-0.0000000000000002
  0
LINE
  5
4617
  8
0
  6
VERDECKT
 62
     1
 10
-75.0000000000000711
 20
4.2004838483909364
 30
-0.0000000000000009
 11
-73.5000000000000853
 21
4.2004838483909444
 31
-0.0000000000000009
210
0.0
220
1.0
230
-0.0000000000000002
  0
LINE
  5
4618
  8
0
  6
VERDECKT
 62
     1
 10
73.5000000000004974
 20
2.4408597650443551
 30
-0.0000000000000005
 11
75.0000000000004832
 21
2.4408597650443551
 31
-0.0000000000000005
210
0.0
220
1.0
230
-0.0000000000000002
  0
LINE
  5
4619
  8
0
  6
VERDECKT
 62
     1
 10
75.0000000000005116
 20
3.9388040671761968
 30
-0.0000000000000009
 11
73.5000000000005116
 21
3.9388040671762048
 31
-0.0000000000000009
210
0.0
220
1.0
230
-0.0000000000000002
  0
LINE
  5
461A
  8
0
  6
VERDECKT
 62
     1
 10
-73.5000000000000711
 20
3.9388040671762119
 30
-0.0000000000000009
 11
-75.0000000000000853
 21
3.9388040671762039
 31
-0.0000000000000009
210
0.0
220
1.0
230
-0.0000000000000002
  0
LINE
  5
461B
  8
0
  6
VERDECKT
 62
     1
 10
-75.0000000000000711
 20
2.4408597650443551
 30
-0.0000000000000005
 11
-73.5000000000000853
 21
2.4408597650443551
 31
-0.0000000000000005
210
0.0
220
1.0
230
-0.0000000000000002
  0
LINE
  5
461C
  8
0
  6
VERDECKT
 62
     1
 10
73.5000000000005116
 20
-3.839454984109115
 30
0.0000000000000009
 11
75.0000000000004832
 21
-3.839454984109115
 31
0.0000000000000009
210
0.0
220
1.0
230
-0.0000000000000002
  0
LINE
  5
461D
  8
0
  6
VERDECKT
 62
     1
 10
-75.0000000000000853
 20
-3.839454984109115
 30
0.0000000000000009
 11
-73.5000000000000853
 21
-3.839454984109115
 31
0.0000000000000009
210
0.0
220
1.0
230
-0.0000000000000002
  0
LINE
  5
461E
  8
0
  6
VERDECKT
 62
     1
 10
-75.0000000000000853
 20
-5.5071499063938258
 30
0.0000000000000012
 11
-73.5000000000000853
 21
-5.5071499063938258
 31
0.0000000000000012
210
0.0
220
1.0
230
-0.0000000000000002
  0
POLYLINE
  5
461F
  8
0
  6
VERDECKT
 62
     1
 10
-71.9999999999998295
 20
-54.9025279832772242
 30
0.0000000000000122
 66
     1
 70
     8
  0
VERTEX
  8
0
  5
4B3A
 10
-72.0000
 20
-54.9025
 30
1.22000e-14
  70
    32
  0
VERTEX
  8
0
  5
4B3B
 10
-72.0184
 20
-54.9024
 30
1.22000e-14
  70
    32
  0
VERTEX
  8
0
  5
4B3C
 10
-72.0368
 20
-54.9021
 30
1.21999e-14
  70
    32
  0
VERTEX
  8
0
  5
4B3D
 10
-72.0552
 20
-54.9015
 30
1.21997e-14
  70
    32
  0
VERTEX
  8
0
  5
4B3E
 10
-72.0736
 20
-54.9006
 30
1.21995e-14
  70
    32
  0
VERTEX
  8
0
  5
4B3F
 10
-72.0920
 20
-54.8996
 30
1.21992e-14
  70
    32
  0
VERTEX
  8
0
  5
4B40
 10
-72.1103
 20
-54.8983
 30
1.21989e-14
  70
    32
  0
VERTEX
  8
0
  5
4B41
 10
-72.1287
 20
-54.8967
 30
1.21985e-14
  70
    32
  0
VERTEX
  8
0
  5
4B42
 10
-72.1470
 20
-54.8949
 30
1.21981e-14
  70
    32
  0
VERTEX
  8
0
  5
4B43
 10
-72.1653
 20
-54.8929
 30
1.21976e-14
  70
    32
  0
VERTEX
  8
0
  5
4B44
 10
-72.1836
 20
-54.8907
 30
1.21970e-14
  70
    32
  0
VERTEX
  8
0
  5
4B45
 10
-72.2019
 20
-54.8882
 30
1.21964e-14
  70
    32
  0
VERTEX
  8
0
  5
4B46
 10
-72.2201
 20
-54.8855
 30
1.21957e-14
  70
    32
  0
VERTEX
  8
0
  5
4B47
 10
-72.2383
 20
-54.8825
 30
1.21949e-14
  70
    32
  0
VERTEX
  8
0
  5
4B48
 10
-72.2564
 20
-54.8793
 30
1.21941e-14
  70
    32
  0
VERTEX
  8
0
  5
4B49
 10
-72.2746
 20
-54.8759
 30
1.21932e-14
  70
    32
  0
VERTEX
  8
0
  5
4B4A
 10
-72.2926
 20
-54.8722
 30
1.21923e-14
  70
    32
  0
VERTEX
  8
0
  5
4B4B
 10
-72.3107
 20
-54.8683
 30
1.21913e-14
  70
    32
  0
VERTEX
  8
0
  5
4B4C
 10
-72.3287
 20
-54.8642
 30
1.21903e-14
  70
    32
  0
VERTEX
  8
0
  5
4B4D
 10
-72.3466
 20
-54.8599
 30
1.21892e-14
  70
    32
  0
VERTEX
  8
0
  5
4B4E
 10
-72.3645
 20
-54.8553
 30
1.21880e-14
  70
    32
  0
VERTEX
  8
0
  5
4B4F
 10
-72.3823
 20
-54.8505
 30
1.21868e-14
  70
    32
  0
VERTEX
  8
0
  5
4B50
 10
-72.4001
 20
-54.8454
 30
1.21855e-14
  70
    32
  0
VERTEX
  8
0
  5
4B51
 10
-72.4178
 20
-54.8401
 30
1.21842e-14
  70
    32
  0
VERTEX
  8
0
  5
4B52
 10
-72.4354
 20
-54.8346
 30
1.21828e-14
  70
    32
  0
VERTEX
  8
0
  5
4B53
 10
-72.4530
 20
-54.8289
 30
1.21813e-14
  70
    32
  0
VERTEX
  8
0
  5
4B54
 10
-72.4705
 20
-54.8230
 30
1.21798e-14
  70
    32
  0
VERTEX
  8
0
  5
4B55
 10
-72.4880
 20
-54.8168
 30
1.21782e-14
  70
    32
  0
VERTEX
  8
0
  5
4B56
 10
-72.5053
 20
-54.8104
 30
1.21766e-14
  70
    32
  0
VERTEX
  8
0
  5
4B57
 10
-72.5226
 20
-54.8037
 30
1.21749e-14
  70
    32
  0
VERTEX
  8
0
  5
4B58
 10
-72.5398
 20
-54.7969
 30
1.21732e-14
  70
    32
  0
VERTEX
  8
0
  5
4B59
 10
-72.5570
 20
-54.7898
 30
1.21714e-14
  70
    32
  0
VERTEX
  8
0
  5
4B5A
 10
-72.5740
 20
-54.7825
 30
1.21696e-14
  70
    32
  0
VERTEX
  8
0
  5
4B5B
 10
-72.5910
 20
-54.7750
 30
1.21676e-14
  70
    32
  0
VERTEX
  8
0
  5
4B5C
 10
-72.6079
 20
-54.7673
 30
1.21657e-14
  70
    32
  0
VERTEX
  8
0
  5
4B5D
 10
-72.6246
 20
-54.7593
 30
1.21637e-14
  70
    32
  0
VERTEX
  8
0
  5
4B5E
 10
-72.6413
 20
-54.7512
 30
1.21616e-14
  70
    32
  0
VERTEX
  8
0
  5
4B5F
 10
-72.6579
 20
-54.7428
 30
1.21595e-14
  70
    32
  0
VERTEX
  8
0
  5
4B60
 10
-72.6744
 20
-54.7342
 30
1.21573e-14
  70
    32
  0
VERTEX
  8
0
  5
4B61
 10
-72.6908
 20
-54.7254
 30
1.21551e-14
  70
    32
  0
VERTEX
  8
0
  5
4B62
 10
-72.7071
 20
-54.7164
 30
1.21528e-14
  70
    32
  0
VERTEX
  8
0
  5
4B63
 10
-72.7233
 20
-54.7072
 30
1.21504e-14
  70
    32
  0
VERTEX
  8
0
  5
4B64
 10
-72.7393
 20
-54.6977
 30
1.21480e-14
  70
    32
  0
VERTEX
  8
0
  5
4B65
 10
-72.7553
 20
-54.6881
 30
1.21456e-14
  70
    32
  0
VERTEX
  8
0
  5
4B66
 10
-72.7712
 20
-54.6782
 30
1.21431e-14
  70
    32
  0
VERTEX
  8
0
  5
4B67
 10
-72.7869
 20
-54.6682
 30
1.21405e-14
  70
    32
  0
VERTEX
  8
0
  5
4B68
 10
-72.8025
 20
-54.6579
 30
1.21379e-14
  70
    32
  0
VERTEX
  8
0
  5
4B69
 10
-72.8180
 20
-54.6475
 30
1.21353e-14
  70
    32
  0
VERTEX
  8
0
  5
4B6A
 10
-72.8334
 20
-54.6368
 30
1.21326e-14
  70
    32
  0
VERTEX
  8
0
  5
4B6B
 10
-72.8486
 20
-54.6260
 30
1.21298e-14
  70
    32
  0
VERTEX
  8
0
  5
4B6C
 10
-72.8637
 20
-54.6150
 30
1.21270e-14
  70
    32
  0
VERTEX
  8
0
  5
4B6D
 10
-72.8787
 20
-54.6037
 30
1.21242e-14
  70
    32
  0
VERTEX
  8
0
  5
4B6E
 10
-72.8935
 20
-54.5923
 30
1.21213e-14
  70
    32
  0
VERTEX
  8
0
  5
4B6F
 10
-72.9083
 20
-54.5807
 30
1.21183e-14
  70
    32
  0
VERTEX
  8
0
  5
4B70
 10
-72.9228
 20
-54.5689
 30
1.21153e-14
  70
    32
  0
VERTEX
  8
0
  5
4B71
 10
-72.9373
 20
-54.5569
 30
1.21123e-14
  70
    32
  0
VERTEX
  8
0
  5
4B72
 10
-72.9516
 20
-54.5447
 30
1.21092e-14
  70
    32
  0
VERTEX
  8
0
  5
4B73
 10
-72.9657
 20
-54.5323
 30
1.21061e-14
  70
    32
  0
VERTEX
  8
0
  5
4B74
 10
-72.9798
 20
-54.5198
 30
1.21029e-14
  70
    32
  0
VERTEX
  8
0
  5
4B75
 10
-72.9936
 20
-54.5071
 30
1.20997e-14
  70
    32
  0
VERTEX
  8
0
  5
4B76
 10
-73.0073
 20
-54.4942
 30
1.20964e-14
  70
    32
  0
VERTEX
  8
0
  5
4B77
 10
-73.0209
 20
-54.4811
 30
1.20931e-14
  70
    32
  0
VERTEX
  8
0
  5
4B78
 10
-73.0343
 20
-54.4678
 30
1.20897e-14
  70
    32
  0
VERTEX
  8
0
  5
4B79
 10
-73.0476
 20
-54.4544
 30
1.20863e-14
  70
    32
  0
VERTEX
  8
0
  5
4B7A
 10
-73.0607
 20
-54.4408
 30
1.20828e-14
  70
    32
  0
VERTEX
  8
0
  5
4B7B
 10
-73.0736
 20
-54.4270
 30
1.20794e-14
  70
    32
  0
VERTEX
  8
0
  5
4B7C
 10
-73.0864
 20
-54.4131
 30
1.20758e-14
  70
    32
  0
VERTEX
  8
0
  5
4B7D
 10
-73.0990
 20
-54.3990
 30
1.20722e-14
  70
    32
  0
VERTEX
  8
0
  5
4B7E
 10
-73.1114
 20
-54.3848
 30
1.20686e-14
  70
    32
  0
VERTEX
  8
0
  5
4B7F
 10
-73.1237
 20
-54.3703
 30
1.20650e-14
  70
    32
  0
VERTEX
  8
0
  5
4B80
 10
-73.1358
 20
-54.3558
 30
1.20613e-14
  70
    32
  0
VERTEX
  8
0
  5
4B81
 10
-73.1478
 20
-54.3410
 30
1.20575e-14
  70
    32
  0
VERTEX
  8
0
  5
4B82
 10
-73.1595
 20
-54.3262
 30
1.20538e-14
  70
    32
  0
VERTEX
  8
0
  5
4B83
 10
-73.1711
 20
-54.3111
 30
1.20499e-14
  70
    32
  0
VERTEX
  8
0
  5
4B84
 10
-73.1825
 20
-54.2960
 30
1.20461e-14
  70
    32
  0
VERTEX
  8
0
  5
4B85
 10
-73.1938
 20
-54.2806
 30
1.20422e-14
  70
    32
  0
VERTEX
  8
0
  5
4B86
 10
-73.2048
 20
-54.2652
 30
1.20383e-14
  70
    32
  0
VERTEX
  8
0
  5
4B87
 10
-73.2157
 20
-54.2496
 30
1.20343e-14
  70
    32
  0
VERTEX
  8
0
  5
4B88
 10
-73.2264
 20
-54.2338
 30
1.20303e-14
  70
    32
  0
VERTEX
  8
0
  5
4B89
 10
-73.2369
 20
-54.2179
 30
1.20263e-14
  70
    32
  0
VERTEX
  8
0
  5
4B8A
 10
-73.2472
 20
-54.2019
 30
1.20222e-14
  70
    32
  0
VERTEX
  8
0
  5
4B8B
 10
-73.2573
 20
-54.1858
 30
1.20181e-14
  70
    32
  0
VERTEX
  8
0
  5
4B8C
 10
-73.2673
 20
-54.1695
 30
1.20140e-14
  70
    32
  0
VERTEX
  8
0
  5
4B8D
 10
-73.2770
 20
-54.1531
 30
1.20098e-14
  70
    32
  0
VERTEX
  8
0
  5
4B8E
 10
-73.2866
 20
-54.1365
 30
1.20056e-14
  70
    32
  0
VERTEX
  8
0
  5
4B8F
 10
-73.2960
 20
-54.1199
 30
1.20014e-14
  70
    32
  0
VERTEX
  8
0
  5
4B90
 10
-73.3051
 20
-54.1031
 30
1.19972e-14
  70
    32
  0
VERTEX
  8
0
  5
4B91
 10
-73.3141
 20
-54.0862
 30
1.19929e-14
  70
    32
  0
VERTEX
  8
0
  5
4B92
 10
-73.3229
 20
-54.0692
 30
1.19886e-14
  70
    32
  0
VERTEX
  8
0
  5
4B93
 10
-73.3315
 20
-54.0521
 30
1.19842e-14
  70
    32
  0
VERTEX
  8
0
  5
4B94
 10
-73.3398
 20
-54.0349
 30
1.19798e-14
  70
    32
  0
VERTEX
  8
0
  5
4B95
 10
-73.3480
 20
-54.0175
 30
1.19754e-14
  70
    32
  0
VERTEX
  8
0
  5
4B96
 10
-73.3560
 20
-54.0001
 30
1.19710e-14
  70
    32
  0
VERTEX
  8
0
  5
4B97
 10
-73.3638
 20
-53.9826
 30
1.19666e-14
  70
    32
  0
VERTEX
  8
0
  5
4B98
 10
-73.3713
 20
-53.9649
 30
1.19621e-14
  70
    32
  0
VERTEX
  8
0
  5
4B99
 10
-73.3787
 20
-53.9472
 30
1.19576e-14
  70
    32
  0
VERTEX
  8
0
  5
4B9A
 10
-73.3858
 20
-53.9294
 30
1.19531e-14
  70
    32
  0
VERTEX
  8
0
  5
4B9B
 10
-73.3928
 20
-53.9114
 30
1.19485e-14
  70
    32
  0
VERTEX
  8
0
  5
4B9C
 10
-73.3995
 20
-53.8934
 30
1.19440e-14
  70
    32
  0
VERTEX
  8
0
  5
4B9D
 10
-73.4060
 20
-53.8753
 30
1.19394e-14
  70
    32
  0
VERTEX
  8
0
  5
4B9E
 10
-73.4123
 20
-53.8572
 30
1.19348e-14
  70
    32
  0
VERTEX
  8
0
  5
4B9F
 10
-73.4184
 20
-53.8389
 30
1.19301e-14
  70
    32
  0
VERTEX
  8
0
  5
4BA0
 10
-73.4243
 20
-53.8206
 30
1.19255e-14
  70
    32
  0
VERTEX
  8
0
  5
4BA1
 10
-73.4300
 20
-53.8022
 30
1.19208e-14
  70
    32
  0
VERTEX
  8
0
  5
4BA2
 10
-73.4354
 20
-53.7837
 30
1.19161e-14
  70
    32
  0
VERTEX
  8
0
  5
4BA3
 10
-73.4406
 20
-53.7652
 30
1.19114e-14
  70
    32
  0
VERTEX
  8
0
  5
4BA4
 10
-73.4457
 20
-53.7465
 30
1.19067e-14
  70
    32
  0
VERTEX
  8
0
  5
4BA5
 10
-73.4505
 20
-53.7279
 30
1.19019e-14
  70
    32
  0
VERTEX
  8
0
  5
4BA6
 10
-73.4550
 20
-53.7091
 30
1.18972e-14
  70
    32
  0
VERTEX
  8
0
  5
4BA7
 10
-73.4594
 20
-53.6903
 30
1.18924e-14
  70
    32
  0
VERTEX
  8
0
  5
4BA8
 10
-73.4636
 20
-53.6715
 30
1.18876e-14
  70
    32
  0
VERTEX
  8
0
  5
4BA9
 10
-73.4675
 20
-53.6526
 30
1.18828e-14
  70
    32
  0
VERTEX
  8
0
  5
4BAA
 10
-73.4712
 20
-53.6336
 30
1.18780e-14
  70
    32
  0
VERTEX
  8
0
  5
4BAB
 10
-73.4747
 20
-53.6146
 30
1.18732e-14
  70
    32
  0
VERTEX
  8
0
  5
4BAC
 10
-73.4779
 20
-53.5956
 30
1.18684e-14
  70
    32
  0
VERTEX
  8
0
  5
4BAD
 10
-73.4810
 20
-53.5765
 30
1.18635e-14
  70
    32
  0
VERTEX
  8
0
  5
4BAE
 10
-73.4838
 20
-53.5574
 30
1.18587e-14
  70
    32
  0
VERTEX
  8
0
  5
4BAF
 10
-73.4864
 20
-53.5382
 30
1.18538e-14
  70
    32
  0
VERTEX
  8
0
  5
4BB0
 10
-73.4887
 20
-53.5191
 30
1.18490e-14
  70
    32
  0
VERTEX
  8
0
  5
4BB1
 10
-73.4909
 20
-53.4998
 30
1.18441e-14
  70
    32
  0
VERTEX
  8
0
  5
4BB2
 10
-73.4928
 20
-53.4806
 30
1.18392e-14
  70
    32
  0
VERTEX
  8
0
  5
4BB3
 10
-73.4945
 20
-53.4613
 30
1.18343e-14
  70
    32
  0
VERTEX
  8
0
  5
4BB4
 10
-73.4959
 20
-53.4421
 30
1.18294e-14
  70
    32
  0
VERTEX
  8
0
  5
4BB5
 10
-73.4972
 20
-53.4227
 30
1.18245e-14
  70
    32
  0
VERTEX
  8
0
  5
4BB6
 10
-73.4982
 20
-53.4034
 30
1.18196e-14
  70
    32
  0
VERTEX
  8
0
  5
4BB7
 10
-73.4990
 20
-53.3841
 30
1.18147e-14
  70
    32
  0
VERTEX
  8
0
  5
4BB8
 10
-73.4995
 20
-53.3648
 30
1.18098e-14
  70
    32
  0
VERTEX
  8
0
  5
4BB9
 10
-73.4999
 20
-53.3454
 30
1.18049e-14
  70
    32
  0
VERTEX
  8
0
  5
4BBA
 10
-73.5000
 20
-53.3261
 30
1.18000e-14
  70
    32
  0
SEQEND
  8
0
  5
4BBB
  0
LINE
  5
4620
  8
0
  6
VERDECKT
 62
     1
 10
72.0000000000002274
 20
-54.9025279832772313
 30
0.0000000000000122
 11
-71.9999999999998295
 21
-54.9025279832772313
 31
0.0000000000000122
210
0.0
220
1.0
230
-0.0000000000000002
  0
POLYLINE
  5
4621
  8
0
  6
VERDECKT
 62
     1
 10
73.5000000000002558
 20
-53.3260797467809482
 30
0.0000000000000118
 66
     1
 70
     8
  0
VERTEX
  8
0
  5
4BBC
 10
73.5000
 20
-53.3261
 30
1.18000e-14
  70
    32
  0
VERTEX
  8
0
  5
4BBD
 10
73.4999
 20
-53.3454
 30
1.18049e-14
  70
    32
  0
VERTEX
  8
0
  5
4BBE
 10
73.4995
 20
-53.3648
 30
1.18098e-14
  70
    32
  0
VERTEX
  8
0
  5
4BBF
 10
73.4990
 20
-53.3841
 30
1.18147e-14
  70
    32
  0
VERTEX
  8
0
  5
4BC0
 10
73.4982
 20
-53.4034
 30
1.18196e-14
  70
    32
  0
VERTEX
  8
0
  5
4BC1
 10
73.4972
 20
-53.4227
 30
1.18245e-14
  70
    32
  0
VERTEX
  8
0
  5
4BC2
 10
73.4959
 20
-53.4421
 30
1.18294e-14
  70
    32
  0
VERTEX
  8
0
  5
4BC3
 10
73.4945
 20
-53.4613
 30
1.18343e-14
  70
    32
  0
VERTEX
  8
0
  5
4BC4
 10
73.4928
 20
-53.4806
 30
1.18392e-14
  70
    32
  0
VERTEX
  8
0
  5
4BC5
 10
73.4909
 20
-53.4998
 30
1.18441e-14
  70
    32
  0
VERTEX
  8
0
  5
4BC6
 10
73.4887
 20
-53.5191
 30
1.18490e-14
  70
    32
  0
VERTEX
  8
0
  5
4BC7
 10
73.4864
 20
-53.5382
 30
1.18538e-14
  70
    32
  0
VERTEX
  8
0
  5
4BC8
 10
73.4838
 20
-53.5574
 30
1.18587e-14
  70
    32
  0
VERTEX
  8
0
  5
4BC9
 10
73.4810
 20
-53.5765
 30
1.18635e-14
  70
    32
  0
VERTEX
  8
0
  5
4BCA
 10
73.4779
 20
-53.5956
 30
1.18684e-14
  70
    32
  0
VERTEX
  8
0
  5
4BCB
 10
73.4747
 20
-53.6146
 30
1.18732e-14
  70
    32
  0
VERTEX
  8
0
  5
4BCC
 10
73.4712
 20
-53.6336
 30
1.18780e-14
  70
    32
  0
VERTEX
  8
0
  5
4BCD
 10
73.4675
 20
-53.6526
 30
1.18828e-14
  70
    32
  0
VERTEX
  8
0
  5
4BCE
 10
73.4636
 20
-53.6715
 30
1.18876e-14
  70
    32
  0
VERTEX
  8
0
  5
4BCF
 10
73.4594
 20
-53.6903
 30
1.18924e-14
  70
    32
  0
VERTEX
  8
0
  5
4BD0
 10
73.4550
 20
-53.7091
 30
1.18972e-14
  70
    32
  0
VERTEX
  8
0
  5
4BD1
 10
73.4505
 20
-53.7279
 30
1.19019e-14
  70
    32
  0
VERTEX
  8
0
  5
4BD2
 10
73.4457
 20
-53.7465
 30
1.19067e-14
  70
    32
  0
VERTEX
  8
0
  5
4BD3
 10
73.4406
 20
-53.7652
 30
1.19114e-14
  70
    32
  0
VERTEX
  8
0
  5
4BD4
 10
73.4354
 20
-53.7837
 30
1.19161e-14
  70
    32
  0
VERTEX
  8
0
  5
4BD5
 10
73.4300
 20
-53.8022
 30
1.19208e-14
  70
    32
  0
VERTEX
  8
0
  5
4BD6
 10
73.4243
 20
-53.8206
 30
1.19255e-14
  70
    32
  0
VERTEX
  8
0
  5
4BD7
 10
73.4184
 20
-53.8389
 30
1.19301e-14
  70
    32
  0
VERTEX
  8
0
  5
4BD8
 10
73.4123
 20
-53.8572
 30
1.19348e-14
  70
    32
  0
VERTEX
  8
0
  5
4BD9
 10
73.4060
 20
-53.8753
 30
1.19394e-14
  70
    32
  0
VERTEX
  8
0
  5
4BDA
 10
73.3995
 20
-53.8934
 30
1.19440e-14
  70
    32
  0
VERTEX
  8
0
  5
4BDB
 10
73.3928
 20
-53.9114
 30
1.19485e-14
  70
    32
  0
VERTEX
  8
0
  5
4BDC
 10
73.3858
 20
-53.9294
 30
1.19531e-14
  70
    32
  0
VERTEX
  8
0
  5
4BDD
 10
73.3787
 20
-53.9472
 30
1.19576e-14
  70
    32
  0
VERTEX
  8
0
  5
4BDE
 10
73.3713
 20
-53.9649
 30
1.19621e-14
  70
    32
  0
VERTEX
  8
0
  5
4BDF
 10
73.3638
 20
-53.9826
 30
1.19666e-14
  70
    32
  0
VERTEX
  8
0
  5
4BE0
 10
73.3560
 20
-54.0001
 30
1.19710e-14
  70
    32
  0
VERTEX
  8
0
  5
4BE1
 10
73.3480
 20
-54.0175
 30
1.19754e-14
  70
    32
  0
VERTEX
  8
0
  5
4BE2
 10
73.3398
 20
-54.0349
 30
1.19798e-14
  70
    32
  0
VERTEX
  8
0
  5
4BE3
 10
73.3315
 20
-54.0521
 30
1.19842e-14
  70
    32
  0
VERTEX
  8
0
  5
4BE4
 10
73.3229
 20
-54.0692
 30
1.19886e-14
  70
    32
  0
VERTEX
  8
0
  5
4BE5
 10
73.3141
 20
-54.0862
 30
1.19929e-14
  70
    32
  0
VERTEX
  8
0
  5
4BE6
 10
73.3051
 20
-54.1031
 30
1.19972e-14
  70
    32
  0
VERTEX
  8
0
  5
4BE7
 10
73.2960
 20
-54.1199
 30
1.20014e-14
  70
    32
  0
VERTEX
  8
0
  5
4BE8
 10
73.2866
 20
-54.1365
 30
1.20056e-14
  70
    32
  0
VERTEX
  8
0
  5
4BE9
 10
73.2770
 20
-54.1531
 30
1.20098e-14
  70
    32
  0
VERTEX
  8
0
  5
4BEA
 10
73.2673
 20
-54.1695
 30
1.20140e-14
  70
    32
  0
VERTEX
  8
0
  5
4BEB
 10
73.2573
 20
-54.1858
 30
1.20181e-14
  70
    32
  0
VERTEX
  8
0
  5
4BEC
 10
73.2472
 20
-54.2019
 30
1.20222e-14
  70
    32
  0
VERTEX
  8
0
  5
4BED
 10
73.2369
 20
-54.2179
 30
1.20263e-14
  70
    32
  0
VERTEX
  8
0
  5
4BEE
 10
73.2264
 20
-54.2338
 30
1.20303e-14
  70
    32
  0
VERTEX
  8
0
  5
4BEF
 10
73.2157
 20
-54.2496
 30
1.20343e-14
  70
    32
  0
VERTEX
  8
0
  5
4BF0
 10
73.2048
 20
-54.2652
 30
1.20383e-14
  70
    32
  0
VERTEX
  8
0
  5
4BF1
 10
73.1938
 20
-54.2806
 30
1.20422e-14
  70
    32
  0
VERTEX
  8
0
  5
4BF2
 10
73.1825
 20
-54.2960
 30
1.20461e-14
  70
    32
  0
VERTEX
  8
0
  5
4BF3
 10
73.1711
 20
-54.3111
 30
1.20499e-14
  70
    32
  0
VERTEX
  8
0
  5
4BF4
 10
73.1595
 20
-54.3262
 30
1.20538e-14
  70
    32
  0
VERTEX
  8
0
  5
4BF5
 10
73.1478
 20
-54.3410
 30
1.20575e-14
  70
    32
  0
VERTEX
  8
0
  5
4BF6
 10
73.1358
 20
-54.3558
 30
1.20613e-14
  70
    32
  0
VERTEX
  8
0
  5
4BF7
 10
73.1237
 20
-54.3703
 30
1.20650e-14
  70
    32
  0
VERTEX
  8
0
  5
4BF8
 10
73.1114
 20
-54.3848
 30
1.20686e-14
  70
    32
  0
VERTEX
  8
0
  5
4BF9
 10
73.0990
 20
-54.3990
 30
1.20722e-14
  70
    32
  0
VERTEX
  8
0
  5
4BFA
 10
73.0864
 20
-54.4131
 30
1.20758e-14
  70
    32
  0
VERTEX
  8
0
  5
4BFB
 10
73.0736
 20
-54.4270
 30
1.20794e-14
  70
    32
  0
VERTEX
  8
0
  5
4BFC
 10
73.0607
 20
-54.4408
 30
1.20828e-14
  70
    32
  0
VERTEX
  8
0
  5
4BFD
 10
73.0476
 20
-54.4544
 30
1.20863e-14
  70
    32
  0
VERTEX
  8
0
  5
4BFE
 10
73.0343
 20
-54.4678
 30
1.20897e-14
  70
    32
  0
VERTEX
  8
0
  5
4BFF
 10
73.0209
 20
-54.4811
 30
1.20931e-14
  70
    32
  0
VERTEX
  8
0
  5
4C00
 10
73.0073
 20
-54.4942
 30
1.20964e-14
  70
    32
  0
VERTEX
  8
0
  5
4C01
 10
72.9936
 20
-54.5071
 30
1.20997e-14
  70
    32
  0
VERTEX
  8
0
  5
4C02
 10
72.9798
 20
-54.5198
 30
1.21029e-14
  70
    32
  0
VERTEX
  8
0
  5
4C03
 10
72.9657
 20
-54.5323
 30
1.21061e-14
  70
    32
  0
VERTEX
  8
0
  5
4C04
 10
72.9516
 20
-54.5447
 30
1.21092e-14
  70
    32
  0
VERTEX
  8
0
  5
4C05
 10
72.9373
 20
-54.5569
 30
1.21123e-14
  70
    32
  0
VERTEX
  8
0
  5
4C06
 10
72.9228
 20
-54.5689
 30
1.21153e-14
  70
    32
  0
VERTEX
  8
0
  5
4C07
 10
72.9083
 20
-54.5807
 30
1.21183e-14
  70
    32
  0
VERTEX
  8
0
  5
4C08
 10
72.8935
 20
-54.5923
 30
1.21213e-14
  70
    32
  0
VERTEX
  8
0
  5
4C09
 10
72.8787
 20
-54.6037
 30
1.21242e-14
  70
    32
  0
VERTEX
  8
0
  5
4C0A
 10
72.8637
 20
-54.6150
 30
1.21270e-14
  70
    32
  0
VERTEX
  8
0
  5
4C0B
 10
72.8486
 20
-54.6260
 30
1.21298e-14
  70
    32
  0
VERTEX
  8
0
  5
4C0C
 10
72.8334
 20
-54.6368
 30
1.21326e-14
  70
    32
  0
VERTEX
  8
0
  5
4C0D
 10
72.8180
 20
-54.6475
 30
1.21353e-14
  70
    32
  0
VERTEX
  8
0
  5
4C0E
 10
72.8025
 20
-54.6579
 30
1.21379e-14
  70
    32
  0
VERTEX
  8
0
  5
4C0F
 10
72.7869
 20
-54.6682
 30
1.21405e-14
  70
    32
  0
VERTEX
  8
0
  5
4C10
 10
72.7712
 20
-54.6782
 30
1.21431e-14
  70
    32
  0
VERTEX
  8
0
  5
4C11
 10
72.7553
 20
-54.6881
 30
1.21456e-14
  70
    32
  0
VERTEX
  8
0
  5
4C12
 10
72.7393
 20
-54.6977
 30
1.21480e-14
  70
    32
  0
VERTEX
  8
0
  5
4C13
 10
72.7233
 20
-54.7072
 30
1.21504e-14
  70
    32
  0
VERTEX
  8
0
  5
4C14
 10
72.7071
 20
-54.7164
 30
1.21528e-14
  70
    32
  0
VERTEX
  8
0
  5
4C15
 10
72.6908
 20
-54.7254
 30
1.21551e-14
  70
    32
  0
VERTEX
  8
0
  5
4C16
 10
72.6744
 20
-54.7342
 30
1.21573e-14
  70
    32
  0
VERTEX
  8
0
  5
4C17
 10
72.6579
 20
-54.7428
 30
1.21595e-14
  70
    32
  0
VERTEX
  8
0
  5
4C18
 10
72.6413
 20
-54.7512
 30
1.21616e-14
  70
    32
  0
VERTEX
  8
0
  5
4C19
 10
72.6246
 20
-54.7593
 30
1.21637e-14
  70
    32
  0
VERTEX
  8
0
  5
4C1A
 10
72.6079
 20
-54.7673
 30
1.21657e-14
  70
    32
  0
VERTEX
  8
0
  5
4C1B
 10
72.5910
 20
-54.7750
 30
1.21676e-14
  70
    32
  0
VERTEX
  8
0
  5
4C1C
 10
72.5740
 20
-54.7825
 30
1.21696e-14
  70
    32
  0
VERTEX
  8
0
  5
4C1D
 10
72.5570
 20
-54.7898
 30
1.21714e-14
  70
    32
  0
VERTEX
  8
0
  5
4C1E
 10
72.5398
 20
-54.7969
 30
1.21732e-14
  70
    32
  0
VERTEX
  8
0
  5
4C1F
 10
72.5226
 20
-54.8037
 30
1.21749e-14
  70
    32
  0
VERTEX
  8
0
  5
4C20
 10
72.5053
 20
-54.8104
 30
1.21766e-14
  70
    32
  0
VERTEX
  8
0
  5
4C21
 10
72.4880
 20
-54.8168
 30
1.21782e-14
  70
    32
  0
VERTEX
  8
0
  5
4C22
 10
72.4705
 20
-54.8230
 30
1.21798e-14
  70
    32
  0
VERTEX
  8
0
  5
4C23
 10
72.4530
 20
-54.8289
 30
1.21813e-14
  70
    32
  0
VERTEX
  8
0
  5
4C24
 10
72.4354
 20
-54.8346
 30
1.21828e-14
  70
    32
  0
VERTEX
  8
0
  5
4C25
 10
72.4178
 20
-54.8401
 30
1.21842e-14
  70
    32
  0
VERTEX
  8
0
  5
4C26
 10
72.4001
 20
-54.8454
 30
1.21855e-14
  70
    32
  0
VERTEX
  8
0
  5
4C27
 10
72.3823
 20
-54.8505
 30
1.21868e-14
  70
    32
  0
VERTEX
  8
0
  5
4C28
 10
72.3645
 20
-54.8553
 30
1.21880e-14
  70
    32
  0
VERTEX
  8
0
  5
4C29
 10
72.3466
 20
-54.8599
 30
1.21892e-14
  70
    32
  0
VERTEX
  8
0
  5
4C2A
 10
72.3287
 20
-54.8642
 30
1.21903e-14
  70
    32
  0
VERTEX
  8
0
  5
4C2B
 10
72.3107
 20
-54.8683
 30
1.21913e-14
  70
    32
  0
VERTEX
  8
0
  5
4C2C
 10
72.2926
 20
-54.8722
 30
1.21923e-14
  70
    32
  0
VERTEX
  8
0
  5
4C2D
 10
72.2746
 20
-54.8759
 30
1.21932e-14
  70
    32
  0
VERTEX
  8
0
  5
4C2E
 10
72.2564
 20
-54.8793
 30
1.21941e-14
  70
    32
  0
VERTEX
  8
0
  5
4C2F
 10
72.2383
 20
-54.8825
 30
1.21949e-14
  70
    32
  0
VERTEX
  8
0
  5
4C30
 10
72.2201
 20
-54.8855
 30
1.21957e-14
  70
    32
  0
VERTEX
  8
0
  5
4C31
 10
72.2019
 20
-54.8882
 30
1.21964e-14
  70
    32
  0
VERTEX
  8
0
  5
4C32
 10
72.1836
 20
-54.8907
 30
1.21970e-14
  70
    32
  0
VERTEX
  8
0
  5
4C33
 10
72.1653
 20
-54.8929
 30
1.21976e-14
  70
    32
  0
VERTEX
  8
0
  5
4C34
 10
72.1470
 20
-54.8949
 30
1.21981e-14
  70
    32
  0
VERTEX
  8
0
  5
4C35
 10
72.1287
 20
-54.8967
 30
1.21985e-14
  70
    32
  0
VERTEX
  8
0
  5
4C36
 10
72.1103
 20
-54.8983
 30
1.21989e-14
  70
    32
  0
VERTEX
  8
0
  5
4C37
 10
72.0920
 20
-54.8996
 30
1.21992e-14
  70
    32
  0
VERTEX
  8
0
  5
4C38
 10
72.0736
 20
-54.9006
 30
1.21995e-14
  70
    32
  0
VERTEX
  8
0
  5
4C39
 10
72.0552
 20
-54.9015
 30
1.21997e-14
  70
    32
  0
VERTEX
  8
0
  5
4C3A
 10
72.0368
 20
-54.9021
 30
1.21999e-14
  70
    32
  0
VERTEX
  8
0
  5
4C3B
 10
72.0184
 20
-54.9024
 30
1.22000e-14
  70
    32
  0
VERTEX
  8
0
  5
4C3C
 10
72.0000
 20
-54.9025
 30
1.22000e-14
  70
    32
  0
SEQEND
  8
0
  5
4C3D
  0
LINE
  5
4622
  8
0
  6
VERDECKT
 62
     1
 10
73.5000000000005116
 20
-5.5071499063938258
 30
0.0000000000000012
 11
75.0000000000004832
 21
-5.5071499063938258
 31
0.0000000000000012
210
0.0
220
1.0
230
-0.0000000000000002
  0
POLYLINE
  5
4623
  8
0
  6
VERDECKT
 62
     1
 10
72.0000000000002558
 20
-56.4789762197735072
 30
0.0000000000000125
 66
     1
 70
     8
  0
VERTEX
  8
0
  5
4C3E
 10
72.0000
 20
-56.4790
 30
1.25000e-14
  70
    32
  0
VERTEX
  8
0
  5
4C3F
 10
72.0368
 20
-56.4787
 30
1.24999e-14
  70
    32
  0
VERTEX
  8
0
  5
4C40
 10
72.0736
 20
-56.4780
 30
1.24998e-14
  70
    32
  0
VERTEX
  8
0
  5
4C41
 10
72.1104
 20
-56.4768
 30
1.24995e-14
  70
    32
  0
VERTEX
  8
0
  5
4C42
 10
72.1472
 20
-56.4752
 30
1.24992e-14
  70
    32
  0
VERTEX
  8
0
  5
4C43
 10
72.1840
 20
-56.4730
 30
1.24987e-14
  70
    32
  0
VERTEX
  8
0
  5
4C44
 10
72.2207
 20
-56.4704
 30
1.24981e-14
  70
    32
  0
VERTEX
  8
0
  5
4C45
 10
72.2574
 20
-56.4674
 30
1.24974e-14
  70
    32
  0
VERTEX
  8
0
  5
4C46
 10
72.2941
 20
-56.4638
 30
1.24966e-14
  70
    32
  0
VERTEX
  8
0
  5
4C47
 10
72.3307
 20
-56.4598
 30
1.24957e-14
  70
    32
  0
VERTEX
  8
0
  5
4C48
 10
72.3672
 20
-56.4553
 30
1.24947e-14
  70
    32
  0
VERTEX
  8
0
  5
4C49
 10
72.4037
 20
-56.4503
 30
1.24936e-14
  70
    32
  0
VERTEX
  8
0
  5
4C4A
 10
72.4402
 20
-56.4449
 30
1.24924e-14
  70
    32
  0
VERTEX
  8
0
  5
4C4B
 10
72.4766
 20
-56.4389
 30
1.24911e-14
  70
    32
  0
VERTEX
  8
0
  5
4C4C
 10
72.5129
 20
-56.4326
 30
1.24897e-14
  70
    32
  0
VERTEX
  8
0
  5
4C4D
 10
72.5491
 20
-56.4257
 30
1.24882e-14
  70
    32
  0
VERTEX
  8
0
  5
4C4E
 10
72.5853
 20
-56.4184
 30
1.24865e-14
  70
    32
  0
VERTEX
  8
0
  5
4C4F
 10
72.6213
 20
-56.4106
 30
1.24848e-14
  70
    32
  0
VERTEX
  8
0
  5
4C50
 10
72.6573
 20
-56.4024
 30
1.24830e-14
  70
    32
  0
VERTEX
  8
0
  5
4C51
 10
72.6932
 20
-56.3937
 30
1.24811e-14
  70
    32
  0
VERTEX
  8
0
  5
4C52
 10
72.7289
 20
-56.3845
 30
1.24790e-14
  70
    32
  0
VERTEX
  8
0
  5
4C53
 10
72.7646
 20
-56.3749
 30
1.24769e-14
  70
    32
  0
VERTEX
  8
0
  5
4C54
 10
72.8001
 20
-56.3648
 30
1.24746e-14
  70
    32
  0
VERTEX
  8
0
  5
4C55
 10
72.8356
 20
-56.3542
 30
1.24723e-14
  70
    32
  0
VERTEX
  8
0
  5
4C56
 10
72.8709
 20
-56.3432
 30
1.24699e-14
  70
    32
  0
VERTEX
  8
0
  5
4C57
 10
72.9060
 20
-56.3318
 30
1.24673e-14
  70
    32
  0
VERTEX
  8
0
  5
4C58
 10
72.9410
 20
-56.3198
 30
1.24647e-14
  70
    32
  0
VERTEX
  8
0
  5
4C59
 10
72.9759
 20
-56.3075
 30
1.24619e-14
  70
    32
  0
VERTEX
  8
0
  5
4C5A
 10
73.0107
 20
-56.2947
 30
1.24591e-14
  70
    32
  0
VERTEX
  8
0
  5
4C5B
 10
73.0453
 20
-56.2814
 30
1.24561e-14
  70
    32
  0
VERTEX
  8
0
  5
4C5C
 10
73.0797
 20
-56.2677
 30
1.24531e-14
  70
    32
  0
VERTEX
  8
0
  5
4C5D
 10
73.1140
 20
-56.2536
 30
1.24500e-14
  70
    32
  0
VERTEX
  8
0
  5
4C5E
 10
73.1481
 20
-56.2390
 30
1.24467e-14
  70
    32
  0
VERTEX
  8
0
  5
4C5F
 10
73.1820
 20
-56.2240
 30
1.24434e-14
  70
    32
  0
VERTEX
  8
0
  5
4C60
 10
73.2157
 20
-56.2085
 30
1.24399e-14
  70
    32
  0
VERTEX
  8
0
  5
4C61
 10
73.2493
 20
-56.1926
 30
1.24364e-14
  70
    32
  0
VERTEX
  8
0
  5
4C62
 10
73.2827
 20
-56.1763
 30
1.24328e-14
  70
    32
  0
VERTEX
  8
0
  5
4C63
 10
73.3158
 20
-56.1595
 30
1.24291e-14
  70
    32
  0
VERTEX
  8
0
  5
4C64
 10
73.3488
 20
-56.1423
 30
1.24253e-14
  70
    32
  0
VERTEX
  8
0
  5
4C65
 10
73.3816
 20
-56.1247
 30
1.24213e-14
  70
    32
  0
VERTEX
  8
0
  5
4C66
 10
73.4142
 20
-56.1067
 30
1.24173e-14
  70
    32
  0
VERTEX
  8
0
  5
4C67
 10
73.4466
 20
-56.0882
 30
1.24132e-14
  70
    32
  0
VERTEX
  8
0
  5
4C68
 10
73.4787
 20
-56.0694
 30
1.24091e-14
  70
    32
  0
VERTEX
  8
0
  5
4C69
 10
73.5106
 20
-56.0501
 30
1.24048e-14
  70
    32
  0
VERTEX
  8
0
  5
4C6A
 10
73.5423
 20
-56.0304
 30
1.24004e-14
  70
    32
  0
VERTEX
  8
0
  5
4C6B
 10
73.5738
 20
-56.0103
 30
1.23959e-14
  70
    32
  0
VERTEX
  8
0
  5
4C6C
 10
73.6050
 20
-55.9898
 30
1.23914e-14
  70
    32
  0
VERTEX
  8
0
  5
4C6D
 10
73.6360
 20
-55.9689
 30
1.23868e-14
  70
    32
  0
VERTEX
  8
0
  5
4C6E
 10
73.6667
 20
-55.9476
 30
1.23820e-14
  70
    32
  0
VERTEX
  8
0
  5
4C6F
 10
73.6972
 20
-55.9259
 30
1.23772e-14
  70
    32
  0
VERTEX
  8
0
  5
4C70
 10
73.7274
 20
-55.9038
 30
1.23723e-14
  70
    32
  0
VERTEX
  8
0
  5
4C71
 10
73.7574
 20
-55.8814
 30
1.23673e-14
  70
    32
  0
VERTEX
  8
0
  5
4C72
 10
73.7871
 20
-55.8585
 30
1.23622e-14
  70
    32
  0
VERTEX
  8
0
  5
4C73
 10
73.8165
 20
-55.8353
 30
1.23571e-14
  70
    32
  0
VERTEX
  8
0
  5
4C74
 10
73.8457
 20
-55.8117
 30
1.23518e-14
  70
    32
  0
VERTEX
  8
0
  5
4C75
 10
73.8746
 20
-55.7877
 30
1.23465e-14
  70
    32
  0
VERTEX
  8
0
  5
4C76
 10
73.9032
 20
-55.7633
 30
1.23411e-14
  70
    32
  0
VERTEX
  8
0
  5
4C77
 10
73.9315
 20
-55.7386
 30
1.23356e-14
  70
    32
  0
VERTEX
  8
0
  5
4C78
 10
73.9595
 20
-55.7135
 30
1.23300e-14
  70
    32
  0
VERTEX
  8
0
  5
4C79
 10
73.9872
 20
-55.6880
 30
1.23244e-14
  70
    32
  0
VERTEX
  8
0
  5
4C7A
 10
74.0147
 20
-55.6622
 30
1.23187e-14
  70
    32
  0
VERTEX
  8
0
  5
4C7B
 10
74.0418
 20
-55.6361
 30
1.23129e-14
  70
    32
  0
VERTEX
  8
0
  5
4C7C
 10
74.0686
 20
-55.6096
 30
1.23070e-14
  70
    32
  0
VERTEX
  8
0
  5
4C7D
 10
74.0951
 20
-55.5827
 30
1.23010e-14
  70
    32
  0
VERTEX
  8
0
  5
4C7E
 10
74.1213
 20
-55.5555
 30
1.22950e-14
  70
    32
  0
VERTEX
  8
0
  5
4C7F
 10
74.1472
 20
-55.5280
 30
1.22889e-14
  70
    32
  0
VERTEX
  8
0
  5
4C80
 10
74.1727
 20
-55.5001
 30
1.22827e-14
  70
    32
  0
VERTEX
  8
0
  5
4C81
 10
74.1980
 20
-55.4719
 30
1.22764e-14
  70
    32
  0
VERTEX
  8
0
  5
4C82
 10
74.2229
 20
-55.4434
 30
1.22701e-14
  70
    32
  0
VERTEX
  8
0
  5
4C83
 10
74.2474
 20
-55.4146
 30
1.22637e-14
  70
    32
  0
VERTEX
  8
0
  5
4C84
 10
74.2716
 20
-55.3855
 30
1.22572e-14
  70
    32
  0
VERTEX
  8
0
  5
4C85
 10
74.2955
 20
-55.3560
 30
1.22507e-14
  70
    32
  0
VERTEX
  8
0
  5
4C86
 10
74.3190
 20
-55.3263
 30
1.22441e-14
  70
    32
  0
VERTEX
  8
0
  5
4C87
 10
74.3422
 20
-55.2962
 30
1.22374e-14
  70
    32
  0
VERTEX
  8
0
  5
4C88
 10
74.3650
 20
-55.2658
 30
1.22307e-14
  70
    32
  0
VERTEX
  8
0
  5
4C89
 10
74.3875
 20
-55.2352
 30
1.22239e-14
  70
    32
  0
VERTEX
  8
0
  5
4C8A
 10
74.4096
 20
-55.2043
 30
1.22170e-14
  70
    32
  0
VERTEX
  8
0
  5
4C8B
 10
74.4314
 20
-55.1730
 30
1.22101e-14
  70
    32
  0
VERTEX
  8
0
  5
4C8C
 10
74.4528
 20
-55.1415
 30
1.22031e-14
  70
    32
  0
VERTEX
  8
0
  5
4C8D
 10
74.4738
 20
-55.1098
 30
1.21960e-14
  70
    32
  0
VERTEX
  8
0
  5
4C8E
 10
74.4944
 20
-55.0777
 30
1.21889e-14
  70
    32
  0
VERTEX
  8
0
  5
4C8F
 10
74.5147
 20
-55.0454
 30
1.21817e-14
  70
    32
  0
VERTEX
  8
0
  5
4C90
 10
74.5346
 20
-55.0129
 30
1.21745e-14
  70
    32
  0
VERTEX
  8
0
  5
4C91
 10
74.5541
 20
-54.9801
 30
1.21672e-14
  70
    32
  0
VERTEX
  8
0
  5
4C92
 10
74.5732
 20
-54.9470
 30
1.21599e-14
  70
    32
  0
VERTEX
  8
0
  5
4C93
 10
74.5919
 20
-54.9137
 30
1.21525e-14
  70
    32
  0
VERTEX
  8
0
  5
4C94
 10
74.6103
 20
-54.8801
 30
1.21450e-14
  70
    32
  0
VERTEX
  8
0
  5
4C95
 10
74.6282
 20
-54.8464
 30
1.21375e-14
  70
    32
  0
VERTEX
  8
0
  5
4C96
 10
74.6458
 20
-54.8123
 30
1.21300e-14
  70
    32
  0
VERTEX
  8
0
  5
4C97
 10
74.6629
 20
-54.7781
 30
1.21224e-14
  70
    32
  0
VERTEX
  8
0
  5
4C98
 10
74.6797
 20
-54.7437
 30
1.21147e-14
  70
    32
  0
VERTEX
  8
0
  5
4C99
 10
74.6960
 20
-54.7090
 30
1.21070e-14
  70
    32
  0
VERTEX
  8
0
  5
4C9A
 10
74.7120
 20
-54.6741
 30
1.20993e-14
  70
    32
  0
VERTEX
  8
0
  5
4C9B
 10
74.7275
 20
-54.6390
 30
1.20915e-14
  70
    32
  0
VERTEX
  8
0
  5
4C9C
 10
74.7426
 20
-54.6038
 30
1.20837e-14
  70
    32
  0
VERTEX
  8
0
  5
4C9D
 10
74.7573
 20
-54.5683
 30
1.20758e-14
  70
    32
  0
VERTEX
  8
0
  5
4C9E
 10
74.7716
 20
-54.5326
 30
1.20679e-14
  70
    32
  0
VERTEX
  8
0
  5
4C9F
 10
74.7855
 20
-54.4968
 30
1.20599e-14
  70
    32
  0
VERTEX
  8
0
  5
4CA0
 10
74.7990
 20
-54.4608
 30
1.20519e-14
  70
    32
  0
VERTEX
  8
0
  5
4CA1
 10
74.8120
 20
-54.4246
 30
1.20439e-14
  70
    32
  0
VERTEX
  8
0
  5
4CA2
 10
74.8246
 20
-54.3883
 30
1.20358e-14
  70
    32
  0
VERTEX
  8
0
  5
4CA3
 10
74.8368
 20
-54.3517
 30
1.20277e-14
  70
    32
  0
VERTEX
  8
0
  5
4CA4
 10
74.8486
 20
-54.3151
 30
1.20196e-14
  70
    32
  0
VERTEX
  8
0
  5
4CA5
 10
74.8599
 20
-54.2783
 30
1.20114e-14
  70
    32
  0
VERTEX
  8
0
  5
4CA6
 10
74.8708
 20
-54.2413
 30
1.20032e-14
  70
    32
  0
VERTEX
  8
0
  5
4CA7
 10
74.8813
 20
-54.2042
 30
1.19950e-14
  70
    32
  0
VERTEX
  8
0
  5
4CA8
 10
74.8913
 20
-54.1670
 30
1.19867e-14
  70
    32
  0
VERTEX
  8
0
  5
4CA9
 10
74.9009
 20
-54.1296
 30
1.19784e-14
  70
    32
  0
VERTEX
  8
0
  5
4CAA
 10
74.9101
 20
-54.0922
 30
1.19701e-14
  70
    32
  0
VERTEX
  8
0
  5
4CAB
 10
74.9188
 20
-54.0546
 30
1.19617e-14
  70
    32
  0
VERTEX
  8
0
  5
4CAC
 10
74.9271
 20
-54.0169
 30
1.19534e-14
  70
    32
  0
VERTEX
  8
0
  5
4CAD
 10
74.9350
 20
-53.9791
 30
1.19450e-14
  70
    32
  0
VERTEX
  8
0
  5
4CAE
 10
74.9424
 20
-53.9412
 30
1.19366e-14
  70
    32
  0
VERTEX
  8
0
  5
4CAF
 10
74.9493
 20
-53.9032
 30
1.19281e-14
  70
    32
  0
VERTEX
  8
0
  5
4CB0
 10
74.9558
 20
-53.8651
 30
1.19197e-14
  70
    32
  0
VERTEX
  8
0
  5
4CB1
 10
74.9619
 20
-53.8269
 30
1.19112e-14
  70
    32
  0
VERTEX
  8
0
  5
4CB2
 10
74.9675
 20
-53.7887
 30
1.19027e-14
  70
    32
  0
VERTEX
  8
0
  5
4CB3
 10
74.9727
 20
-53.7504
 30
1.18942e-14
  70
    32
  0
VERTEX
  8
0
  5
4CB4
 10
74.9774
 20
-53.7120
 30
1.18857e-14
  70
    32
  0
VERTEX
  8
0
  5
4CB5
 10
74.9817
 20
-53.6736
 30
1.18772e-14
  70
    32
  0
VERTEX
  8
0
  5
4CB6
 10
74.9856
 20
-53.6351
 30
1.18686e-14
  70
    32
  0
VERTEX
  8
0
  5
4CB7
 10
74.9889
 20
-53.5966
 30
1.18601e-14
  70
    32
  0
VERTEX
  8
0
  5
4CB8
 10
74.9919
 20
-53.5580
 30
1.18515e-14
  70
    32
  0
VERTEX
  8
0
  5
4CB9
 10
74.9944
 20
-53.5194
 30
1.18429e-14
  70
    32
  0
VERTEX
  8
0
  5
4CBA
 10
74.9964
 20
-53.4808
 30
1.18343e-14
  70
    32
  0
VERTEX
  8
0
  5
4CBB
 10
74.9980
 20
-53.4421
 30
1.18258e-14
  70
    32
  0
VERTEX
  8
0
  5
4CBC
 10
74.9991
 20
-53.4035
 30
1.18172e-14
  70
    32
  0
VERTEX
  8
0
  5
4CBD
 10
74.9998
 20
-53.3648
 30
1.18086e-14
  70
    32
  0
VERTEX
  8
0
  5
4CBE
 10
75.0000
 20
-53.3261
 30
1.18000e-14
  70
    32
  0
SEQEND
  8
0
  5
4CBF
  0
LINE
  5
4624
  8
0
  6
VERDECKT
 62
     1
 10
-71.9999999999998437
 20
-56.4789762197735001
 30
0.0000000000000125
 11
72.00000000000027
 21
-56.4789762197735001
 31
0.0000000000000125
210
0.0
220
1.0
230
-0.0000000000000002
  0
POLYLINE
  5
4625
  8
0
  6
VERDECKT
 62
     1
 10
-74.9999999999998437
 20
-53.3260797467809482
 30
0.0000000000000118
 66
     1
 70
     8
  0
VERTEX
  8
0
  5
4CC0
 10
-75.0000
 20
-53.3261
 30
1.18000e-14
  70
    32
  0
VERTEX
  8
0
  5
4CC1
 10
-74.9998
 20
-53.3648
 30
1.18086e-14
  70
    32
  0
VERTEX
  8
0
  5
4CC2
 10
-74.9991
 20
-53.4035
 30
1.18172e-14
  70
    32
  0
VERTEX
  8
0
  5
4CC3
 10
-74.9980
 20
-53.4421
 30
1.18258e-14
  70
    32
  0
VERTEX
  8
0
  5
4CC4
 10
-74.9964
 20
-53.4808
 30
1.18343e-14
  70
    32
  0
VERTEX
  8
0
  5
4CC5
 10
-74.9944
 20
-53.5194
 30
1.18429e-14
  70
    32
  0
VERTEX
  8
0
  5
4CC6
 10
-74.9919
 20
-53.5580
 30
1.18515e-14
  70
    32
  0
VERTEX
  8
0
  5
4CC7
 10
-74.9889
 20
-53.5966
 30
1.18601e-14
  70
    32
  0
VERTEX
  8
0
  5
4CC8
 10
-74.9856
 20
-53.6351
 30
1.18686e-14
  70
    32
  0
VERTEX
  8
0
  5
4CC9
 10
-74.9817
 20
-53.6736
 30
1.18772e-14
  70
    32
  0
VERTEX
  8
0
  5
4CCA
 10
-74.9774
 20
-53.7120
 30
1.18857e-14
  70
    32
  0
VERTEX
  8
0
  5
4CCB
 10
-74.9727
 20
-53.7504
 30
1.18942e-14
  70
    32
  0
VERTEX
  8
0
  5
4CCC
 10
-74.9675
 20
-53.7887
 30
1.19027e-14
  70
    32
  0
VERTEX
  8
0
  5
4CCD
 10
-74.9619
 20
-53.8269
 30
1.19112e-14
  70
    32
  0
VERTEX
  8
0
  5
4CCE
 10
-74.9558
 20
-53.8651
 30
1.19197e-14
  70
    32
  0
VERTEX
  8
0
  5
4CCF
 10
-74.9493
 20
-53.9032
 30
1.19281e-14
  70
    32
  0
VERTEX
  8
0
  5
4CD0
 10
-74.9424
 20
-53.9412
 30
1.19366e-14
  70
    32
  0
VERTEX
  8
0
  5
4CD1
 10
-74.9350
 20
-53.9791
 30
1.19450e-14
  70
    32
  0
VERTEX
  8
0
  5
4CD2
 10
-74.9271
 20
-54.0169
 30
1.19534e-14
  70
    32
  0
VERTEX
  8
0
  5
4CD3
 10
-74.9188
 20
-54.0546
 30
1.19617e-14
  70
    32
  0
VERTEX
  8
0
  5
4CD4
 10
-74.9101
 20
-54.0922
 30
1.19701e-14
  70
    32
  0
VERTEX
  8
0
  5
4CD5
 10
-74.9009
 20
-54.1296
 30
1.19784e-14
  70
    32
  0
VERTEX
  8
0
  5
4CD6
 10
-74.8913
 20
-54.1670
 30
1.19867e-14
  70
    32
  0
VERTEX
  8
0
  5
4CD7
 10
-74.8813
 20
-54.2042
 30
1.19950e-14
  70
    32
  0
VERTEX
  8
0
  5
4CD8
 10
-74.8708
 20
-54.2413
 30
1.20032e-14
  70
    32
  0
VERTEX
  8
0
  5
4CD9
 10
-74.8599
 20
-54.2783
 30
1.20114e-14
  70
    32
  0
VERTEX
  8
0
  5
4CDA
 10
-74.8486
 20
-54.3151
 30
1.20196e-14
  70
    32
  0
VERTEX
  8
0
  5
4CDB
 10
-74.8368
 20
-54.3517
 30
1.20277e-14
  70
    32
  0
VERTEX
  8
0
  5
4CDC
 10
-74.8246
 20
-54.3883
 30
1.20358e-14
  70
    32
  0
VERTEX
  8
0
  5
4CDD
 10
-74.8120
 20
-54.4246
 30
1.20439e-14
  70
    32
  0
VERTEX
  8
0
  5
4CDE
 10
-74.7990
 20
-54.4608
 30
1.20519e-14
  70
    32
  0
VERTEX
  8
0
  5
4CDF
 10
-74.7855
 20
-54.4968
 30
1.20599e-14
  70
    32
  0
VERTEX
  8
0
  5
4CE0
 10
-74.7716
 20
-54.5326
 30
1.20679e-14
  70
    32
  0
VERTEX
  8
0
  5
4CE1
 10
-74.7573
 20
-54.5683
 30
1.20758e-14
  70
    32
  0
VERTEX
  8
0
  5
4CE2
 10
-74.7426
 20
-54.6038
 30
1.20837e-14
  70
    32
  0
VERTEX
  8
0
  5
4CE3
 10
-74.7275
 20
-54.6390
 30
1.20915e-14
  70
    32
  0
VERTEX
  8
0
  5
4CE4
 10
-74.7120
 20
-54.6741
 30
1.20993e-14
  70
    32
  0
VERTEX
  8
0
  5
4CE5
 10
-74.6960
 20
-54.7090
 30
1.21070e-14
  70
    32
  0
VERTEX
  8
0
  5
4CE6
 10
-74.6797
 20
-54.7437
 30
1.21147e-14
  70
    32
  0
VERTEX
  8
0
  5
4CE7
 10
-74.6629
 20
-54.7781
 30
1.21224e-14
  70
    32
  0
VERTEX
  8
0
  5
4CE8
 10
-74.6458
 20
-54.8123
 30
1.21300e-14
  70
    32
  0
VERTEX
  8
0
  5
4CE9
 10
-74.6282
 20
-54.8464
 30
1.21375e-14
  70
    32
  0
VERTEX
  8
0
  5
4CEA
 10
-74.6103
 20
-54.8801
 30
1.21450e-14
  70
    32
  0
VERTEX
  8
0
  5
4CEB
 10
-74.5919
 20
-54.9137
 30
1.21525e-14
  70
    32
  0
VERTEX
  8
0
  5
4CEC
 10
-74.5732
 20
-54.9470
 30
1.21599e-14
  70
    32
  0
VERTEX
  8
0
  5
4CED
 10
-74.5541
 20
-54.9801
 30
1.21672e-14
  70
    32
  0
VERTEX
  8
0
  5
4CEE
 10
-74.5346
 20
-55.0129
 30
1.21745e-14
  70
    32
  0
VERTEX
  8
0
  5
4CEF
 10
-74.5147
 20
-55.0454
 30
1.21817e-14
  70
    32
  0
VERTEX
  8
0
  5
4CF0
 10
-74.4944
 20
-55.0777
 30
1.21889e-14
  70
    32
  0
VERTEX
  8
0
  5
4CF1
 10
-74.4738
 20
-55.1098
 30
1.21960e-14
  70
    32
  0
VERTEX
  8
0
  5
4CF2
 10
-74.4528
 20
-55.1415
 30
1.22031e-14
  70
    32
  0
VERTEX
  8
0
  5
4CF3
 10
-74.4314
 20
-55.1730
 30
1.22101e-14
  70
    32
  0
VERTEX
  8
0
  5
4CF4
 10
-74.4096
 20
-55.2043
 30
1.22170e-14
  70
    32
  0
VERTEX
  8
0
  5
4CF5
 10
-74.3875
 20
-55.2352
 30
1.22239e-14
  70
    32
  0
VERTEX
  8
0
  5
4CF6
 10
-74.3650
 20
-55.2658
 30
1.22307e-14
  70
    32
  0
VERTEX
  8
0
  5
4CF7
 10
-74.3422
 20
-55.2962
 30
1.22374e-14
  70
    32
  0
VERTEX
  8
0
  5
4CF8
 10
-74.3190
 20
-55.3263
 30
1.22441e-14
  70
    32
  0
VERTEX
  8
0
  5
4CF9
 10
-74.2955
 20
-55.3560
 30
1.22507e-14
  70
    32
  0
VERTEX
  8
0
  5
4CFA
 10
-74.2716
 20
-55.3855
 30
1.22572e-14
  70
    32
  0
VERTEX
  8
0
  5
4CFB
 10
-74.2474
 20
-55.4146
 30
1.22637e-14
  70
    32
  0
VERTEX
  8
0
  5
4CFC
 10
-74.2229
 20
-55.4434
 30
1.22701e-14
  70
    32
  0
VERTEX
  8
0
  5
4CFD
 10
-74.1980
 20
-55.4719
 30
1.22764e-14
  70
    32
  0
VERTEX
  8
0
  5
4CFE
 10
-74.1727
 20
-55.5001
 30
1.22827e-14
  70
    32
  0
VERTEX
  8
0
  5
4CFF
 10
-74.1472
 20
-55.5280
 30
1.22889e-14
  70
    32
  0
VERTEX
  8
0
  5
4D00
 10
-74.1213
 20
-55.5555
 30
1.22950e-14
  70
    32
  0
VERTEX
  8
0
  5
4D01
 10
-74.0951
 20
-55.5827
 30
1.23010e-14
  70
    32
  0
VERTEX
  8
0
  5
4D02
 10
-74.0686
 20
-55.6096
 30
1.23070e-14
  70
    32
  0
VERTEX
  8
0
  5
4D03
 10
-74.0418
 20
-55.6361
 30
1.23129e-14
  70
    32
  0
VERTEX
  8
0
  5
4D04
 10
-74.0147
 20
-55.6622
 30
1.23187e-14
  70
    32
  0
VERTEX
  8
0
  5
4D05
 10
-73.9872
 20
-55.6880
 30
1.23244e-14
  70
    32
  0
VERTEX
  8
0
  5
4D06
 10
-73.9595
 20
-55.7135
 30
1.23300e-14
  70
    32
  0
VERTEX
  8
0
  5
4D07
 10
-73.9315
 20
-55.7386
 30
1.23356e-14
  70
    32
  0
VERTEX
  8
0
  5
4D08
 10
-73.9032
 20
-55.7633
 30
1.23411e-14
  70
    32
  0
VERTEX
  8
0
  5
4D09
 10
-73.8746
 20
-55.7877
 30
1.23465e-14
  70
    32
  0
VERTEX
  8
0
  5
4D0A
 10
-73.8457
 20
-55.8117
 30
1.23518e-14
  70
    32
  0
VERTEX
  8
0
  5
4D0B
 10
-73.8165
 20
-55.8353
 30
1.23571e-14
  70
    32
  0
VERTEX
  8
0
  5
4D0C
 10
-73.7871
 20
-55.8585
 30
1.23622e-14
  70
    32
  0
VERTEX
  8
0
  5
4D0D
 10
-73.7574
 20
-55.8814
 30
1.23673e-14
  70
    32
  0
VERTEX
  8
0
  5
4D0E
 10
-73.7274
 20
-55.9038
 30
1.23723e-14
  70
    32
  0
VERTEX
  8
0
  5
4D0F
 10
-73.6972
 20
-55.9259
 30
1.23772e-14
  70
    32
  0
VERTEX
  8
0
  5
4D10
 10
-73.6667
 20
-55.9476
 30
1.23820e-14
  70
    32
  0
VERTEX
  8
0
  5
4D11
 10
-73.6360
 20
-55.9689
 30
1.23868e-14
  70
    32
  0
VERTEX
  8
0
  5
4D12
 10
-73.6050
 20
-55.9898
 30
1.23914e-14
  70
    32
  0
VERTEX
  8
0
  5
4D13
 10
-73.5738
 20
-56.0103
 30
1.23959e-14
  70
    32
  0
VERTEX
  8
0
  5
4D14
 10
-73.5423
 20
-56.0304
 30
1.24004e-14
  70
    32
  0
VERTEX
  8
0
  5
4D15
 10
-73.5106
 20
-56.0501
 30
1.24048e-14
  70
    32
  0
VERTEX
  8
0
  5
4D16
 10
-73.4787
 20
-56.0694
 30
1.24091e-14
  70
    32
  0
VERTEX
  8
0
  5
4D17
 10
-73.4466
 20
-56.0882
 30
1.24132e-14
  70
    32
  0
VERTEX
  8
0
  5
4D18
 10
-73.4142
 20
-56.1067
 30
1.24173e-14
  70
    32
  0
VERTEX
  8
0
  5
4D19
 10
-73.3816
 20
-56.1247
 30
1.24213e-14
  70
    32
  0
VERTEX
  8
0
  5
4D1A
 10
-73.3488
 20
-56.1423
 30
1.24253e-14
  70
    32
  0
VERTEX
  8
0
  5
4D1B
 10
-73.3158
 20
-56.1595
 30
1.24291e-14
  70
    32
  0
VERTEX
  8
0
  5
4D1C
 10
-73.2827
 20
-56.1763
 30
1.24328e-14
  70
    32
  0
VERTEX
  8
0
  5
4D1D
 10
-73.2493
 20
-56.1926
 30
1.24364e-14
  70
    32
  0
VERTEX
  8
0
  5
4D1E
 10
-73.2157
 20
-56.2085
 30
1.24399e-14
  70
    32
  0
VERTEX
  8
0
  5
4D1F
 10
-73.1820
 20
-56.2240
 30
1.24434e-14
  70
    32
  0
VERTEX
  8
0
  5
4D20
 10
-73.1481
 20
-56.2390
 30
1.24467e-14
  70
    32
  0
VERTEX
  8
0
  5
4D21
 10
-73.1140
 20
-56.2536
 30
1.24500e-14
  70
    32
  0
VERTEX
  8
0
  5
4D22
 10
-73.0797
 20
-56.2677
 30
1.24531e-14
  70
    32
  0
VERTEX
  8
0
  5
4D23
 10
-73.0453
 20
-56.2814
 30
1.24561e-14
  70
    32
  0
VERTEX
  8
0
  5
4D24
 10
-73.0107
 20
-56.2947
 30
1.24591e-14
  70
    32
  0
VERTEX
  8
0
  5
4D25
 10
-72.9759
 20
-56.3075
 30
1.24619e-14
  70
    32
  0
VERTEX
  8
0
  5
4D26
 10
-72.9410
 20
-56.3198
 30
1.24647e-14
  70
    32
  0
VERTEX
  8
0
  5
4D27
 10
-72.9060
 20
-56.3318
 30
1.24673e-14
  70
    32
  0
VERTEX
  8
0
  5
4D28
 10
-72.8709
 20
-56.3432
 30
1.24699e-14
  70
    32
  0
VERTEX
  8
0
  5
4D29
 10
-72.8356
 20
-56.3542
 30
1.24723e-14
  70
    32
  0
VERTEX
  8
0
  5
4D2A
 10
-72.8001
 20
-56.3648
 30
1.24746e-14
  70
    32
  0
VERTEX
  8
0
  5
4D2B
 10
-72.7646
 20
-56.3749
 30
1.24769e-14
  70
    32
  0
VERTEX
  8
0
  5
4D2C
 10
-72.7289
 20
-56.3845
 30
1.24790e-14
  70
    32
  0
VERTEX
  8
0
  5
4D2D
 10
-72.6932
 20
-56.3937
 30
1.24811e-14
  70
    32
  0
VERTEX
  8
0
  5
4D2E
 10
-72.6573
 20
-56.4024
 30
1.24830e-14
  70
    32
  0
VERTEX
  8
0
  5
4D2F
 10
-72.6213
 20
-56.4106
 30
1.24848e-14
  70
    32
  0
VERTEX
  8
0
  5
4D30
 10
-72.5853
 20
-56.4184
 30
1.24865e-14
  70
    32
  0
VERTEX
  8
0
  5
4D31
 10
-72.5491
 20
-56.4257
 30
1.24882e-14
  70
    32
  0
VERTEX
  8
0
  5
4D32
 10
-72.5129
 20
-56.4326
 30
1.24897e-14
  70
    32
  0
VERTEX
  8
0
  5
4D33
 10
-72.4766
 20
-56.4389
 30
1.24911e-14
  70
    32
  0
VERTEX
  8
0
  5
4D34
 10
-72.4402
 20
-56.4449
 30
1.24924e-14
  70
    32
  0
VERTEX
  8
0
  5
4D35
 10
-72.4037
 20
-56.4503
 30
1.24936e-14
  70
    32
  0
VERTEX
  8
0
  5
4D36
 10
-72.3672
 20
-56.4553
 30
1.24947e-14
  70
    32
  0
VERTEX
  8
0
  5
4D37
 10
-72.3307
 20
-56.4598
 30
1.24957e-14
  70
    32
  0
VERTEX
  8
0
  5
4D38
 10
-72.2941
 20
-56.4638
 30
1.24966e-14
  70
    32
  0
VERTEX
  8
0
  5
4D39
 10
-72.2574
 20
-56.4674
 30
1.24974e-14
  70
    32
  0
VERTEX
  8
0
  5
4D3A
 10
-72.2207
 20
-56.4704
 30
1.24981e-14
  70
    32
  0
VERTEX
  8
0
  5
4D3B
 10
-72.1840
 20
-56.4730
 30
1.24987e-14
  70
    32
  0
VERTEX
  8
0
  5
4D3C
 10
-72.1472
 20
-56.4752
 30
1.24992e-14
  70
    32
  0
VERTEX
  8
0
  5
4D3D
 10
-72.1104
 20
-56.4768
 30
1.24995e-14
  70
    32
  0
VERTEX
  8
0
  5
4D3E
 10
-72.0736
 20
-56.4780
 30
1.24998e-14
  70
    32
  0
VERTEX
  8
0
  5
4D3F
 10
-72.0368
 20
-56.4787
 30
1.24999e-14
  70
    32
  0
VERTEX
  8
0
  5
4D40
 10
-72.0000
 20
-56.4790
 30
1.25000e-14
  70
    32
  0
SEQEND
  8
0
  5
4D41
  0
LINE
  5
4626
  8
0
  6
VERDECKT
 62
     1
 10
73.5000000000005116
 20
-2.3415106819772502
 30
0.0000000000000005
 11
75.0000000000005116
 21
-2.3415106819772582
 31
0.0000000000000005
210
0.0
220
1.0
230
-0.0000000000000002
  0
LINE
  5
4627
  8
0
  6
VERDECKT
 62
     1
 10
-75.0000000000000853
 20
-2.3415106819772649
 30
0.0000000000000005
 11
-73.5000000000000853
 21
-2.3415106819772569
 31
0.0000000000000005
210
0.0
220
1.0
230
-0.0000000000000002
  0
LINE
  5
4628
  8
0
  6
VERDECKT
 62
     1
 10
73.5000000000005116
 20
-4.1011347653238461
 30
0.0000000000000009
 11
75.0000000000004832
 21
-4.1011347653238461
 31
0.0000000000000009
210
0.0
220
1.0
230
-0.0000000000000002
  0
LINE
  5
4629
  8
0
  6
VERDECKT
 62
     1
 10
75.0000000000005116
 20
-2.6031904631919902
 30
0.0000000000000006
 11
73.5000000000005258
 21
-2.6031904631919809
 31
0.0000000000000006
210
0.0
220
1.0
230
-0.0000000000000002
  0
LINE
  5
462A
  8
0
  6
VERDECKT
 62
     1
 10
-75.0000000000000853
 20
-4.1011347653238461
 30
0.0000000000000009
 11
-73.5000000000000853
 21
-4.1011347653238461
 31
0.0000000000000009
210
0.0
220
1.0
230
-0.0000000000000002
  0
LINE
  5
462B
  8
0
  6
VERDECKT
 62
     1
 10
-73.5000000000000853
 20
-2.603190463191988
 30
0.0000000000000006
 11
-75.0000000000000853
 21
-2.6031904631919969
 31
0.0000000000000006
210
0.0
220
1.0
230
-0.0000000000000002
  0
LINE
  5
462C
  8
0
  6
VERDECKT
 62
     1
 10
73.50000000000027
 20
-53.3260797467809411
 30
0.0000000000000118
 11
73.5000000000002132
 21
-22.0301916119539882
 31
0.0000000000000049
210
0.0
220
1.0
230
-0.0000000000000002
  0
LINE
  5
462D
  8
0
  6
VERDECKT
 62
     1
 10
-74.9999999999998437
 20
-53.3260797467809482
 30
0.0000000000000118
 11
-74.9999999999998153
 21
-22.0301916119539882
 31
0.0000000000000049
210
0.0
220
1.0
230
-0.0000000000000002
  0
LINE
  5
462E
  8
0
  6
VERDECKT
 62
     1
 10
75.0000000000002132
 20
-22.0301916119539989
 30
0.0000000000000049
 11
75.0000000000002558
 21
-53.3260797467809624
 31
0.0000000000000118
210
0.0
220
1.0
230
-0.0000000000000002
  0
LINE
  5
462F
  8
0
  6
VERDECKT
 62
     1
 10
-73.4999999999998153
 20
-22.0301916119539882
 30
0.0000000000000049
 11
-73.4999999999998437
 21
-53.3260797467809482
 31
0.0000000000000118
210
0.0
220
1.0
230
-0.0000000000000002
  0
LINE
  5
4630
  8
0
  6
VERDECKT
 62
     1
 10
74.2500000000003411
 20
-3.8263709950471139
 30
0.0000000000000008
 11
74.2500000000003411
 21
-4.1142187543833044
 31
0.0000000000000009
210
0.0
220
1.0
230
-0.0000000000000002
  0
LINE
  5
4631
  8
0
  6
VERDECKT
 62
     1
 10
74.2500000000003411
 20
-4.1142187543832991
 30
0.0000000000000009
 11
74.2500000000003411
 21
-5.5070355578767431
 31
0.0000000000000012
210
0.0
220
1.0
230
-0.0000000000000002
  0
LINE
  5
4632
  8
0
  6
VERDECKT
 62
     1
 10
74.2500000000003411
 20
25.0301944330831887
 30
-0.0000000000000056
 11
74.2500000000003411
 21
23.5322501309513186
 31
-0.0000000000000052
210
0.0
220
1.0
230
-0.0000000000000002
  0
LINE
  5
4633
  8
0
  6
VERDECKT
 62
     1
 10
74.2500000000003411
 20
23.5322501309513186
 30
-0.0000000000000052
 11
74.2500000000003411
 21
22.3416071264243499
 31
-0.000000000000005
210
0.0
220
1.0
230
-0.0000000000000002
  0
LINE
  5
4634
  8
0
  6
VERDECKT
 62
     1
 10
74.2500000000003411
 20
22.3416071264243499
 30
-0.000000000000005
 11
74.2500000000003411
 21
22.0537593670881584
 31
-0.0000000000000049
210
0.0
220
1.0
230
-0.0000000000000002
  0
LINE
  5
4635
  8
0
  6
VERDECKT
 62
     1
 10
74.2500000000003411
 20
22.0537593670881691
 30
-0.0000000000000049
 11
74.2500000000003411
 21
15.7996125960564893
 31
-0.0000000000000035
210
0.0
220
1.0
230
-0.0000000000000002
  0
LINE
  5
4636
  8
0
  6
VERDECKT
 62
     1
 10
74.2500000000003411
 20
15.7996125960564893
 30
-0.0000000000000035
 11
74.2500000000003411
 21
15.5117648367202996
 31
-0.0000000000000034
210
0.0
220
1.0
230
-0.0000000000000002
  0
LINE
  5
4637
  8
0
  6
VERDECKT
 62
     1
 10
74.2500000000003411
 20
15.5117648367202996
 30
-0.0000000000000034
 11
74.2500000000003411
 21
9.2576180656886358
 31
-0.0000000000000021
210
0.0
220
1.0
230
-0.0000000000000002
  0
LINE
  5
4638
  8
0
  6
VERDECKT
 62
     1
 10
74.2500000000003411
 20
9.2576180656886322
 30
-0.0000000000000021
 11
74.2500000000003411
 21
8.9697703063524461
 31
-0.000000000000002
210
0.0
220
1.0
230
-0.0000000000000002
  0
LINE
  5
4639
  8
0
  6
VERDECKT
 62
     1
 10
74.2500000000003411
 20
8.9697703063524461
 30
-0.000000000000002
 11
74.2500000000003411
 21
2.7156235353207521
 31
-0.0000000000000006
210
0.0
220
1.0
230
-0.0000000000000002
  0
LINE
  5
463A
  8
0
  6
VERDECKT
 62
     1
 10
74.2500000000003411
 20
2.715623535320753
 30
-0.0000000000000006
 11
74.2500000000003411
 21
2.4277757759845668
 31
-0.0000000000000005
210
0.0
220
1.0
230
-0.0000000000000002
  0
LINE
  5
463B
  8
0
  6
VERDECKT
 62
     1
 10
74.2500000000003411
 20
2.427775775984566
 30
-0.0000000000000005
 11
74.2500000000003411
 21
-3.8263709950471161
 31
0.0000000000000008
210
0.0
220
1.0
230
-0.0000000000000002
  0
LINE
  5
463C
  8
0
  6
VERDECKT
 62
     1
 10
74.2500000000003411
 20
3.9257200781164281
 30
-0.0000000000000009
 11
73.4999999999999005
 21
3.9257200781164281
 31
-0.0000000000000009
210
0.0
220
1.0
230
-0.0000000000000002
  0
LINE
  5
463D
  8
0
  6
VERDECKT
 62
     1
 10
74.2500000000003411
 20
2.427775775984566
 30
-0.0000000000000005
 11
73.4999999999999005
 21
2.427775775984566
 31
-0.0000000000000005
210
0.0
220
1.0
230
-0.0000000000000002
  0
LINE
  5
463E
  8
0
  6
VERDECKT
 62
     1
 10
74.2500000000003411
 20
10.4677146084843002
 30
-0.0000000000000023
 11
73.5000000000000426
 21
10.4677146084843002
 31
-0.0000000000000023
210
0.0
220
1.0
230
-0.0000000000000002
  0
LINE
  5
463F
  8
0
  6
VERDECKT
 62
     1
 10
74.2500000000003411
 20
8.9697703063524443
 30
-0.000000000000002
 11
73.5000000000000426
 21
8.9697703063524443
 31
-0.000000000000002
210
0.0
220
1.0
230
-0.0000000000000002
  0
LINE
  5
4640
  8
0
  6
VERDECKT
 62
     1
 10
74.2500000000003411
 20
17.0097091388521591
 30
-0.0000000000000038
 11
73.500000000000199
 21
17.0097091388521591
 31
-0.0000000000000038
210
0.0
220
1.0
230
-0.0000000000000002
  0
LINE
  5
4641
  8
0
  6
VERDECKT
 62
     1
 10
74.2500000000003411
 20
15.5117648367202996
 30
-0.0000000000000034
 11
73.500000000000199
 21
15.5117648367202996
 31
-0.0000000000000034
210
0.0
220
1.0
230
-0.0000000000000002
  0
LINE
  5
4642
  8
0
  6
VERDECKT
 62
     1
 10
74.2500000000003411
 20
23.5517036692200286
 30
-0.0000000000000052
 11
73.5000000000003268
 21
23.5517036692200286
 31
-0.0000000000000052
210
0.0
220
1.0
230
-0.0000000000000002
  0
LINE
  5
4643
  8
0
  6
VERDECKT
 62
     1
 10
74.2500000000003411
 20
22.0537593670881584
 30
-0.0000000000000049
 11
73.5000000000003268
 21
22.0537593670881584
 31
-0.0000000000000049
210
0.0
220
1.0
230
-0.0000000000000002
  0
LINE
  5
4644
  8
0
  6
VERDECKT
 62
     1
 10
74.2500000000003411
 20
25.0301944330831816
 30
-0.0000000000000056
 11
2.7500000000000848
 21
25.0301944330831887
 31
-0.0000000000000056
210
0.0
220
1.0
230
-0.0000000000000002
  0
LINE
  5
4645
  8
0
  6
VERDECKT
 62
     1
 10
74.2500000000003411
 20
23.5322501309513186
 30
-0.0000000000000052
 11
73.5883288414589174
 21
23.5322501309513186
 31
-0.0000000000000052
210
0.0
220
1.0
230
-0.0000000000000002
  0
LINE
  5
4646
  8
0
  6
VERDECKT
 62
     1
 10
-74.2839142090593754
 20
22.3416071264243712
 30
-0.000000000000005
 11
-74.2839142090593754
 21
23.5322501309513186
 31
-0.0000000000000052
210
0.0
220
1.0
230
-0.0000000000000002
  0
LINE
  5
4647
  8
0
  6
VERDECKT
 62
     1
 10
-74.2839142090593754
 20
22.3416071264243712
 30
-0.000000000000005
 11
-73.4999999999996305
 21
22.3416071264243605
 31
-0.000000000000005
210
0.0
220
1.0
230
-0.0000000000000002
  0
LINE
  5
4648
  8
0
  6
VERDECKT
 62
     1
 10
-73.4999999999996447
 20
22.0537593670881797
 30
-0.0000000000000049
 11
-74.2839142090593754
 21
22.0537593670881797
 31
-0.0000000000000049
210
0.0
220
1.0
230
-0.0000000000000002
  0
LINE
  5
4649
  8
0
  6
VERDECKT
 62
     1
 10
-74.2839142090593754
 20
15.7996125960564999
 30
-0.0000000000000035
 11
-74.2839142090593754
 21
22.0537593670881797
 31
-0.0000000000000049
210
0.0
220
1.0
230
-0.0000000000000002
  0
LINE
  5
464A
  8
0
  6
VERDECKT
 62
     1
 10
-74.2839142090593754
 20
15.7996125960564999
 30
-0.0000000000000035
 11
-73.4999999999997158
 21
15.7996125960564999
 31
-0.0000000000000035
210
0.0
220
1.0
230
-0.0000000000000002
  0
LINE
  5
464B
  8
0
  6
VERDECKT
 62
     1
 10
-73.4999999999997442
 20
15.5117648367203191
 30
-0.0000000000000034
 11
-74.2839142090593754
 21
15.5117648367203191
 31
-0.0000000000000034
210
0.0
220
1.0
230
-0.0000000000000002
  0
LINE
  5
464C
  8
0
  6
VERDECKT
 62
     1
 10
-74.2839142090593754
 20
9.2576180656886518
 30
-0.0000000000000021
 11
-74.2839142090593754
 21
15.5117648367203191
 31
-0.0000000000000034
210
0.0
220
1.0
230
-0.0000000000000002
  0
LINE
  5
464D
  8
0
  6
VERDECKT
 62
     1
 10
-74.2839142090593754
 20
9.2576180656886482
 30
-0.0000000000000021
 11
-73.4999999999998295
 21
9.2576180656886482
 31
-0.0000000000000021
210
0.0
220
1.0
230
-0.0000000000000002
  0
LINE
  5
464E
  8
0
  6
VERDECKT
 62
     1
 10
-73.4999999999998153
 20
8.9697703063524621
 30
-0.000000000000002
 11
-74.2839142090593754
 21
8.9697703063524621
 31
-0.000000000000002
210
0.0
220
1.0
230
-0.0000000000000002
  0
LINE
  5
464F
  8
0
  6
VERDECKT
 62
     1
 10
-74.2839142090593754
 20
2.7156235353207721
 30
-0.0000000000000006
 11
-74.2839142090593754
 21
8.9697703063524639
 31
-0.000000000000002
210
0.0
220
1.0
230
-0.0000000000000002
  0
LINE
  5
4650
  8
0
  6
VERDECKT
 62
     1
 10
-74.2839142090593754
 20
2.7156235353207698
 30
-0.0000000000000006
 11
-73.4999999999999147
 21
2.7156235353207698
 31
-0.0000000000000006
210
0.0
220
1.0
230
-0.0000000000000002
  0
LINE
  5
4651
  8
0
  6
VERDECKT
 62
     1
 10
-73.4999999999999147
 20
2.4277757759845842
 30
-0.0000000000000005
 11
-74.2839142090593754
 21
2.4277757759845842
 31
-0.0000000000000005
210
0.0
220
1.0
230
-0.0000000000000002
  0
LINE
  5
4652
  8
0
  6
VERDECKT
 62
     1
 10
-74.2839142090593754
 20
-3.826370995047093
 30
0.0000000000000008
 11
-74.2839142090593754
 21
2.427775775984585
 31
-0.0000000000000005
210
0.0
220
1.0
230
-0.0000000000000002
  0
LINE
  5
4653
  8
0
  6
VERDECKT
 62
     1
 10
-74.2839142090593754
 20
-3.826370995047097
 30
0.0000000000000008
 11
-73.4999999999999716
 21
-3.8263709950470992
 31
0.0000000000000008
210
0.0
220
1.0
230
-0.0000000000000002
  0
LINE
  5
4654
  8
0
  6
VERDECKT
 62
     1
 10
-73.4999999999999858
 20
-4.114218754383284
 30
0.0000000000000009
 11
-74.2839142090593754
 21
-4.114218754383284
 31
0.0000000000000009
210
0.0
220
1.0
230
-0.0000000000000002
  0
LINE
  5
4655
  8
0
  6
VERDECKT
 62
     1
 10
-74.2839142090593754
 20
-5.5070355578767272
 30
0.0000000000000012
 11
-74.2839142090593754
 21
-4.1142187543832831
 31
0.0000000000000009
210
0.0
220
1.0
230
-0.0000000000000002
  0
LINE
  5
4656
  8
0
  6
VERDECKT
 62
     1
 10
-74.2839142090593754
 20
-5.5070355578767254
 30
0.0000000000000012
 11
-73.4999999999998863
 21
-5.5070355578767254
 31
0.0000000000000012
210
0.0
220
1.0
230
-0.0000000000000002
  0
LINE
  5
4657
  8
0
  6
VERDECKT
 62
     1
 10
73.5000000000003126
 20
-5.5070355578767423
 30
0.0000000000000012
 11
74.2500000000003411
 21
-5.5070355578767423
 31
0.0000000000000012
210
0.0
220
1.0
230
-0.0000000000000002
  0
LINE
  5
4658
  8
0
  6
VERDECKT
 62
     1
 10
74.2500000000003411
 20
-4.1142187543833018
 30
0.0000000000000009
 11
73.4999999999997158
 21
-4.1142187543833018
 31
0.0000000000000009
210
0.0
220
1.0
230
-0.0000000000000002
  0
LINE
  5
4659
  8
0
  6
VERDECKT
 62
     1
 10
73.4999999999997442
 20
-3.8263709950471161
 30
0.0000000000000008
 11
74.2500000000003411
 21
-3.8263709950471152
 31
0.0000000000000008
210
0.0
220
1.0
230
-0.0000000000000002
  0
LINE
  5
465A
  8
0
  6
VERDECKT
 62
     1
 10
73.4999999999999005
 20
2.7156235353207521
 30
-0.0000000000000006
 11
74.2500000000003411
 21
2.7156235353207521
 31
-0.0000000000000006
210
0.0
220
1.0
230
-0.0000000000000002
  0
LINE
  5
465B
  8
0
  6
VERDECKT
 62
     1
 10
73.5000000000000568
 20
9.2576180656886322
 30
-0.0000000000000021
 11
74.2500000000003411
 21
9.2576180656886322
 31
-0.0000000000000021
210
0.0
220
1.0
230
-0.0000000000000002
  0
LINE
  5
465C
  8
0
  6
VERDECKT
 62
     1
 10
73.500000000000199
 20
15.7996125960564804
 30
-0.0000000000000035
 11
74.2500000000003411
 21
15.7996125960564804
 31
-0.0000000000000035
210
0.0
220
1.0
230
-0.0000000000000002
  0
LINE
  5
465D
  8
0
  6
VERDECKT
 62
     1
 10
73.5000000000003411
 20
22.3416071264243392
 30
-0.000000000000005
 11
74.2500000000003411
 21
22.3416071264243392
 31
-0.000000000000005
210
0.0
220
1.0
230
-0.0000000000000002
  0
LINE
  5
465E
  8
0
  6
VERDECKT
 62
     1
 10
-73.5883288414586048
 20
23.5322501309513186
 30
-0.0000000000000052
 11
-74.2839142090593754
 21
23.5322501309513186
 31
-0.0000000000000052
210
0.0
220
1.0
230
-0.0000000000000002
  0
LINE
  5
465F
  8
0
  6
VERDECKT
 62
     1
 10
74.2500000000003411
 20
-2.616274452251441
 30
0.0000000000000006
 11
73.4999999999997158
 21
-2.616274452251441
 31
0.0000000000000006
210
0.0
220
1.0
230
-0.0000000000000002
  0
LINE
  5
4660
  8
0
  6
VERDECKT
 62
     1
 10
73.4999999999997442
 20
-2.3284266929152539
 30
0.0000000000000005
 11
74.2500000000003411
 21
-2.3284266929152531
 31
0.0000000000000005
210
0.0
220
1.0
230
-0.0000000000000002
  0
LINE
  5
4661
  8
0
  6
VERDECKT
 62
     1
 10
73.4999999999999005
 20
4.2135678374526151
 30
-0.0000000000000009
 11
74.2500000000003411
 21
4.2135678374526151
 31
-0.0000000000000009
210
0.0
220
1.0
230
-0.0000000000000002
  0
LINE
  5
4662
  8
0
  6
VERDECKT
 62
     1
 10
73.5000000000000568
 20
10.7555623678204899
 30
-0.0000000000000024
 11
74.2500000000003411
 21
10.7555623678204899
 31
-0.0000000000000024
210
0.0
220
1.0
230
-0.0000000000000002
  0
LINE
  5
4663
  8
0
  6
VERDECKT
 62
     1
 10
73.500000000000199
 20
17.2975568981883505
 30
-0.0000000000000038
 11
74.2500000000003411
 21
17.2975568981883505
 31
-0.0000000000000038
210
0.0
220
1.0
230
-0.0000000000000002
  0
LINE
  5
4664
  8
0
  6
VERDECKT
 62
     1
 10
73.5000000000003411
 20
23.5322501309513399
 30
-0.0000000000000052
 11
73.5000000000003411
 21
23.8395514285561987
 31
-0.0000000000000053
210
0.0
220
1.0
230
-0.0000000000000002
  0
LINE
  5
4665
  8
0
  6
VERDECKT
 62
     1
 10
73.5000000000003411
 20
23.8395514285562093
 30
-0.0000000000000053
 11
74.2500000000003411
 21
23.8395514285562093
 31
-0.0000000000000053
210
0.0
220
1.0
230
-0.0000000000000002
  0
LINE
  5
4666
  8
0
  6
VERDECKT
 62
     1
 10
-74.2839142090593754
 20
23.5322501309513186
 30
-0.0000000000000052
 11
-74.2839142090593754
 21
25.0301944330831887
 31
-0.0000000000000056
210
0.0
220
1.0
230
-0.0000000000000002
  0
LINE
  5
4667
  8
0
  6
VERDECKT
 62
     1
 10
-2.749999999999909
 20
25.0301944330831887
 30
-0.0000000000000056
 11
-74.2839142090593754
 21
25.0301944330831887
 31
-0.0000000000000056
210
0.0
220
1.0
230
-0.0000000000000002
  0
LINE
  5
4668
  8
0
  6
VERDECKT
 62
     1
 10
-73.4999999999996305
 20
23.5322501309513399
 30
-0.0000000000000052
 11
-73.4999999999996305
 21
23.8395514285562307
 31
-0.0000000000000053
210
0.0
220
1.0
230
-0.0000000000000002
  0
LINE
  5
4669
  8
0
  6
VERDECKT
 62
     1
 10
-74.2839142090593754
 20
22.0537593670881797
 30
-0.0000000000000049
 11
-74.2839142090593754
 21
22.3416071264243712
 31
-0.000000000000005
210
0.0
220
1.0
230
-0.0000000000000002
  0
LINE
  5
466A
  8
0
  6
VERDECKT
 62
     1
 10
-73.4999999999996447
 20
23.5517036692200392
 30
-0.0000000000000052
 11
-74.2839142090593754
 21
23.5517036692200392
 31
-0.0000000000000052
210
0.0
220
1.0
230
-0.0000000000000002
  0
LINE
  5
466B
  8
0
  6
VERDECKT
 62
     1
 10
-74.2839142090593754
 20
15.5117648367203191
 30
-0.0000000000000034
 11
-74.2839142090593754
 21
15.7996125960564999
 31
-0.0000000000000035
210
0.0
220
1.0
230
-0.0000000000000002
  0
LINE
  5
466C
  8
0
  6
VERDECKT
 62
     1
 10
-73.4999999999997442
 20
17.0097091388521804
 30
-0.0000000000000038
 11
-74.2839142090593754
 21
17.0097091388521804
 31
-0.0000000000000038
210
0.0
220
1.0
230
-0.0000000000000002
  0
LINE
  5
466D
  8
0
  6
VERDECKT
 62
     1
 10
-74.2839142090593754
 20
8.9697703063524639
 30
-0.000000000000002
 11
-74.2839142090593754
 21
9.2576180656886482
 31
-0.0000000000000021
210
0.0
220
1.0
230
-0.0000000000000002
  0
LINE
  5
466E
  8
0
  6
VERDECKT
 62
     1
 10
-73.4999999999998153
 20
10.4677146084843198
 30
-0.0000000000000023
 11
-74.2839142090593754
 21
10.4677146084843198
 31
-0.0000000000000023
210
0.0
220
1.0
230
-0.0000000000000002
  0
LINE
  5
466F
  8
0
  6
VERDECKT
 62
     1
 10
-74.2839142090593754
 20
2.427775775984585
 30
-0.0000000000000005
 11
-74.2839142090593754
 21
2.7156235353207698
 31
-0.0000000000000006
210
0.0
220
1.0
230
-0.0000000000000002
  0
LINE
  5
4670
  8
0
  6
VERDECKT
 62
     1
 10
-73.4999999999999147
 20
3.9257200781164441
 30
-0.0000000000000009
 11
-74.2839142090593754
 21
3.9257200781164441
 31
-0.0000000000000009
210
0.0
220
1.0
230
-0.0000000000000002
  0
LINE
  5
4671
  8
0
  6
VERDECKT
 62
     1
 10
-74.2839142090593754
 20
-4.1142187543832858
 30
0.0000000000000009
 11
-74.2839142090593754
 21
-3.8263709950470952
 31
0.0000000000000008
210
0.0
220
1.0
230
-0.0000000000000002
  0
LINE
  5
4672
  8
0
  6
VERDECKT
 62
     1
 10
-73.4999999999999858
 20
-2.6162744522514232
 30
0.0000000000000006
 11
-74.2839142090593754
 21
-2.6162744522514232
 31
0.0000000000000006
210
0.0
220
1.0
230
-0.0000000000000002
  0
LINE
  5
4673
  8
0
  6
VERDECKT
 62
     1
 10
-74.2839142090593754
 20
-4.0090912557448624
 30
0.0000000000000009
 11
74.2500000000003411
 21
-4.0090912557448792
 31
0.0000000000000009
210
0.0
220
1.0
230
-0.0000000000000002
  0
LINE
  5
4674
  8
0
  6
VERDECKT
 62
     1
 10
-74.2839142090593754
 20
-2.3284266929152362
 30
0.0000000000000005
 11
-73.4999999999999716
 21
-2.3284266929152371
 31
0.0000000000000005
210
0.0
220
1.0
230
-0.0000000000000002
  0
LINE
  5
4675
  8
0
  6
VERDECKT
 62
     1
 10
-74.2839142090593754
 20
4.2135678374526311
 30
-0.0000000000000009
 11
-73.4999999999999147
 21
4.2135678374526311
 31
-0.0000000000000009
210
0.0
220
1.0
230
-0.0000000000000002
  0
LINE
  5
4676
  8
0
  6
VERDECKT
 62
     1
 10
-74.2839142090593754
 20
10.7555623678205095
 30
-0.0000000000000024
 11
-73.4999999999998295
 21
10.7555623678205095
 31
-0.0000000000000024
210
0.0
220
1.0
230
-0.0000000000000002
  0
LINE
  5
4677
  8
0
  6
VERDECKT
 62
     1
 10
-74.2839142090593754
 20
17.2975568981883612
 30
-0.0000000000000038
 11
-73.4999999999997158
 21
17.2975568981883612
 31
-0.0000000000000038
210
0.0
220
1.0
230
-0.0000000000000002
  0
LINE
  5
4678
  8
0
  6
VERDECKT
 62
     1
 10
-74.2839142090593754
 20
23.8395514285562307
 30
-0.0000000000000053
 11
-73.4999999999996305
 21
23.8395514285562307
 31
-0.0000000000000053
210
0.0
220
1.0
230
-0.0000000000000002
  0
ENDBLK
  5
467A
  8
0
  0
BLOCK
  8
0
  2
A$C3C9D8204
 70
     0
 10
0.0
 20
0.0
 30
0.0
  3
A$C3C9D8204
  1

  0
LINE
  5
467E
  8
0
  6
CONTINUOUS
 62
     3
 10
24.4684792993549003
 20
22.3285231373636499
 30
-0.000000000000005
 11
1.4999999999997209
 21
23.5322501309513505
 31
-0.0000000000000052
210
0.0000000000000002
220
1.0
230
-0.0000000000000002
  0
LINE
  5
467F
  8
0
  6
CONTINUOUS
 62
     3
 10
24.546983233719299
 20
23.8264674394954987
 30
-0.0000000000000053
 11
24.468479299354879
 21
22.3285231373636393
 31
-0.000000000000005
210
0.0000000000000002
220
1.0
230
-0.0000000000000002
  0
LINE
  5
4680
  8
0
  6
CONTINUOUS
 62
     3
 10
29.4616269731277498
 20
22.0668433561489614
 30
-0.0000000000000049
 11
29.5401309074921592
 21
23.5647876582807712
 31
-0.0000000000000052
210
0.0000000000000002
220
1.0
230
-0.0000000000000002
  0
LINE
  5
4681
  8
0
  6
CONTINUOUS
 62
     3
 10
149.2971711436765929
 20
15.7865286069953896
 30
-0.0000000000000035
 11
29.4616269731277605
 21
22.0668433561489685
 31
-0.0000000000000049
210
0.0000000000000002
220
1.0
230
-0.0000000000000002
  0
LINE
  5
4682
  8
0
  6
CONTINUOUS
 62
     3
 10
149.375675078041013
 20
17.2844729091272811
 30
-0.0000000000000038
 11
149.2971711436765929
 21
15.7865286069953807
 31
-0.0000000000000035
210
0.0000000000000002
220
1.0
230
-0.0000000000000002
  0
LINE
  5
4683
  8
0
  6
CONTINUOUS
 62
     3
 10
154.2903188174495028
 20
15.5248488257806496
 30
-0.0000000000000034
 11
154.3688227518138945
 21
17.0227931279125606
 31
-0.0000000000000038
210
0.0000000000000002
220
1.0
230
-0.0000000000000002
  0
LINE
  5
4684
  8
0
  6
CONTINUOUS
 62
     3
 10
274.1258629879985165
 20
9.2445340766271755
 30
-0.0000000000000021
 11
154.2903188174495028
 21
15.5248488257806496
 31
-0.0000000000000034
210
0.0000000000000002
220
1.0
230
-0.0000000000000002
  0
LINE
  5
4685
  8
0
  6
CONTINUOUS
 62
     3
 10
274.2043669223629081
 20
10.7424783787590599
 30
-0.0000000000000024
 11
274.1258629879985165
 21
9.2445340766271702
 31
-0.0000000000000021
210
0.0000000000000002
220
1.0
230
-0.0000000000000002
  0
LINE
  5
4686
  8
0
  6
CONTINUOUS
 62
     3
 10
279.1190106617713127
 20
8.9828542954124835
 30
-0.000000000000002
 11
279.1975145961357043
 21
10.4807985975443394
 31
-0.0000000000000023
210
0.0000000000000002
220
1.0
230
-0.0000000000000002
  0
LINE
  5
4687
  8
0
  6
CONTINUOUS
 62
     3
 10
398.9545548323201274
 20
2.7025395462589912
 30
-0.0000000000000006
 11
279.1190106617713127
 21
8.9828542954124835
 31
-0.000000000000002
210
0.0000000000000002
220
1.0
230
-0.0000000000000002
  0
LINE
  5
4688
  8
0
  6
CONTINUOUS
 62
     3
 10
399.0330587666845759
 20
4.2004838483908422
 30
-0.0000000000000009
 11
398.9545548323201842
 21
2.7025395462589841
 31
-0.0000000000000006
210
0.0000000000000002
220
1.0
230
-0.0000000000000002
  0
LINE
  5
4689
  8
0
  6
CONTINUOUS
 62
     3
 10
403.9477025060929805
 20
2.4408597650442649
 30
-0.0000000000000005
 11
404.0262064404573721
 21
3.9388040671761222
 31
-0.0000000000000009
210
0.0000000000000002
220
1.0
230
-0.0000000000000002
  0
LINE
  5
468A
  8
0
  6
CONTINUOUS
 62
     3
 10
523.783246676641852
 20
-3.8394549841092358
 30
0.0000000000000009
 11
403.9477025060929236
 21
2.4408597650442649
 31
-0.0000000000000005
210
0.0000000000000002
220
1.0
230
-0.0000000000000002
  0
LINE
  5
468B
  8
0
  6
CONTINUOUS
 62
     3
 10
598.6611192644646735
 20
-53.3260797467811116
 30
0.0000000000000118
 11
555.6047614421855769
 21
-5.5071499063939662
 31
0.0000000000000012
210
0.0000000000000002
220
1.0
230
-0.0000000000000002
  0
LINE
  5
468C
  8
0
  6
CONTINUOUS
 62
     3
 10
598.6611192644646735
 20
-53.3260797467810974
 30
0.0000000000000118
 11
601.4999999999996589
 21
-56.4789762197736422
 31
0.0000000000000125
210
0.0000000000000002
220
1.0
230
-0.0000000000000002
  0
LINE
  5
468D
  8
0
  6
CONTINUOUS
 62
     3
 10
523.8617506110061868
 20
-2.3415106819773901
 30
0.0000000000000005
 11
523.783246676641852
 21
-3.839454984109238
 31
0.0000000000000009
210
0.0000000000000002
220
1.0
230
-0.0000000000000002
  0
LINE
  5
468E
  8
0
  6
CONTINUOUS
 62
     3
 10
528.7763943504146482
 20
-4.101134765323966
 30
0.0000000000000009
 11
528.8548982847792104
 21
-2.6031904631920941
 31
0.0000000000000006
210
0.0000000000000002
220
1.0
230
-0.0000000000000002
  0
LINE
  5
468F
  8
0
  6
CONTINUOUS
 62
     3
 10
555.6047614421855769
 20
-5.5071499063939484
 30
0.0000000000000012
 11
528.7763943504146482
 21
-4.1011347653239589
 31
0.0000000000000009
210
0.0000000000000002
220
1.0
230
-0.0000000000000002
  0
LINE
  5
4690
  8
0
  6
CONTINUOUS
 62
     3
 10
523.8617506110061868
 20
-2.341510681977371
 30
0.0000000000000005
 11
528.8548982847790967
 21
-2.6031904631920999
 31
0.0000000000000006
210
0.0000000000000002
220
1.0
230
-0.0000000000000002
  0
LINE
  5
4691
  8
0
  6
CONTINUOUS
 62
     3
 10
399.033058766684519
 20
4.2004838483908467
 30
-0.0000000000000009
 11
404.0262064404573152
 21
3.9388040671761182
 31
-0.0000000000000009
210
0.0000000000000002
220
1.0
230
-0.0000000000000002
  0
LINE
  5
4692
  8
0
  6
CONTINUOUS
 62
     3
 10
274.2043669223626807
 20
10.7424783787590599
 30
-0.0000000000000024
 11
279.1975145961355906
 21
10.4807985975443305
 31
-0.0000000000000023
210
0.0000000000000002
220
1.0
230
-0.0000000000000002
  0
LINE
  5
4693
  8
0
  6
CONTINUOUS
 62
     3
 10
149.3756750780408993
 20
17.2844729091272704
 30
-0.0000000000000038
 11
154.3688227518138092
 21
17.0227931279125499
 31
-0.0000000000000038
210
0.0000000000000002
220
1.0
230
-0.0000000000000002
  0
LINE
  5
4694
  8
0
  6
CONTINUOUS
 62
     3
 10
601.4999999999996589
 20
-56.478976219773628
 30
0.0000000000000125
 11
1.4999999999996529
 21
-25.0343086499477288
 31
0.0000000000000056
210
0.0000000000000002
220
1.0
230
-0.0000000000000002
  0
LINE
  5
4695
  8
0
  6
CONTINUOUS
 62
     3
 10
24.5469832337192315
 20
23.8264674394954916
 30
-0.0000000000000053
 11
29.5401309074920917
 21
23.5647876582807712
 31
-0.0000000000000052
210
0.0000000000000002
220
1.0
230
-0.0000000000000002
  0
LINE
  5
4696
  8
0
  6
CONTINUOUS
 62
     3
 10
555.6025795425266551
 20
-5.5070355578768666
 30
0.0000000000000012
 11
555.6810834768912173
 21
-4.009091255745008
 31
0.0000000000000009
210
0.0000000000000002
220
1.0
230
-0.0000000000000002
  0
LINE
  5
4697
  8
0
  6
CONTINUOUS
 62
     3
 10
555.6810834768912173
 20
-4.0090912557450054
 30
0.0000000000000009
 11
529.1045556684676967
 21
-2.6162744522515622
 31
0.0000000000000006
210
0.0000000000000002
220
1.0
230
-0.0000000000000002
  0
LINE
  5
4698
  8
0
  6
CONTINUOUS
 62
     3
 10
529.1045556684676967
 20
-2.6162744522515591
 30
0.0000000000000006
 11
529.0260517341032482
 21
-4.1142187543834208
 31
0.0000000000000009
210
0.0000000000000002
220
1.0
230
-0.0000000000000002
  0
LINE
  5
4699
  8
0
  6
CONTINUOUS
 62
     3
 10
1.5785039343637191
 20
25.0301944330831887
 30
-0.0000000000000056
 11
1.4999999999993039
 21
23.5322501309513186
 31
-0.0000000000000052
210
0.0000000000000002
220
1.0
230
-0.0000000000000002
  0
LINE
  5
469A
  8
0
  6
CONTINUOUS
 62
     3
 10
24.2188219156662186
 20
22.3416071264243392
 30
-0.000000000000005
 11
24.2973258500306386
 21
23.8395514285561987
 31
-0.0000000000000053
210
0.0000000000000002
220
1.0
230
-0.0000000000000002
  0
LINE
  5
469B
  8
0
  6
CONTINUOUS
 62
     3
 10
24.2973258500306102
 20
23.8395514285561987
 30
-0.0000000000000053
 11
1.578503934363771
 21
25.0301944330831816
 31
-0.0000000000000056
210
0.0000000000000002
220
1.0
230
-0.0000000000000002
  0
LINE
  5
469C
  8
0
  6
CONTINUOUS
 62
     3
 10
29.7897882911807912
 20
23.5517036692200215
 30
-0.0000000000000052
 11
29.7112843568163782
 21
22.0537593670881513
 31
-0.0000000000000049
210
0.0000000000000002
220
1.0
230
-0.0000000000000002
  0
LINE
  5
469D
  8
0
  6
CONTINUOUS
 62
     3
 10
149.0475137599877939
 20
15.7996125960564502
 30
-0.0000000000000035
 11
149.126017694352214
 21
17.2975568981883185
 31
-0.0000000000000038
210
0.0000000000000002
220
1.0
230
-0.0000000000000002
  0
LINE
  5
469E
  8
0
  6
CONTINUOUS
 62
     3
 10
149.126017694352214
 20
17.2975568981883114
 30
-0.0000000000000038
 11
29.7897882911807699
 21
23.5517036692200108
 31
-0.0000000000000052
210
0.0000000000000002
220
1.0
230
-0.0000000000000002
  0
LINE
  5
469F
  8
0
  6
CONTINUOUS
 62
     3
 10
154.6184801355024092
 20
17.00970913885212
 30
-0.0000000000000038
 11
154.5399762011379892
 21
15.5117648367202605
 31
-0.0000000000000034
210
0.0000000000000002
220
1.0
230
-0.0000000000000002
  0
LINE
  5
46A0
  8
0
  6
CONTINUOUS
 62
     3
 10
273.8762056043094049
 20
9.25761806568857
 30
-0.0000000000000021
 11
273.9547095386737965
 21
10.7555623678204295
 31
-0.0000000000000024
210
0.0000000000000002
220
1.0
230
-0.0000000000000002
  0
LINE
  5
46A1
  8
0
  6
CONTINUOUS
 62
     3
 10
273.9547095386737965
 20
10.7555623678204295
 30
-0.0000000000000024
 11
154.6184801355024092
 21
17.00970913885212
 31
-0.0000000000000038
210
0.0000000000000002
220
1.0
230
-0.0000000000000002
  0
LINE
  5
46A2
  8
0
  6
CONTINUOUS
 62
     3
 10
279.4471719798239064
 20
10.4677146084842398
 30
-0.0000000000000023
 11
279.3686680454595148
 21
8.9697703063523821
 31
-0.000000000000002
210
0.0000000000000002
220
1.0
230
-0.0000000000000002
  0
LINE
  5
46A3
  8
0
  6
CONTINUOUS
 62
     3
 10
398.7048974486313
 20
2.715623535320665
 30
-0.0000000000000006
 11
398.7834013829956916
 21
4.2135678374525254
 31
-0.0000000000000009
210
0.0000000000000002
220
1.0
230
-0.0000000000000002
  0
LINE
  5
46A4
  8
0
  6
CONTINUOUS
 62
     3
 10
398.7834013829956916
 20
4.2135678374525227
 30
-0.0000000000000009
 11
279.4471719798240201
 21
10.4677146084842398
 31
-0.0000000000000023
210
0.0000000000000002
220
1.0
230
-0.0000000000000002
  0
LINE
  5
46A5
  8
0
  6
CONTINUOUS
 62
     3
 10
404.2758638241458016
 20
3.9257200781163379
 30
-0.0000000000000009
 11
404.1973598897815236
 21
2.4277757759844771
 31
-0.0000000000000005
210
0.0000000000000002
220
1.0
230
-0.0000000000000002
  0
LINE
  5
46A6
  8
0
  6
CONTINUOUS
 62
     3
 10
523.5335892929531383
 20
-3.8263709950472329
 30
0.0000000000000008
 11
523.6120932273174731
 21
-2.3284266929153699
 31
0.0000000000000005
210
0.0000000000000002
220
1.0
230
-0.0000000000000002
  0
LINE
  5
46A7
  8
0
  6
CONTINUOUS
 62
     3
 10
523.6120932273174731
 20
-2.3284266929153761
 30
0.0000000000000005
 11
404.2758638241458016
 21
3.9257200781163348
 31
-0.0000000000000009
210
0.0000000000000002
220
1.0
230
-0.0000000000000002
  0
LINE
  5
46A8
  8
0
  6
CONTINUOUS
 62
     3
 10
529.1045556684676967
 20
-2.6162744522515591
 30
0.0000000000000006
 11
528.8548982847792104
 21
-2.603190463190836
 31
0.0000000000000006
210
0.0000000000000002
220
1.0
230
-0.0000000000000002
  0
LINE
  5
46A9
  8
0
  6
CONTINUOUS
 62
     3
 10
523.8617506110061868
 20
-2.3415106819761129
 30
0.0000000000000005
 11
523.6120932273174731
 21
-2.3284266929153712
 31
0.0000000000000005
210
0.0000000000000002
220
1.0
230
-0.0000000000000002
  0
LINE
  5
46AA
  8
0
  6
CONTINUOUS
 62
     3
 10
404.2758638241458016
 20
3.9257200781163379
 30
-0.0000000000000009
 11
404.0262064404574858
 21
3.9388040671770619
 31
-0.0000000000000009
210
0.0000000000000002
220
1.0
230
-0.0000000000000002
  0
LINE
  5
46AB
  8
0
  6
CONTINUOUS
 62
     3
 10
399.0330587666845759
 20
4.200483848391781
 30
-0.0000000000000009
 11
398.7834013829956916
 21
4.2135678374525263
 31
-0.0000000000000009
210
0.0000000000000002
220
1.0
230
-0.0000000000000002
  0
LINE
  5
46AC
  8
0
  6
CONTINUOUS
 62
     3
 10
279.4471719798240201
 20
10.4677146084842398
 30
-0.0000000000000023
 11
279.1975145961357043
 21
10.4807985975449505
 31
-0.0000000000000023
210
0.0000000000000002
220
1.0
230
-0.0000000000000002
  0
LINE
  5
46AD
  8
0
  6
CONTINUOUS
 62
     3
 10
274.2043669223629081
 20
10.7424783787596692
 30
-0.0000000000000024
 11
273.9547095386737965
 21
10.7555623678204295
 31
-0.0000000000000024
210
0.0000000000000002
220
1.0
230
-0.0000000000000002
  0
LINE
  5
46AE
  8
0
  6
CONTINUOUS
 62
     3
 10
154.6184801355024092
 20
17.00970913885212
 30
-0.0000000000000038
 11
154.3688227518138945
 21
17.0227931279128484
 31
-0.0000000000000038
210
0.0000000000000002
220
1.0
230
-0.0000000000000002
  0
LINE
  5
46AF
  8
0
  6
CONTINUOUS
 62
     3
 10
149.375675078041013
 20
17.2844729091275688
 30
-0.0000000000000038
 11
149.126017694352214
 21
17.2975568981883114
 31
-0.0000000000000038
210
0.0000000000000002
220
1.0
230
-0.0000000000000002
  0
LINE
  5
46B0
  8
0
  6
CONTINUOUS
 62
     3
 10
29.7897882911807983
 20
23.5517036692200215
 30
-0.0000000000000052
 11
29.5401309074921485
 21
23.5647876582807498
 31
-0.0000000000000052
210
0.0000000000000002
220
1.0
230
-0.0000000000000002
  0
LINE
  5
46B1
  8
0
  6
CONTINUOUS
 62
     3
 10
24.5469832337192884
 20
23.8264674394954703
 30
-0.0000000000000053
 11
24.2973258500306386
 21
23.8395514285561987
 31
-0.0000000000000053
210
0.0000000000000002
220
1.0
230
-0.0000000000000002
  0
LINE
  5
46B2
  8
0
  6
CONTINUOUS
 62
     3
 10
1.5785039343636591
 20
25.0301944330831887
 30
-0.0000000000000056
 11
1.5000000000000071
 21
25.0343086499481693
 31
-0.0000000000000056
210
0.0000000000000002
220
1.0
230
-0.0000000000000002
  0
LINE
  5
46B3
  8
0
  6
CONTINUOUS
 62
     3
 10
1.5000000000000411
 20
145.0
 30
-0.0000000000000322
 11
0.0000000000000409
 21
145.0
 31
-0.0000000000000322
210
0.0000000000000002
220
1.0
230
-0.0000000000000002
  0
LINE
  5
46B4
  8
0
  6
CONTINUOUS
 62
     3
 10
0.0000000000000351
 20
125.0
 30
-0.0000000000000278
 11
0.0000000000000407
 21
145.0
 31
-0.0000000000000322
210
0.0000000000000002
220
1.0
230
-0.0000000000000002
  0
LINE
  5
46B5
  8
0
  6
CONTINUOUS
 62
     3
 10
1.5000000000000351
 20
125.0
 30
-0.0000000000000278
 11
1.5000000000000411
 21
145.0
 31
-0.0000000000000322
210
0.0000000000000002
220
1.0
230
-0.0000000000000002
  0
LINE
  5
46B6
  8
0
  6
CONTINUOUS
 62
     3
 10
0.0000000000000351
 20
125.0
 30
-0.0000000000000278
 11
-0.0000000000000357
 21
-125.0
 31
0.0000000000000278
210
0.0000000000000002
220
1.0
230
-0.0000000000000002
  0
LINE
  5
46B7
  8
0
  6
CONTINUOUS
 62
     3
 10
1.5000000000000351
 20
125.0
 30
-0.0000000000000278
 11
1.499999999999964
 21
-125.0
 31
0.0000000000000278
210
0.0000000000000002
220
1.0
230
-0.0000000000000002
  0
LINE
  5
46B8
  8
0
  6
CONTINUOUS
 62
     3
 10
-0.0000000000000412
 20
-145.0
 30
0.0000000000000322
 11
-0.0000000000000355
 21
-125.0
 31
0.0000000000000278
210
0.0000000000000002
220
1.0
230
-0.0000000000000002
  0
LINE
  5
46B9
  8
0
  6
CONTINUOUS
 62
     3
 10
1.499999999999958
 20
-145.0
 30
0.0000000000000322
 11
-0.0000000000000413
 21
-145.0
 31
0.0000000000000322
210
0.0000000000000002
220
1.0
230
-0.0000000000000002
  0
LINE
  5
46BA
  8
0
  6
CONTINUOUS
 62
     3
 10
1.499999999999958
 20
-145.0
 30
0.0000000000000322
 11
1.499999999999964
 21
-125.0
 31
0.0000000000000278
210
0.0000000000000002
220
1.0
230
-0.0000000000000002
  0
LINE
  5
46BB
  8
0
  6
VERDECKT
 62
     1
 10
1.499999999999762
 20
-23.5322501309508496
 30
0.0000000000000052
 11
0.0805596322323078
 21
-23.4578604134514492
 31
0.0000000000000052
210
0.0000000000000002
220
1.0
230
-0.0000000000000002
  0
LINE
  5
46BC
  8
0
  6
VERDECKT
 62
     1
 10
0.0020556978678243
 20
-24.9558047155833194
 30
0.0000000000000055
 11
0.0805596322322431
 21
-23.4578604134514599
 31
0.0000000000000052
210
0.0000000000000002
220
1.0
230
-0.0000000000000002
  0
LINE
  5
46BD
  8
0
  6
VERDECKT
 62
     1
 10
1.4999999999997651
 20
-25.0343086499477288
 30
0.0000000000000056
 11
0.0020556978679189
 21
-24.9558047155833194
 31
0.0000000000000055
210
0.0000000000000002
220
1.0
230
-0.0000000000000002
  0
LINE
  5
46BE
  8
0
  6
VERDECKT
 62
     1
 10
1.499999999999716
 20
2.5000000000002811
 30
-0.0000000000000006
 11
0.3190269259772557
 21
2.5000000000002869
 31
-0.0000000000000006
210
0.0000000000000002
220
1.0
230
-0.0000000000000002
  0
LINE
  5
46BF
  8
0
  6
VERDECKT
 62
     1
 10
0.0569880295620627
 20
-2.499999999999702
 30
0.0000000000000006
 11
1.499999999999686
 21
-2.4999999999997038
 31
0.0000000000000006
210
0.0000000000000002
220
1.0
230
-0.0000000000000002
  0
LINE
  5
46C0
  8
0
  6
VERDECKT
 62
     1
 10
0.0569880295620452
 20
-2.4999999999997051
 30
0.0000000000000006
 11
0.3190269259772611
 21
2.500000000000298
 31
-0.0000000000000006
210
0.0000000000000002
220
1.0
230
-0.0000000000000002
  0
LINE
  5
46C1
  8
0
  6
VERDECKT
 62
     1
 10
1.4999999999997089
 20
-23.5322501309508496
 30
0.0000000000000052
 11
600.0805596322320525
 21
-54.9025279832773521
 31
0.0000000000000122
210
0.0000000000000002
220
1.0
230
-0.0000000000000002
  0
LINE
  5
46C2
  8
0
  6
VERDECKT
 62
     1
 10
528.7763943504147619
 20
-4.1011347653226977
 30
0.0000000000000009
 11
523.783246676641852
 21
-3.8394549841079799
 31
0.0000000000000009
210
0.0000000000000002
220
1.0
230
-0.0000000000000002
  0
LINE
  5
46C3
  8
0
  6
VERDECKT
 62
     1
 10
403.9477025060929805
 20
2.4408597650452042
 30
-0.0000000000000005
 11
398.9545548323201842
 21
2.7025395462599189
 31
-0.0000000000000006
210
0.0000000000000002
220
1.0
230
-0.0000000000000002
  0
LINE
  5
46C4
  8
0
  6
VERDECKT
 62
     1
 10
279.1190106617713127
 20
8.9828542954130945
 30
-0.000000000000002
 11
274.1258629879985165
 21
9.2445340766278061
 31
-0.0000000000000021
210
0.0000000000000002
220
1.0
230
-0.0000000000000002
  0
LINE
  5
46C5
  8
0
  6
VERDECKT
 62
     1
 10
154.2903188174495028
 20
15.5248488257809907
 30
-0.0000000000000034
 11
149.2971711436765929
 21
15.7865286069957094
 31
-0.0000000000000035
210
0.0000000000000002
220
1.0
230
-0.0000000000000002
  0
LINE
  5
46C6
  8
0
  6
VERDECKT
 62
     1
 10
29.4616269731277498
 20
22.0668433561488904
 30
-0.0000000000000049
 11
24.4684792993549003
 21
22.3285231373636002
 31
-0.000000000000005
210
0.0000000000000002
220
1.0
230
-0.0000000000000002
  0
LINE
  5
46C7
  8
0
  6
VERDECKT
 62
     1
 10
1.499999999999267
 20
23.5322501309513292
 30
-0.0000000000000052
 11
0.0020556978674208
 21
23.6107540653157386
 31
-0.0000000000000052
210
0.0000000000000002
220
1.0
230
-0.0000000000000002
  0
LINE
  5
46C8
  8
0
  6
VERDECKT
 62
     1
 10
1.5000000000000071
 20
25.0343086499481693
 30
-0.0000000000000056
 11
0.080559632231813
 21
25.1086983674476087
 31
-0.0000000000000056
210
0.0000000000000002
220
1.0
230
-0.0000000000000002
  0
LINE
  5
46C9
  8
0
  6
VERDECKT
 62
     1
 10
0.0020556978674403
 20
23.6107540653157386
 30
-0.0000000000000052
 11
0.0805596322318551
 21
25.1086983674476016
 31
-0.0000000000000056
210
0.0000000000000002
220
1.0
230
-0.0000000000000002
  0
LINE
  5
46CA
  8
0
  6
VERDECKT
 62
     1
 10
1.4999999999999929
 20
-23.9999999999999503
 30
0.0000000000000053
 11
-0.0000000000000071
 21
-23.9999999999999503
 31
0.0000000000000053
210
0.0000000000000002
220
1.0
230
-0.0000000000000002
  0
LINE
  5
46CB
  8
0
  6
VERDECKT
 62
     1
 10
1.499999999999992
 20
-25.4999999999999787
 30
0.0000000000000057
 11
-0.0000000000000074
 21
-25.4999999999999787
 31
0.0000000000000057
210
0.0000000000000002
220
1.0
230
-0.0000000000000002
  0
LINE
  5
46CC
  8
0
  6
VERDECKT
 62
     1
 10
1.5000000000000071
 20
25.5000000000000107
 30
-0.0000000000000057
 11
0.000000000000007
 21
25.5000000000000107
 31
-0.0000000000000057
210
0.0000000000000002
220
1.0
230
-0.0000000000000002
  0
LINE
  5
46CD
  8
0
  6
VERDECKT
 62
     1
 10
1.500000000000006
 20
23.9999999999999787
 30
-0.0000000000000053
 11
0.0000000000000067
 21
23.9999999999999787
 31
-0.0000000000000053
210
0.0000000000000002
220
1.0
230
-0.0000000000000002
  0
LINE
  5
46CE
  8
0
  6
VERDECKT
 62
     1
 10
1.5
 20
2.7500000000000102
 30
-0.0000000000000006
 11
0.0000000000000006
 21
2.7500000000000111
 31
-0.0000000000000006
210
0.0000000000000002
220
1.0
230
-0.0000000000000002
  0
LINE
  5
46CF
  8
0
  6
VERDECKT
 62
     1
 10
1.4999999999999989
 20
-2.7499999999999898
 30
0.0000000000000006
 11
-0.0000000000000011
 21
-2.7499999999999898
 31
0.0000000000000006
210
0.0000000000000002
220
1.0
230
-0.0000000000000002
  0
LINE
  5
46D0
  8
0
  6
VERDECKT
 62
     1
 10
1.500000000000034
 20
121.5
 30
-0.000000000000027
 11
0.0000000000000341
 21
121.5
 31
-0.000000000000027
210
0.0000000000000002
220
1.0
230
-0.0000000000000002
  0
LINE
  5
46D1
  8
0
  6
VERDECKT
 62
     1
 10
1.500000000000036
 20
128.5
 30
-0.0000000000000285
 11
0.0000000000000361
 21
128.5
 31
-0.0000000000000285
210
0.0000000000000002
220
1.0
230
-0.0000000000000002
  0
LINE
  5
46D2
  8
0
  6
VERDECKT
 62
     1
 10
1.4999999999999629
 20
-128.5
 30
0.0000000000000285
 11
-0.0000000000000365
 21
-128.5
 31
0.0000000000000285
210
0.0000000000000002
220
1.0
230
-0.0000000000000002
  0
LINE
  5
46D3
  8
0
  6
VERDECKT
 62
     1
 10
1.4999999999999649
 20
-121.5
 30
0.000000000000027
 11
-0.0000000000000345
 21
-121.5
 31
0.000000000000027
210
0.0000000000000002
220
1.0
230
-0.0000000000000002
  0
ENDBLK
  5
46D5
  8
0
  0
ENDSEC
  0
SECTION
  2
ENTITIES
  0
INSERT
  5
D70
  8
ADSK_ASSOC_ENTITY_BACKUPS
  2
*S0
 10
0.0
 20
0.0
 30
0.0
  0
INSERT
  5
45A0
  8
STEMPEL
  2
A$C4D158D56
 10
0.0
 20
-850.0
 30
0.0
  0
INSERT
  5
467B
  8
STEMPEL
  2
A$C2198A00B
 10
0.0
 20
0.0
 30
0.0
  0
INSERT
  5
46D6
  8
STEMPEL
  2
A$C3C9D8204
 10
-899.9999999999997726
 20
0.0
 30
0.0
  0
VIEWPORT
  5
D51
 67
     1
  8
0
 10
209.7202493551837961
 20
148.2597121477037945
 30
0.0
 40
558.8319832755776133
 41
298.5191815856778135
 68
     1
 69
     1
1001
ACAD
1000
MVIEW
1002
{
1070
    16
1010
0.0
1020
0.0
1030
0.0
1010
0.0
1020
0.0
1030
1.0
1040
0.0
1040
298.5191815856778135
1040
209.7202493551837961
1040
148.2597121477037945
1040
50.0
1040
0.0
1040
0.0
1070
     0
1070
  1500
1070
     1
1070
     1
1070
     0
1070
     0
1070
     0
1070
     0
1040
0.0
1040
0.0
1040
0.0
1040
10.0
1040
10.0
1040
10.0
1040
10.0
1070
     0
1002
{
1002
}
1002
}
  0
ENDSEC
  0
EOF
