  0
SECTION
  2
HEADER
  9
$ACADVER
  1
AC1009
  9
$INSBASE
 10
0.0
 20
0.0
 30
0.0
  9
$EXTMIN
 10
548.4110085396414433
 20
-124.0
 30
-0.000000000000022
  9
$EXTMAX
 10
730.4110085396414433
 20
342.7290477814675
 30
0.000000000000199
  9
$LIMMIN
 10
0.0
 20
0.0
  9
$LIMMAX
 10
210.0
 20
297.0
  9
$ORTHOMODE
 70
     1
  9
$REGENMODE
 70
     1
  9
$FILLMODE
 70
     1
  9
$QTEXTMODE
 70
     0
  9
$MIRRTEXT
 70
     1
  9
$DRAGMODE
 70
     2
  9
$LTSCALE
 40
10.0
  9
$OSMODE
 70
   511
  9
$ATTMODE
 70
     1
  9
$TEXTSIZE
 40
3.5
  9
$TRACEWID
 40
0.5
  9
$TEXTSTYLE
  7
STANDARD
  9
$CLAYER
  8
STEMPEL
  9
$CELTYPE
  6
BYLAYER
  9
$CECOLOR
 62
   256
  9
$DIMSCALE
 40
1.0
  9
$DIMASZ
 40
3.5
  9
$DIMEXO
 40
1.0
  9
$DIMDLI
 40
0.38
  9
$DIMRND
 40
0.0
  9
$DIMDLE
 40
0.0
  9
$DIMEXE
 40
1.0
  9
$DIMTP
 40
0.0
  9
$DIMTM
 40
0.000000001
  9
$DIMTXT
 40
3.5
  9
$DIMCEN
 40
0.09
  9
$DIMTSZ
 40
0.0
  9
$DIMTOL
 70
     0
  9
$DIMLIM
 70
     0
  9
$DIMTIH
 70
     0
  9
$DIMTOH
 70
     0
  9
$DIMSE1
 70
     0
  9
$DIMSE2
 70
     0
  9
$DIMTAD
 70
     1
  9
$DIMZIN
 70
     8
  9
$DIMBLK
  1

  9
$DIMASO
 70
     1
  9
$DIMSHO
 70
     0
  9
$DIMPOST
  1

  9
$DIMAPOST
  1

  9
$DIMALT
 70
     0
  9
$DIMALTD
 70
     2
  9
$DIMALTF
 40
25.3999999999999986
  9
$DIMLFAC
 40
2.0
  9
$DIMTOFL
 70
     1
  9
$DIMTVP
 40
0.0
  9
$DIMTIX
 70
     0
  9
$DIMSOXD
 70
     0
  9
$DIMSAH
 70
     0
  9
$DIMBLK1
  1

  9
$DIMBLK2
  1

  9
$DIMSTYLE
  2
LORO
  9
$DIMCLRD
 70
     0
  9
$DIMCLRE
 70
     0
  9
$DIMCLRT
 70
     1
  9
$DIMTFAC
 40
0.5
  9
$DIMGAP
 40
1.5
  9
$LUNITS
 70
     2
  9
$LUPREC
 70
     2
  9
$SKETCHINC
 40
1.0
  9
$FILLETRAD
 40
12.0
  9
$AUNITS
 70
     0
  9
$AUPREC
 70
     0
  9
$MENU
  1
ACAD
  9
$ELEVATION
 40
0.0
  9
$PELEVATION
 40
0.0
  9
$THICKNESS
 40
0.0
  9
$LIMCHECK
 70
     0
  9
$BLIPMODE
 70
     0
  9
$CHAMFERA
 40
0.0
  9
$CHAMFERB
 40
0.0
  9
$SKPOLY
 70
     0
  9
$TDCREATE
 40
2455397.8646990740671754
  9
$TDUPDATE
 40
2459264.5316203702241182
  9
$TDINDWG
 40
0.4259994444
  9
$TDUSRTIMER
 40
0.4259994444
  9
$USRTIMER
 70
     1
  9
$ANGBASE
 50
0.0
  9
$ANGDIR
 70
     0
  9
$PDMODE
 70
     0
  9
$PDSIZE
 40
0.0
  9
$PLINEWID
 40
0.0
  9
$COORDS
 70
     1
  9
$SPLFRAME
 70
     0
  9
$SPLINETYPE
 70
     6
  9
$SPLINESEGS
 70
     8
  9
$ATTDIA
 70
     1
  9
$ATTREQ
 70
     1
  9
$HANDLING
 70
     1
  9
$HANDSEED
  5
341C
  9
$SURFTAB1
 70
     6
  9
$SURFTAB2
 70
     6
  9
$SURFTYPE
 70
     6
  9
$SURFU
 70
     6
  9
$SURFV
 70
     6
  9
$UCSNAME
  2

  9
$UCSORG
 10
0.0
 20
0.0
 30
0.0
  9
$UCSXDIR
 10
1.0
 20
0.0
 30
0.0
  9
$UCSYDIR
 10
0.0
 20
1.0
 30
0.0
  9
$PUCSNAME
  2

  9
$PUCSORG
 10
0.0
 20
0.0
 30
0.0
  9
$PUCSXDIR
 10
1.0
 20
0.0
 30
0.0
  9
$PUCSYDIR
 10
0.0
 20
1.0
 30
0.0
  9
$USERI1
 70
     0
  9
$USERI2
 70
     0
  9
$USERI3
 70
     0
  9
$USERI4
 70
     0
  9
$USERI5
 70
     0
  9
$USERR1
 40
0.0
  9
$USERR2
 40
0.0
  9
$USERR3
 40
0.0
  9
$USERR4
 40
0.0
  9
$USERR5
 40
0.0
  9
$WORLDVIEW
 70
     1
  9
$SHADEDGE
 70
     3
  9
$SHADEDIF
 70
    70
  9
$TILEMODE
 70
     1
  9
$MAXACTVP
 70
    16
  9
$PLIMCHECK
 70
     0
  9
$PEXTMIN
 10
1.0000000000000000E+20
 20
1.0000000000000000E+20
 30
1.0000000000000000E+20
  9
$PEXTMAX
 10
-1.0000000000000000E+20
 20
-1.0000000000000000E+20
 30
-1.0000000000000000E+20
  9
$PLIMMIN
 10
-3.0195903708718101
 20
-4.2913577858355429
  9
$PLIMMAX
 10
293.9804096291281894
 20
415.7086422141643993
  9
$UNITMODE
 70
     0
  9
$VISRETAIN
 70
     0
  9
$PLINEGEN
 70
     0
  9
$PSLTSCALE
 70
     0
  0
ENDSEC
  0
SECTION
  2
TABLES
  0
TABLE
  2
VPORT
 70
     1
  0
VPORT
  2
*ACTIVE
 70
     0
 10
0.0
 20
0.0
 11
1.0
 21
1.0
 12
-0.3866845862464174
 22
-24.9999933211803409
 13
0.0
 23
0.0
 14
1.0
 24
1.0
 15
10.0
 25
10.0
 16
-0.0000000000002274
 26
0.0
 36
1254.7492235550230362
 17
639.7976931258879176
 27
134.3645172119140057
 37
0.0000000000000886
 40
469.1082952637859194
 41
1.868197278911564
 42
50.0
 43
0.0
 44
0.0
 50
0.0
 51
0.0
 71
     0
 72
  1500
 73
     1
 74
     0
 75
     0
 76
     0
 77
     0
 78
     0
  0
ENDTAB
  0
TABLE
  2
LTYPE
 70
     3
  0
LTYPE
  2
CONTINUOUS
 70
     0
  3
Solid line
 72
    65
 73
     0
 40
0.0
  0
LTYPE
  2
STRICHPUNKT
 70
     0
  3
__ . __ . __ . __ . __ . __ . __ . __ . __ . __
 72
    65
 73
     4
 40
1.0
 49
0.5
 49
-0.25
 49
0.0
 49
-0.25
  0
LTYPE
  2
VERDECKT
 70
     0
  3
Verdeckt __ __ __ __ __ __ __ __ __ __ __ __ __
 72
    65
 73
     2
 40
0.375
 49
0.25
 49
-0.125
  0
ENDTAB
  0
TABLE
  2
LAYER
 70
     6
  0
LAYER
  2
0
 70
     0
 62
     7
  6
CONTINUOUS
  0
LAYER
  2
VOLL
 70
     0
 62
     1
  6
CONTINUOUS
  0
LAYER
  2
STEMPEL
 70
     0
 62
     3
  6
CONTINUOUS
  0
LAYER
  2
DEFPOINTS
 70
     0
 62
     7
  6
CONTINUOUS
  0
LAYER
  2
ADSK_ASSOC_ENTITY_BACKUPS
 70
     1
 62
    -7
  6
CONTINUOUS
  0
ENDTAB
  0
TABLE
  2
STYLE
 70
     3
  0
STYLE
  2
STANDARD
 70
     0
 40
0.0
 41
0.8
 50
0.0
 71
     0
 42
3.5
  3
simplex.shx
  4

  0
STYLE
  2
GREEKS
 70
     0
 40
0.0
 41
0.8
 50
0.0
 71
     0
 42
2.5
  3
SIMPLEX.shx
  4

  0
ENDTAB
  0
TABLE
  2
VIEW
 70
     0
  0
ENDTAB
  0
TABLE
  2
UCS
 70
     0
  0
ENDTAB
  0
TABLE
  2
APPID
 70
    24
  0
APPID
  2
ACAD
 70
     0
  0
APPID
  2
ACAD_NAV_VCDISPLAY
 70
     0
  0
APPID
  2
ACAD_MLEADERVER
 70
     0
  0
APPID
  2
ACAD_EXEMPT_FROM_CAD_STANDARDS
 70
     0
  0
APPID
  2
ACAD_PSEXT
 70
     0
  0
APPID
  2
ACAECLAYERSTANDARD
 70
     0
  0
APPID
  2
ACAUTHENVIRON
 70
     0
  0
APPID
  2
ACCMTRANSPARENCY
 70
     0
  0
APPID
  2
ACAD_STEPID
 70
     0
  0
APPID
  2
ACSYNERGY
 70
     0
  0
APPID
  2
SYNERGY_BODY_TBR_ID
 70
     0
  0
APPID
  2
ACAD_VIEW_EDGE_ID
 70
     0
  0
APPID
  2
ACSYNERGYSKETCH
 70
     0
  0
APPID
  2
ACAD_MODELDOC_XFORM
 70
     0
  0
APPID
  2
ACAD_DSTYLE_DIMJAG
 70
     0
  0
APPID
  2
ACAD_DSTYLE_DIMTALN
 70
     0
  0
APPID
  2
ACADANNOMONITORALERTICONDI
 70
     0
  0
APPID
  2
ACAD_DIMASSOC_CALC_DIMLFAC
 70
     0
  0
APPID
  2
ACAD_DIMASSOC_DIMLFAC
 70
     0
  0
APPID
  2
ACAD_DIMASSOC_OVERRIDDEN_D
 70
     0
  0
APPID
  2
ACAD_DSTYLE_DIMRADIAL_EXTENSION
 70
     0
  0
APPID
  2
ACDBDYNAMICBLOCKGUID
 70
     0
  0
APPID
  2
ACADANNOPO
 70
     0
  0
APPID
  2
ACAD_DSTYLE_DIMBREAK
 70
     0
  0
ENDTAB
  0
TABLE
  2
DIMSTYLE
 70
     2
  0
DIMSTYLE
  2
STANDARD
 70
     0
  3

  4

  5

  6

  7

 40
1.0
 41
0.18
 42
0.0625
 43
0.38
 44
0.18
 45
0.0
 46
0.0
 47
0.0
 48
0.0
140
0.18
141
0.09
142
0.0
143
25.3999999999999986
144
1.0
145
0.0
146
1.0
147
0.09
 71
     0
 72
     0
 73
     1
 74
     1
 75
     0
 76
     0
 77
     0
 78
     0
170
     0
171
     2
172
     0
173
     0
174
     0
175
     0
176
     0
177
     0
178
     0
  0
DIMSTYLE
  2
LORO
 70
     0
  3

  4

  5

  6

  7

 40
1.0
 41
3.5
 42
1.0
 43
0.38
 44
1.0
 45
0.0
 46
0.0
 47
0.0
 48
0.000000001
140
3.5
141
0.09
142
0.0
143
25.3999999999999986
144
2.0
145
0.0
146
0.5
147
1.5
 71
     0
 72
     0
 73
     0
 74
     0
 75
     0
 76
     0
 77
     1
 78
     8
170
     0
171
     2
172
     1
173
     0
174
     0
175
     0
176
     0
177
     0
178
     1
  0
ENDTAB
  0
ENDSEC
  0
SECTION
  2
BLOCKS
  0
BLOCK
  8
0
  2
$MODEL_SPACE
 70
     0
 10
0.0
 20
0.0
 30
0.0
  3
$MODEL_SPACE
  1

  0
ENDBLK
  5
36
  8
0
  0
BLOCK
 67
     1
  8
0
  2
$PAPER_SPACE
 70
     0
 10
0.0
 20
0.0
 30
0.0
  3
$PAPER_SPACE
  1

  0
ENDBLK
  5
34
 67
     1
  8
0
  0
BLOCK
  8
0
  2
*S0
 70
     1
 10
0.0
 20
0.0
 30
0.0
  3
*S0
  1

  0
ENDBLK
  5
C0A
  8
0
  0
BLOCK
  8
0
  2
A$CAC54342D
 70
     0
 10
0.0
 20
0.0
 30
0.0
  3
A$CAC54342D
  1

  0
ARC
  5
337A
  8
0
  6
CONTINUOUS
 62
     3
 10
-722.4110085396414433
 20
68.0000000000001847
 30
0.0
 40
8.0000000000000018
210
0.0
220
-0.0000000000000002
230
-1.0
 50
240.0000000000023022
 51
270.0
  0
ARC
  5
337B
  8
0
  6
CONTINUOUS
 62
     3
 10
-722.4110085396414433
 20
68.0000000000000711
 30
0.0
 40
8.0000000000000568
210
0.0
220
-0.0000000000000002
230
-1.0
 50
180.0
 51
240.0000000000019043
  0
ARC
  5
337C
  8
0
  6
CONTINUOUS
 62
     3
 10
-556.4110085396414433
 20
68.0000000000001847
 30
0.0
 40
8.0000000000000018
210
0.0
220
-0.0000000000000002
230
-1.0
 50
270.0
 51
300.0000000000022169
  0
ARC
  5
337D
  8
0
  6
CONTINUOUS
 62
     3
 10
-556.4110085396414433
 20
68.0000000000000711
 30
0.0
 40
7.9999999999999938
210
0.0
220
-0.0000000000000002
230
-1.0
 50
300.0000000000038085
 51
0.0000000000000572
  0
LINE
  5
337E
  8
0
  6
CONTINUOUS
 62
     3
 10
726.411008539641216
 20
68.0000000000001847
 30
-0.0000000000000151
 11
726.411008539641216
 21
61.071796769724493
 31
-0.0000000000000136
210
0.0
220
1.0
230
-0.0000000000000002
  0
LINE
  5
337F
  8
0
  6
CONTINUOUS
 62
     3
 10
552.4110085396409886
 20
61.071796769724628
 30
-0.0000000000000136
 11
552.4110085396413297
 21
68.0000000000001847
 31
-0.0000000000000151
210
0.0
220
1.0
230
-0.0000000000000002
  0
LINE
  5
3380
  8
0
  6
CONTINUOUS
 62
     3
 10
722.4110085396414433
 20
60.0000000000000711
 30
-0.0000000000000133
 11
556.4110085396414433
 21
60.0000000000000711
 31
-0.0000000000000133
210
0.0
220
1.0
230
-0.0000000000000002
  0
LINE
  5
3381
  8
0
  6
CONTINUOUS
 62
     3
 10
726.411008539641216
 20
68.0000000000001847
 30
-0.0000000000000151
 11
726.411008539641216
 21
99.0000000000001847
 31
-0.000000000000022
210
0.0
220
1.0
230
-0.0000000000000002
  0
LINE
  5
3382
  8
0
  6
CONTINUOUS
 62
     3
 10
552.4110085396406475
 20
68.0000000000001847
 30
-0.0000000000000151
 11
552.4110085396406475
 21
99.0000000000001847
 31
-0.000000000000022
210
0.0
220
1.0
230
-0.0000000000000002
  0
LINE
  5
3383
  8
0
  6
CONTINUOUS
 62
     3
 10
552.4110085396406475
 20
99.0000000000001847
 30
-0.000000000000022
 11
726.4110085396406475
 21
99.0000000000001847
 31
-0.000000000000022
210
0.0
220
1.0
230
-0.0000000000000002
  0
LINE
  5
3384
  8
0
  6
CONTINUOUS
 62
     3
 10
730.4110085396414433
 20
68.0000000000000711
 30
-0.0000000000000151
 11
730.4110085396414433
 21
99.0000000000000853
 31
-0.000000000000022
210
0.0
220
1.0
230
-0.0000000000000002
  0
LINE
  5
3385
  8
0
  6
CONTINUOUS
 62
     3
 10
726.4110085396414433
 20
99.0000000000000853
 30
-0.000000000000022
 11
730.4110085396414433
 21
99.0000000000000853
 31
-0.000000000000022
210
0.0
220
1.0
230
-0.0000000000000002
  0
LINE
  5
3386
  8
0
  6
CONTINUOUS
 62
     3
 10
548.4110085396414433
 20
99.0000000000000853
 30
-0.000000000000022
 11
552.4110085396413297
 21
99.0000000000000853
 31
-0.000000000000022
210
0.0
220
1.0
230
-0.0000000000000002
  0
LINE
  5
3387
  8
0
  6
CONTINUOUS
 62
     3
 10
548.4110085396414433
 20
68.0000000000000711
 30
-0.0000000000000151
 11
548.4110085396414433
 21
99.0000000000000853
 31
-0.000000000000022
210
0.0
220
1.0
230
-0.0000000000000002
  0
ARC
  5
3388
  8
0
  6
CONTINUOUS
 62
     3
 10
-566.7922063861244624
 20
56.0000000000000711
 30
0.0
 40
4.0000000000000027
210
0.0
220
-0.0000000000000002
230
-1.0
 50
89.9999999999998721
 51
149.999999999999801
  0
LINE
  5
3389
  8
0
  6
CONTINUOUS
 62
     3
 10
570.2563080012622549
 20
58.0000000000001279
 30
-0.0000000000000129
 11
574.8751101547791222
 21
50.0000000000001776
 31
-0.0000000000000111
210
0.0
220
1.0
230
-0.0000000000000002
  0
ARC
  5
338A
  8
0
  6
CONTINUOUS
 62
     3
 10
581.8033133850548211
 20
54.0000000000001208
 30
-0.000000000000012
 40
8.0000000000000249
 50
209.9999999999992895
 51
269.9999999999994884
  0
ARC
  5
338B
  8
0
  6
CONTINUOUS
 62
     3
 10
697.018703694228293
 20
53.9999999999999005
 30
-0.000000000000012
 40
7.9999999999998286
 50
270.0
 51
330.0000000000019895
  0
LINE
  5
338C
  8
0
  6
CONTINUOUS
 62
     3
 10
703.9469069245036508
 20
50.0000000000000711
 30
-0.0000000000000111
 11
708.5657090780206318
 21
58.0000000000000071
 31
-0.0000000000000129
210
0.0
220
1.0
230
-0.0000000000000002
  0
ARC
  5
338D
  8
0
  6
CONTINUOUS
 62
     3
 10
-712.0298106931583106
 20
56.0000000000000711
 30
0.0
 40
4.0
210
0.0
220
-0.0000000000000002
230
-1.0
 50
30.0000000000000107
 51
90.0000000000000284
  0
LINE
  5
338E
  8
0
  6
CONTINUOUS
 62
     3
 10
581.8033133850547074
 20
46.0000000000001208
 30
-0.0000000000000102
 11
697.0187036942281793
 21
46.0000000000000497
 31
-0.0000000000000102
210
0.0
220
1.0
230
-0.0000000000000002
  0
LINE
  5
338F
  8
0
  6
CONTINUOUS
 62
     3
 10
589.2858951749007019
 20
-73.9999999999999858
 30
0.0000000000000164
 11
689.5361219043820711
 21
-73.9999999999999858
 31
0.0000000000000164
210
0.0
220
1.0
230
-0.0000000000000002
  0
LINE
  5
3390
  8
0
  6
CONTINUOUS
 62
     3
 10
690.4110085396414433
 20
46.0000000000000568
 30
-0.0000000000000102
 11
690.4110085396414433
 21
-63.4760686850977009
 31
0.0000000000000141
210
0.0
220
1.0
230
-0.0000000000000002
  0
LINE
  5
3391
  8
0
  6
CONTINUOUS
 62
     3
 10
588.4110085396414433
 20
46.0000000000000568
 30
-0.0000000000000102
 11
588.4110085396414433
 21
-63.4760686850977009
 31
0.0000000000000141
210
0.0
220
1.0
230
-0.0000000000000002
  0
ARC
  5
3392
  8
0
  6
CONTINUOUS
 62
     3
 10
-600.4110085396348495
 20
-63.4760686850981415
 30
0.0
 40
11.9999999999934008
210
0.0
220
-0.0000000000000002
230
-1.0
 50
354.9999999999993179
 51
0.0000000000021119
  0
ARC
  5
3393
  8
0
  6
CONTINUOUS
 62
     3
 10
-678.4110085396480372
 20
-63.4760686850981415
 30
0.0
 40
11.9999999999934008
210
0.0
220
-0.0000000000000002
230
-1.0
 50
179.9999999999978115
 51
185.0000000000005969
  0
LINE
  5
3394
  8
0
  6
CONTINUOUS
 62
     3
 10
589.2858951749007019
 20
-73.9999999999999858
 30
0.0000000000000164
 11
588.4566721625404853
 21
-64.5219375980696128
 31
0.0000000000000143
210
0.0
220
1.0
230
-0.0000000000000002
  0
LINE
  5
3395
  8
0
  6
CONTINUOUS
 62
     3
 10
689.5361219043820711
 20
-73.9999999999999858
 30
0.0000000000000164
 11
690.3653449167424014
 21
-64.5219375980696128
 31
0.0000000000000143
210
0.0
220
1.0
230
-0.0000000000000002
  0
ARC
  5
3396
  8
0
  6
VERDECKT
 62
     1
 10
556.4110085396413297
 20
68.0000000000001847
 30
-0.0000000000000151
 40
4.0
 50
180.0000000000015064
 51
270.0
  0
ARC
  5
3397
  8
0
  6
VERDECKT
 62
     1
 10
722.4110085396414433
 20
68.0000000000001847
 30
-0.0000000000000151
 40
4.0
 50
270.0
 51
359.9999999999984084
  0
LINE
  5
3398
  8
0
  6
VERDECKT
 62
     1
 10
722.4110085396414433
 20
64.0000000000000711
 30
-0.0000000000000142
 11
556.4110085396413297
 21
64.0000000000000853
 31
-0.0000000000000142
210
0.0
220
1.0
230
-0.0000000000000002
  0
ARC
  5
3399
  8
0
  6
VERDECKT
 62
     1
 10
-566.7922063861241213
 20
56.0000000000000071
 30
0.0
 40
8.0000000000000568
210
0.0
220
-0.0000000000000002
230
-1.0
 50
90.0
 51
150.0000000000005116
  0
ARC
  5
339A
  8
0
  6
VERDECKT
 62
     1
 10
712.0298106931584243
 20
56.0000000000000711
 30
-0.0000000000000124
 40
8.0
 50
90.0
 51
149.9999999999969873
  0
LINE
  5
339B
  8
0
  6
VERDECKT
 62
     1
 10
578.3392117699162327
 20
52.0000000000002984
 30
-0.0000000000000115
 11
573.7204096163995928
 21
59.9999999999999574
 31
-0.0000000000000133
210
0.0
220
1.0
230
-0.0000000000000002
  0
ARC
  5
339C
  8
0
  6
VERDECKT
 62
     1
 10
581.8033133850542526
 20
54.0000000000002984
 30
-0.000000000000012
 40
4.0000000000001696
 50
209.9999999999996874
 51
269.9999999999984084
  0
ARC
  5
339D
  8
0
  6
VERDECKT
 62
     1
 10
697.0187036942279519
 20
54.0000000000000711
 30
-0.000000000000012
 40
3.9999999999999098
 50
269.99999999999892
 51
329.9999999999993747
  0
LINE
  5
339E
  8
0
  6
VERDECKT
 62
     1
 10
697.0187036942279519
 20
50.0000000000001279
 30
-0.0000000000000111
 11
581.803313385054139
 21
50.0000000000001421
 31
-0.0000000000000111
210
0.0
220
1.0
230
-0.0000000000000002
  0
LINE
  5
339F
  8
0
  6
VERDECKT
 62
     1
 10
705.1016074628829529
 20
60.0000000000004121
 30
-0.0000000000000133
 11
700.4828053093656308
 21
52.0000000000000711
 31
-0.0000000000000115
210
0.0
220
1.0
230
-0.0000000000000002
  0
LINE
  5
33A0
  8
0
  6
VERDECKT
 62
     1
 10
590.4110085396414433
 20
46.0000000000001776
 30
-0.0000000000000102
 11
590.4110085396414433
 21
50.0000000000002416
 31
-0.0000000000000111
210
0.0
220
1.0
230
-0.0000000000000002
  0
LINE
  5
33A1
  8
0
  6
VERDECKT
 62
     1
 10
688.4110085396414433
 20
46.0000000000000426
 30
-0.0000000000000102
 11
688.4110085396414433
 21
50.0000000000001279
 31
-0.0000000000000111
210
0.0
220
1.0
230
-0.0000000000000002
  0
LINE
  5
33A2
  8
0
  6
VERDECKT
 62
     1
 10
591.2782845710842139
 20
-73.8256885145046766
 30
0.0000000000000164
 11
687.5437325081985591
 21
-73.8256885145046766
 31
0.0000000000000164
210
0.0
220
1.0
230
-0.0000000000000002
  0
LINE
  5
33A3
  8
0
  6
VERDECKT
 62
     1
 10
687.5437325081985591
 20
-73.8256885145046766
 30
0.0000000000000164
 11
689.5361219043820711
 21
-73.9999999999999858
 31
0.0000000000000164
210
0.0
220
1.0
230
-0.0000000000000002
  0
LINE
  5
33A4
  8
0
  6
VERDECKT
 62
     1
 10
591.2782845710842139
 20
-73.8256885145046766
 30
0.0000000000000164
 11
589.2858951749007019
 21
-73.9999999999999858
 31
0.0000000000000164
210
0.0
220
1.0
230
-0.0000000000000002
  0
LINE
  5
33A5
  8
0
  6
VERDECKT
 62
     1
 10
591.2782845710842139
 20
-73.8256885145046766
 30
0.0000000000000164
 11
590.4490615587238835
 21
-64.3476261125743036
 31
0.0000000000000143
210
0.0
220
1.0
230
-0.0000000000000002
  0
LINE
  5
33A6
  8
0
  6
VERDECKT
 62
     1
 10
687.5437325081985591
 20
-73.8256885145046766
 30
0.0000000000000164
 11
688.3729555205587758
 21
-64.3476261125743036
 31
0.0000000000000143
210
0.0
220
1.0
230
-0.0000000000000002
  0
ARC
  5
33A7
  8
0
  6
VERDECKT
 62
     1
 10
-600.4110085396262093
 20
-63.4760686850982765
 30
0.0
 40
9.9999999999847642
210
0.0
220
-0.0000000000000002
230
-1.0
 50
354.9999999999955094
 51
0.0000000000032951
  0
ARC
  5
33A8
  8
0
  6
VERDECKT
 62
     1
 10
-678.4110085396566774
 20
-63.4760686850982765
 30
0.0
 40
9.9999999999847642
210
0.0
220
-0.0000000000000002
230
-1.0
 50
179.9999999999967031
 51
185.0000000000044054
  0
LINE
  5
33A9
  8
0
  6
VERDECKT
 62
     1
 10
688.4110085396414433
 20
46.0000000000000568
 30
-0.0000000000000102
 11
688.4110085396414433
 21
-63.4760686850977009
 31
0.0000000000000141
210
0.0
220
1.0
230
-0.0000000000000002
  0
LINE
  5
33AA
  8
0
  6
VERDECKT
 62
     1
 10
590.4110085396414433
 20
46.0000000000000568
 30
-0.0000000000000102
 11
590.4110085396414433
 21
-63.4760686850977009
 31
0.0000000000000141
210
0.0
220
1.0
230
-0.0000000000000002
  0
ENDBLK
  5
33AC
  8
0
  0
BLOCK
  8
0
  2
A$C87FEBD74
 70
     0
 10
0.0
 20
0.0
 30
0.0
  3
A$C87FEBD74
  1

  0
LINE
  5
33B0
  8
0
  6
CONTINUOUS
 62
     3
 10
552.411008539641216
 20
342.7290477814672158
 30
0.0000000000001421
 11
552.411008539641216
 21
338.7290477814672158
 31
0.0000000000001421
  0
LINE
  5
33B1
  8
0
  6
CONTINUOUS
 62
     3
 10
726.411008539641216
 20
338.7290477814675
 30
0.0000000000001847
 11
726.411008539641216
 21
342.7290477814675
 31
0.0000000000001847
  0
LINE
  5
33B2
  8
0
  6
CONTINUOUS
 62
     3
 10
726.4110085396406475
 20
160.7290477814673864
 30
0.0000000000001847
 11
726.4110085396406475
 21
164.7290477814671874
 31
0.0000000000001847
  0
LINE
  5
33B3
  8
0
  6
CONTINUOUS
 62
     3
 10
556.4110085396414433
 20
334.7290477814672158
 30
0.0000000000001421
 11
552.4110085396414433
 21
338.7290477814672158
 31
0.0000000000001421
  0
LINE
  5
33B4
  8
0
  6
CONTINUOUS
 62
     3
 10
726.4110085396414433
 20
338.7290477814672158
 30
0.0000000000001847
 11
722.4110085396414433
 21
334.7290477814672158
 31
0.0000000000001918
  0
LINE
  5
33B5
  8
0
  6
CONTINUOUS
 62
     3
 10
552.4110085396407612
 20
164.7290477814673864
 30
0.0000000000001421
 11
552.4110085396406475
 21
160.7290477814673864
 31
0.0000000000001421
  0
LINE
  5
33B6
  8
0
  6
CONTINUOUS
 62
     3
 10
552.4110085396413297
 20
164.7290477814671874
 30
0.0000000000001421
 11
556.4110085396413297
 21
168.7290477814671874
 31
0.0000000000001421
  0
LINE
  5
33B7
  8
0
  6
CONTINUOUS
 62
     3
 10
722.4110085396414433
 20
168.7290477814671874
 30
0.0000000000001918
 11
726.4110085396414433
 21
164.7290477814671874
 31
0.0000000000001847
  0
LINE
  5
33B8
  8
0
  6
CONTINUOUS
 62
     3
 10
726.4110085396409886
 20
164.7290477814671874
 30
0.0000000000001847
 11
552.4110085396411023
 21
164.7290477814671874
 31
0.000000000000139
  0
LINE
  5
33B9
  8
0
  6
CONTINUOUS
 62
     3
 10
552.411008539641216
 20
338.7290477814672158
 30
0.0000000000001421
 11
726.411008539641216
 21
338.7290477814673864
 31
0.0000000000001878
  0
LINE
  5
33BA
  8
0
  6
CONTINUOUS
 62
     3
 10
726.411008539641216
 20
342.7290477814675
 30
0.0000000000001847
 11
552.411008539641216
 21
342.7290477814672727
 31
0.000000000000139
  0
LINE
  5
33BB
  8
0
  6
CONTINUOUS
 62
     3
 10
552.4110085396406475
 20
160.7290477814673864
 30
0.0000000000001421
 11
726.4110085396406475
 21
160.7290477814673864
 31
0.0000000000001878
  0
LINE
  5
33BC
  8
0
  6
CONTINUOUS
 62
     3
 10
726.4110085396414433
 20
164.7290477814673864
 30
0.0000000000001847
 11
730.4110085396414433
 21
164.7290477814673864
 31
0.0000000000001858
  0
LINE
  5
33BD
  8
0
  6
CONTINUOUS
 62
     3
 10
548.4110085396414433
 20
164.7290477814678979
 30
0.0000000000001421
 11
552.4110085396413297
 21
164.7290477814678979
 31
0.0000000000001432
  0
LINE
  5
33BE
  8
0
  6
CONTINUOUS
 62
     3
 10
730.4110085396414433
 20
338.7290477814675
 30
0.000000000000199
 11
726.4110085396414433
 21
338.7290477814675
 31
0.0000000000001979
  0
LINE
  5
33BF
  8
0
  6
CONTINUOUS
 62
     3
 10
552.4110085396414433
 20
338.7290477814678979
 30
0.0000000000001421
 11
548.4110085396414433
 21
338.7290477814678979
 31
0.0000000000001411
  0
LINE
  5
33C0
  8
0
  6
CONTINUOUS
 62
     3
 10
552.4110085396413297
 20
164.7290477814673864
 30
0.0000000000001421
 11
552.4110085396413297
 21
338.7290477814675
 31
0.0000000000001421
  0
LINE
  5
33C1
  8
0
  6
CONTINUOUS
 62
     3
 10
726.4110085396414433
 20
338.7290477814675
 30
0.0000000000001847
 11
726.4110085396414433
 21
164.7290477814673864
 31
0.0000000000001847
  0
ARC
  5
33C2
  8
0
  6
CONTINUOUS
 62
     3
 10
639.4110085396414433
 20
251.7290477814673864
 30
0.0000000000001705
 40
48.9999999999997726
 50
179.9999999999998863
 51
90.0
  0
ARC
  5
33C3
  8
0
  6
CONTINUOUS
 62
     3
 10
639.411008539641216
 20
251.7290477814673864
 30
0.0000000000001705
 40
48.9999999999997726
 50
89.9999999999997158
 51
180.0
  0
LINE
  5
33C4
  8
0
  6
CONTINUOUS
 62
     3
 10
730.4110085396414433
 20
164.7290477814673864
 30
0.000000000000199
 11
730.4110085396413297
 21
338.7290477814675
 31
0.000000000000199
  0
LINE
  5
33C5
  8
0
  6
CONTINUOUS
 62
     3
 10
548.4110085396414433
 20
338.7290477814678979
 30
0.0000000000001421
 11
548.4110085396414433
 21
164.7290477814678979
 31
0.0000000000001421
  0
CIRCLE
  5
33C6
  8
0
  6
CONTINUOUS
 62
     3
 10
639.4110085396414433
 20
251.7290477814671021
 30
0.0000000000001705
 40
48.1327239685572223
  0
CIRCLE
  5
33C7
  8
0
  6
VERDECKT
 62
     1
 10
639.4110085396414433
 20
251.7290477814671874
 30
0.0000000000001705
 40
51.0
  0
CIRCLE
  5
33C8
  8
0
  6
VERDECKT
 62
     1
 10
639.4110085396414433
 20
251.7290477814671021
 30
0.0000000000001705
 40
50.1251133647407414
  0
ENDBLK
  5
33CA
  8
0
  0
ENDSEC
  0
SECTION
  2
ENTITIES
  0
TEXT
  5
8F
  8
VOLL
 10
78.076754716981128
 20
31.025947764705851
 30
0.0
 40
1.8
  1

  7
GREEKS
  0
INSERT
  5
C0C
  8
ADSK_ASSOC_ENTITY_BACKUPS
  2
*S0
 10
0.0
 20
0.0
 30
0.0
  0
INSERT
  5
33AD
  8
STEMPEL
  2
A$CAC54342D
 10
0.0
 20
-50.0
 30
0.0
  0
INSERT
  5
33CB
  8
STEMPEL
  2
A$C87FEBD74
 10
0.0
 20
0.0
 30
0.0
  0
VIEWPORT
  5
928
 67
     1
  8
0
 10
145.4804096291281894
 20
205.708642214164513
 30
0.0
 40
788.6427357689041173
 41
422.141036533559884
 68
     1
 69
     1
1001
ACAD
1000
MVIEW
1002
{
1070
    16
1010
0.0
1020
0.0
1030
0.0
1010
0.0
1020
0.0
1030
1.0
1040
0.0
1040
422.141036533559884
1040
145.4804096291281894
1040
205.708642214164513
1040
50.0
1040
0.0
1040
0.0
1070
     0
1070
  1500
1070
     1
1070
     1
1070
     0
1070
     0
1070
     0
1070
     0
1040
0.0
1040
0.0
1040
0.0
1040
10.0
1040
10.0
1040
10.0
1040
10.0
1070
     0
1002
{
1002
}
1002
}
  0
ENDSEC
  0
EOF
