  0
SECTION
  2
HEADER
  9
$ACADVER
  1
AC1009
  9
$INSBASE
 10
0.0
 20
0.0
 30
0.0
  9
$EXTMIN
 10
538.9110085396414433
 20
-124.0
 30
-0.0000000000000175
  9
$EXTMAX
 10
739.911008539641216
 20
352.2290477814668748
 30
0.0000000000001911
  9
$LIMMIN
 10
0.0
 20
0.0
  9
$LIMMAX
 10
210.0
 20
297.0
  9
$ORTHOMODE
 70
     1
  9
$REGENMODE
 70
     1
  9
$FILLMODE
 70
     1
  9
$QTEXTMODE
 70
     0
  9
$MIRRTEXT
 70
     1
  9
$DRAGMODE
 70
     2
  9
$LTSCALE
 40
10.0
  9
$OSMODE
 70
   511
  9
$ATTMODE
 70
     1
  9
$TEXTSIZE
 40
3.5
  9
$TRACEWID
 40
0.5
  9
$TEXTSTYLE
  7
STANDARD
  9
$CLAYER
  8
STEMPEL
  9
$CELTYPE
  6
BYLAYER
  9
$CECOLOR
 62
   256
  9
$DIMSCALE
 40
1.0
  9
$DIMASZ
 40
3.5
  9
$DIMEXO
 40
1.0
  9
$DIMDLI
 40
0.38
  9
$DIMRND
 40
0.0
  9
$DIMDLE
 40
0.0
  9
$DIMEXE
 40
1.0
  9
$DIMTP
 40
0.0
  9
$DIMTM
 40
0.000000001
  9
$DIMTXT
 40
3.5
  9
$DIMCEN
 40
0.09
  9
$DIMTSZ
 40
0.0
  9
$DIMTOL
 70
     0
  9
$DIMLIM
 70
     0
  9
$DIMTIH
 70
     0
  9
$DIMTOH
 70
     0
  9
$DIMSE1
 70
     0
  9
$DIMSE2
 70
     0
  9
$DIMTAD
 70
     1
  9
$DIMZIN
 70
     8
  9
$DIMBLK
  1

  9
$DIMASO
 70
     1
  9
$DIMSHO
 70
     0
  9
$DIMPOST
  1

  9
$DIMAPOST
  1

  9
$DIMALT
 70
     0
  9
$DIMALTD
 70
     2
  9
$DIMALTF
 40
25.3999999999999986
  9
$DIMLFAC
 40
2.0
  9
$DIMTOFL
 70
     1
  9
$DIMTVP
 40
0.0
  9
$DIMTIX
 70
     0
  9
$DIMSOXD
 70
     0
  9
$DIMSAH
 70
     0
  9
$DIMBLK1
  1

  9
$DIMBLK2
  1

  9
$DIMSTYLE
  2
LORO
  9
$DIMCLRD
 70
     0
  9
$DIMCLRE
 70
     0
  9
$DIMCLRT
 70
     1
  9
$DIMTFAC
 40
0.5
  9
$DIMGAP
 40
1.5
  9
$LUNITS
 70
     2
  9
$LUPREC
 70
     2
  9
$SKETCHINC
 40
1.0
  9
$FILLETRAD
 40
12.0
  9
$AUNITS
 70
     0
  9
$AUPREC
 70
     0
  9
$MENU
  1
ACAD
  9
$ELEVATION
 40
0.0
  9
$PELEVATION
 40
0.0
  9
$THICKNESS
 40
0.0
  9
$LIMCHECK
 70
     0
  9
$BLIPMODE
 70
     0
  9
$CHAMFERA
 40
0.0
  9
$CHAMFERB
 40
0.0
  9
$SKPOLY
 70
     0
  9
$TDCREATE
 40
2455397.8646990740671754
  9
$TDUPDATE
 40
2459264.5322569450363517
  9
$TDINDWG
 40
0.2728744444
  9
$TDUSRTIMER
 40
0.2728744444
  9
$USRTIMER
 70
     1
  9
$ANGBASE
 50
0.0
  9
$ANGDIR
 70
     0
  9
$PDMODE
 70
     0
  9
$PDSIZE
 40
0.0
  9
$PLINEWID
 40
0.0
  9
$COORDS
 70
     1
  9
$SPLFRAME
 70
     0
  9
$SPLINETYPE
 70
     6
  9
$SPLINESEGS
 70
     8
  9
$ATTDIA
 70
     1
  9
$ATTREQ
 70
     1
  9
$HANDLING
 70
     1
  9
$HANDSEED
  5
2360
  9
$SURFTAB1
 70
     6
  9
$SURFTAB2
 70
     6
  9
$SURFTYPE
 70
     6
  9
$SURFU
 70
     6
  9
$SURFV
 70
     6
  9
$UCSNAME
  2

  9
$UCSORG
 10
0.0
 20
0.0
 30
0.0
  9
$UCSXDIR
 10
1.0
 20
0.0
 30
0.0
  9
$UCSYDIR
 10
0.0
 20
1.0
 30
0.0
  9
$PUCSNAME
  2

  9
$PUCSORG
 10
0.0
 20
0.0
 30
0.0
  9
$PUCSXDIR
 10
1.0
 20
0.0
 30
0.0
  9
$PUCSYDIR
 10
0.0
 20
1.0
 30
0.0
  9
$USERI1
 70
     0
  9
$USERI2
 70
     0
  9
$USERI3
 70
     0
  9
$USERI4
 70
     0
  9
$USERI5
 70
     0
  9
$USERR1
 40
0.0
  9
$USERR2
 40
0.0
  9
$USERR3
 40
0.0
  9
$USERR4
 40
0.0
  9
$USERR5
 40
0.0
  9
$WORLDVIEW
 70
     1
  9
$SHADEDGE
 70
     3
  9
$SHADEDIF
 70
    70
  9
$TILEMODE
 70
     1
  9
$MAXACTVP
 70
    16
  9
$PLIMCHECK
 70
     0
  9
$PEXTMIN
 10
1.0000000000000000E+20
 20
1.0000000000000000E+20
 30
1.0000000000000000E+20
  9
$PEXTMAX
 10
-1.0000000000000000E+20
 20
-1.0000000000000000E+20
 30
-1.0000000000000000E+20
  9
$PLIMMIN
 10
-3.0084202437650438
 20
-4.2808435022640188
  9
$PLIMMAX
 10
293.9915797562348985
 20
415.7191564977359803
  9
$UNITMODE
 70
     0
  9
$VISRETAIN
 70
     0
  9
$PLINEGEN
 70
     0
  9
$PSLTSCALE
 70
     0
  0
ENDSEC
  0
SECTION
  2
TABLES
  0
TABLE
  2
VPORT
 70
     1
  0
VPORT
  2
*ACTIVE
 70
     0
 10
0.0
 20
0.0
 11
1.0
 21
1.0
 12
-0.0000022025461703
 22
-24.9999933211806287
 13
0.0
 23
0.0
 14
1.0
 24
1.0
 15
10.0
 25
10.0
 16
-0.0000000000003411
 26
0.0
 36
1321.4720647211540836
 17
639.4110107421875
 27
139.1145172119140057
 37
0.0000000000000868
 40
478.6567234710919934
 41
1.868197278911564
 42
50.0
 43
0.0
 44
0.0
 50
0.0
 51
0.0
 71
     0
 72
  1500
 73
     1
 74
     0
 75
     0
 76
     0
 77
     0
 78
     0
  0
ENDTAB
  0
TABLE
  2
LTYPE
 70
     3
  0
LTYPE
  2
CONTINUOUS
 70
     0
  3
Solid line
 72
    65
 73
     0
 40
0.0
  0
LTYPE
  2
STRICHPUNKT
 70
     0
  3
__ . __ . __ . __ . __ . __ . __ . __ . __ . __
 72
    65
 73
     4
 40
1.0
 49
0.5
 49
-0.25
 49
0.0
 49
-0.25
  0
LTYPE
  2
VERDECKT
 70
     0
  3
Verdeckt __ __ __ __ __ __ __ __ __ __ __ __ __
 72
    65
 73
     2
 40
0.375
 49
0.25
 49
-0.125
  0
ENDTAB
  0
TABLE
  2
LAYER
 70
     6
  0
LAYER
  2
0
 70
     0
 62
     7
  6
CONTINUOUS
  0
LAYER
  2
VOLL
 70
     0
 62
     1
  6
CONTINUOUS
  0
LAYER
  2
STEMPEL
 70
     0
 62
     3
  6
CONTINUOUS
  0
LAYER
  2
DEFPOINTS
 70
     0
 62
     7
  6
CONTINUOUS
  0
LAYER
  2
ADSK_ASSOC_ENTITY_BACKUPS
 70
     1
 62
    -7
  6
CONTINUOUS
  0
ENDTAB
  0
TABLE
  2
STYLE
 70
     3
  0
STYLE
  2
STANDARD
 70
     0
 40
0.0
 41
0.8
 50
0.0
 71
     0
 42
3.5
  3
simplex.shx
  4

  0
STYLE
  2
GREEKS
 70
     0
 40
0.0
 41
0.8
 50
0.0
 71
     0
 42
2.5
  3
SIMPLEX.shx
  4

  0
ENDTAB
  0
TABLE
  2
VIEW
 70
     0
  0
ENDTAB
  0
TABLE
  2
UCS
 70
     0
  0
ENDTAB
  0
TABLE
  2
APPID
 70
    24
  0
APPID
  2
ACAD
 70
     0
  0
APPID
  2
ACAD_NAV_VCDISPLAY
 70
     0
  0
APPID
  2
ACAD_MLEADERVER
 70
     0
  0
APPID
  2
ACAD_EXEMPT_FROM_CAD_STANDARDS
 70
     0
  0
APPID
  2
ACAD_PSEXT
 70
     0
  0
APPID
  2
ACAECLAYERSTANDARD
 70
     0
  0
APPID
  2
ACAUTHENVIRON
 70
     0
  0
APPID
  2
ACCMTRANSPARENCY
 70
     0
  0
APPID
  2
ACAD_STEPID
 70
     0
  0
APPID
  2
ACSYNERGY
 70
     0
  0
APPID
  2
SYNERGY_BODY_TBR_ID
 70
     0
  0
APPID
  2
ACAD_VIEW_EDGE_ID
 70
     0
  0
APPID
  2
ACSYNERGYSKETCH
 70
     0
  0
APPID
  2
ACAD_MODELDOC_XFORM
 70
     0
  0
APPID
  2
ACAD_DSTYLE_DIMJAG
 70
     0
  0
APPID
  2
ACAD_DSTYLE_DIMTALN
 70
     0
  0
APPID
  2
ACADANNOMONITORALERTICONDI
 70
     0
  0
APPID
  2
ACAD_DIMASSOC_CALC_DIMLFAC
 70
     0
  0
APPID
  2
ACAD_DIMASSOC_DIMLFAC
 70
     0
  0
APPID
  2
ACAD_DIMASSOC_OVERRIDDEN_D
 70
     0
  0
APPID
  2
ACAD_DSTYLE_DIMRADIAL_EXTENSION
 70
     0
  0
APPID
  2
ACDBDYNAMICBLOCKGUID
 70
     0
  0
APPID
  2
ACADANNOPO
 70
     0
  0
APPID
  2
ACAD_DSTYLE_DIMBREAK
 70
     0
  0
ENDTAB
  0
TABLE
  2
DIMSTYLE
 70
     2
  0
DIMSTYLE
  2
STANDARD
 70
     0
  3

  4

  5

  6

  7

 40
1.0
 41
0.18
 42
0.0625
 43
0.38
 44
0.18
 45
0.0
 46
0.0
 47
0.0
 48
0.0
140
0.18
141
0.09
142
0.0
143
25.3999999999999986
144
1.0
145
0.0
146
1.0
147
0.09
 71
     0
 72
     0
 73
     1
 74
     1
 75
     0
 76
     0
 77
     0
 78
     0
170
     0
171
     2
172
     0
173
     0
174
     0
175
     0
176
     0
177
     0
178
     0
  0
DIMSTYLE
  2
LORO
 70
     0
  3

  4

  5

  6

  7

 40
1.0
 41
3.5
 42
1.0
 43
0.38
 44
1.0
 45
0.0
 46
0.0
 47
0.0
 48
0.000000001
140
3.5
141
0.09
142
0.0
143
25.3999999999999986
144
2.0
145
0.0
146
0.5
147
1.5
 71
     0
 72
     0
 73
     0
 74
     0
 75
     0
 76
     0
 77
     1
 78
     8
170
     0
171
     2
172
     1
173
     0
174
     0
175
     0
176
     0
177
     0
178
     1
  0
ENDTAB
  0
ENDSEC
  0
SECTION
  2
BLOCKS
  0
BLOCK
  8
0
  2
$MODEL_SPACE
 70
     0
 10
0.0
 20
0.0
 30
0.0
  3
$MODEL_SPACE
  1

  0
ENDBLK
  5
36
  8
0
  0
BLOCK
 67
     1
  8
0
  2
$PAPER_SPACE
 70
     0
 10
0.0
 20
0.0
 30
0.0
  3
$PAPER_SPACE
  1

  0
ENDBLK
  5
34
 67
     1
  8
0
  0
BLOCK
  8
0
  2
*S0
 70
     1
 10
0.0
 20
0.0
 30
0.0
  3
*S0
  1

  0
ENDBLK
  5
C0A
  8
0
  0
BLOCK
  8
0
  2
A$C20876B6A
 70
     0
 10
0.0
 20
0.0
 30
0.0
  3
A$C20876B6A
  1

  0
ARC
  5
22B3
  8
0
  6
CONTINUOUS
 62
     3
 10
-709.7507545017966777
 20
54.0000000000000426
 30
0.0
 40
8.0000000000000018
210
0.0
220
-0.0000000000000002
230
-1.0
 50
212.552581249593203
 51
270.0
  0
LINE
  5
22B4
  8
0
  6
CONTINUOUS
 62
     3
 10
542.911008539641557
 20
57.5717967697244788
 30
-0.0000000000000128
 11
542.911008539641557
 21
64.5000000000001279
 31
-0.0000000000000143
210
0.0
220
1.0
230
-0.0000000000000002
  0
LINE
  5
22B5
  8
0
  6
CONTINUOUS
 62
     3
 10
542.911008539641557
 20
79.0000000000000995
 30
-0.0000000000000175
 11
542.911008539641557
 21
64.5000000000001137
 31
-0.0000000000000143
210
0.0
220
1.0
230
-0.0000000000000002
  0
LINE
  5
22B6
  8
0
  6
CONTINUOUS
 62
     3
 10
538.911008539641557
 20
78.9999999999999858
 30
-0.0000000000000175
 11
542.911008539641557
 21
78.9999999999999858
 31
-0.0000000000000175
210
0.0
220
1.0
230
-0.0000000000000002
  0
LINE
  5
22B7
  8
0
  6
CONTINUOUS
 62
     3
 10
538.9110085396414433
 20
64.5000000000001705
 30
-0.0000000000000143
 11
538.9110085396414433
 21
79.0000000000000995
 31
-0.0000000000000175
210
0.0
220
1.0
230
-0.0000000000000002
  0
ARC
  5
22B8
  8
0
  6
CONTINUOUS
 62
     3
 10
-546.911008539641216
 20
64.5000000000000142
 30
0.0
 40
7.9999999999997717
210
0.0
220
-0.0000000000000002
230
-1.0
 50
299.999999999997101
 51
0.0000000000010178
  0
LINE
  5
22B9
  8
0
  6
CONTINUOUS
 62
     3
 10
735.9110085396411023
 20
78.9999999999999858
 30
-0.0000000000000175
 11
739.911008539641216
 21
78.9999999999999858
 31
-0.0000000000000175
210
0.0
220
1.0
230
-0.0000000000000002
  0
ARC
  5
22BA
  8
0
  6
CONTINUOUS
 62
     3
 10
-731.9110085396416707
 20
64.4999999999999289
 30
0.0
 40
7.9999999999995453
210
0.0
220
-0.0000000000000002
230
-1.0
 50
179.9999999999982094
 51
240.0000000000019043
  0
LINE
  5
22BB
  8
0
  6
CONTINUOUS
 62
     3
 10
739.911008539641216
 20
79.0000000000000995
 30
-0.0000000000000175
 11
739.911008539641216
 21
64.5000000000001705
 31
-0.0000000000000143
210
0.0
220
1.0
230
-0.0000000000000002
  0
LINE
  5
22BC
  8
0
  6
CONTINUOUS
 62
     3
 10
735.9110085396414433
 20
64.5000000000001279
 30
-0.0000000000000143
 11
735.9110085396414433
 21
79.0000000000001137
 31
-0.0000000000000175
210
0.0
220
1.0
230
-0.0000000000000002
  0
LINE
  5
22BD
  8
0
  6
CONTINUOUS
 62
     3
 10
735.9110085396411023
 20
64.5000000000001279
 30
-0.0000000000000143
 11
735.9110085396411023
 21
57.5717967697245285
 31
-0.0000000000000128
210
0.0
220
1.0
230
-0.0000000000000002
  0
LINE
  5
22BE
  8
0
  6
CONTINUOUS
 62
     3
 10
735.9110085396411023
 20
79.0000000000000995
 30
-0.0000000000000175
 11
542.911008539641557
 21
79.0000000000000995
 31
-0.0000000000000175
210
0.0
220
1.0
230
-0.0000000000000002
  0
ARC
  5
22BF
  8
0
  6
CONTINUOUS
 62
     3
 10
555.7922063861244624
 20
52.5000000000000071
 30
-0.0000000000000117
 40
4.0000000000000302
 50
32.5525812495937217
 51
89.9999999999987494
  0
LINE
  5
22C0
  8
0
  6
CONTINUOUS
 62
     3
 10
546.9110085396414433
 20
56.5000000000001208
 30
-0.0000000000000125
 11
731.9110085396411023
 21
56.5000000000001208
 31
-0.0000000000000125
210
0.0
220
1.0
230
-0.0000000000000002
  0
ARC
  5
22C1
  8
0
  6
CONTINUOUS
 62
     3
 10
723.0298106931584243
 20
52.5000000000000071
 30
-0.0000000000000117
 40
4.0000000000000302
 50
90.0000000000014211
 51
147.4474187504065981
  0
LINE
  5
22C2
  8
0
  6
CONTINUOUS
 62
     3
 10
716.4939385203490474
 20
49.6954129940330489
 30
-0.000000000000011
 11
719.6582186838821826
 21
54.6522935029834684
 31
-0.0000000000000121
210
0.0
220
1.0
230
-0.0000000000000002
  0
LINE
  5
22C3
  8
0
  6
CONTINUOUS
 62
     3
 10
562.328078558933953
 20
49.6954129940329423
 30
-0.000000000000011
 11
559.1637983954004767
 21
54.6522935029835892
 31
-0.0000000000000121
210
0.0
220
1.0
230
-0.0000000000000002
  0
LINE
  5
22C4
  8
0
  6
CONTINUOUS
 62
     3
 10
569.0712625774863227
 20
46.0000000000000426
 30
-0.0000000000000102
 11
709.7507545017966777
 21
46.0000000000000426
 31
-0.0000000000000102
210
0.0
220
1.0
230
-0.0000000000000002
  0
ARC
  5
22C5
  8
0
  6
CONTINUOUS
 62
     3
 10
569.0712625774863227
 20
54.0000000000000426
 30
-0.000000000000012
 40
8.0000000000002025
 50
212.5525812495939135
 51
270.0
  0
ARC
  5
22C6
  8
0
  6
CONTINUOUS
 62
     3
 10
-731.9110085396411023
 20
64.5000000000001279
 30
0.0
 40
7.9999999999999982
210
0.0
220
-0.0000000000000002
230
-1.0
 50
240.0000000000011937
 51
269.9999999999993179
  0
ARC
  5
22C7
  8
0
  6
CONTINUOUS
 62
     3
 10
546.9110085396414433
 20
64.5000000000001279
 30
-0.0000000000000143
 40
8.0000000000000018
 50
240.0000000000019043
 51
269.9999999999992042
  0
LINE
  5
22C8
  8
0
  6
CONTINUOUS
 62
     3
 10
589.2858951749007019
 20
-73.9999999999999858
 30
0.0000000000000164
 11
689.5361219043820711
 21
-73.9999999999999858
 31
0.0000000000000164
210
0.0
220
1.0
230
-0.0000000000000002
  0
LINE
  5
22C9
  8
0
  6
CONTINUOUS
 62
     3
 10
690.4110085396414433
 20
46.0000000000000568
 30
-0.0000000000000102
 11
690.4110085396414433
 21
-63.4760686850977009
 31
0.0000000000000141
210
0.0
220
1.0
230
-0.0000000000000002
  0
LINE
  5
22CA
  8
0
  6
CONTINUOUS
 62
     3
 10
588.4110085396414433
 20
46.0000000000000568
 30
-0.0000000000000102
 11
588.4110085396414433
 21
-63.4760686850977009
 31
0.0000000000000141
210
0.0
220
1.0
230
-0.0000000000000002
  0
ARC
  5
22CB
  8
0
  6
CONTINUOUS
 62
     3
 10
-600.4110085396348495
 20
-63.4760686850981415
 30
0.0
 40
11.9999999999934008
210
0.0
220
-0.0000000000000002
230
-1.0
 50
354.9999999999993179
 51
0.0000000000021119
  0
ARC
  5
22CC
  8
0
  6
CONTINUOUS
 62
     3
 10
-678.4110085396480372
 20
-63.4760686850981415
 30
0.0
 40
11.9999999999934008
210
0.0
220
-0.0000000000000002
230
-1.0
 50
179.9999999999978115
 51
185.0000000000005969
  0
LINE
  5
22CD
  8
0
  6
CONTINUOUS
 62
     3
 10
589.2858951749007019
 20
-73.9999999999999858
 30
0.0000000000000164
 11
588.4566721625404853
 21
-64.5219375980696128
 31
0.0000000000000143
210
0.0
220
1.0
230
-0.0000000000000002
  0
LINE
  5
22CE
  8
0
  6
CONTINUOUS
 62
     3
 10
689.5361219043820711
 20
-73.9999999999999858
 30
0.0000000000000164
 11
690.3653449167424014
 21
-64.5219375980696128
 31
0.0000000000000143
210
0.0
220
1.0
230
-0.0000000000000002
  0
ARC
  5
22CF
  8
0
  6
VERDECKT
 62
     1
 10
-555.7922063861243487
 20
52.4999999999999929
 30
0.0
 40
8.0000000000000675
210
0.0
220
-0.0000000000000002
230
-1.0
 50
90.00000000000081
 51
147.4474187504102929
  0
LINE
  5
22D0
  8
0
  6
VERDECKT
 62
     1
 10
562.5353904046769458
 20
56.8045870059665887
 30
-0.0000000000000126
 11
565.6996705682095126
 21
51.8477064970165884
 31
-0.0000000000000115
210
0.0
220
1.0
230
-0.0000000000000002
  0
ARC
  5
22D1
  8
0
  6
VERDECKT
 62
     1
 10
-723.029810693158197
 20
52.4999999999999929
 30
0.0
 40
8.0000000000000675
210
0.0
220
-0.0000000000000002
230
-1.0
 50
32.5525812495899132
 51
89.9999999999992042
  0
LINE
  5
22D2
  8
0
  6
VERDECKT
 62
     1
 10
731.9110085396414433
 20
60.5000000000001066
 30
-0.0000000000000134
 11
546.9110085396413297
 21
60.5000000000001066
 31
-0.0000000000000134
210
0.0
220
1.0
230
-0.0000000000000002
  0
ARC
  5
22D3
  8
0
  6
VERDECKT
 62
     1
 10
709.7507545017966777
 20
53.9999999999999289
 30
-0.000000000000012
 40
3.9999999999999991
 50
270.0
 51
327.4474187504109182
  0
ARC
  5
22D4
  8
0
  6
VERDECKT
 62
     1
 10
-569.071262577485868
 20
53.9999999999999289
 30
0.0
 40
4.0
210
0.0
220
-0.0000000000000002
230
-1.0
 50
270.0
 51
327.4474187504105771
  0
LINE
  5
22D5
  8
0
  6
VERDECKT
 62
     1
 10
709.7507545017966777
 20
49.9999999999999218
 30
-0.0000000000000111
 11
569.071262577485868
 21
49.9999999999999218
 31
-0.0000000000000111
210
0.0
220
1.0
230
-0.0000000000000002
  0
LINE
  5
22D6
  8
0
  6
VERDECKT
 62
     1
 10
716.2866266746057136
 20
56.8045870059665887
 30
-0.0000000000000126
 11
713.1223465110731468
 21
51.84770649701656
 31
-0.0000000000000115
210
0.0
220
1.0
230
-0.0000000000000002
  0
ARC
  5
22D7
  8
0
  6
VERDECKT
 62
     1
 10
-546.9110085396413297
 20
64.5000000000001137
 30
0.0
 40
4.0
210
0.0
220
-0.0000000000000002
230
-1.0
 50
270.0000000000007958
 51
0.0000000000006984
  0
ARC
  5
22D8
  8
0
  6
VERDECKT
 62
     1
 10
731.9110085396414433
 20
64.5000000000000853
 30
-0.0000000000000143
 40
4.0
 50
270.0000000000006821
 51
0.0000000000005966
  0
LINE
  5
22D9
  8
0
  6
VERDECKT
 62
     1
 10
590.4110085396414433
 20
46.0000000000000071
 30
-0.0000000000000102
 11
590.4110085396414433
 21
49.9999999999999076
 31
-0.0000000000000111
210
0.0
220
1.0
230
-0.0000000000000002
  0
LINE
  5
22DA
  8
0
  6
VERDECKT
 62
     1
 10
688.4110085396414433
 20
46.0000000000000071
 30
-0.0000000000000102
 11
688.4110085396414433
 21
49.9999999999999076
 31
-0.0000000000000111
210
0.0
220
1.0
230
-0.0000000000000002
  0
LINE
  5
22DB
  8
0
  6
VERDECKT
 62
     1
 10
591.2782845710842139
 20
-73.8256885145046766
 30
0.0000000000000164
 11
687.5437325081985591
 21
-73.8256885145046766
 31
0.0000000000000164
210
0.0
220
1.0
230
-0.0000000000000002
  0
LINE
  5
22DC
  8
0
  6
VERDECKT
 62
     1
 10
687.5437325081985591
 20
-73.8256885145046766
 30
0.0000000000000164
 11
689.5361219043820711
 21
-73.9999999999999858
 31
0.0000000000000164
210
0.0
220
1.0
230
-0.0000000000000002
  0
LINE
  5
22DD
  8
0
  6
VERDECKT
 62
     1
 10
591.2782845710842139
 20
-73.8256885145046766
 30
0.0000000000000164
 11
589.2858951749007019
 21
-73.9999999999999858
 31
0.0000000000000164
210
0.0
220
1.0
230
-0.0000000000000002
  0
LINE
  5
22DE
  8
0
  6
VERDECKT
 62
     1
 10
591.2782845710842139
 20
-73.8256885145046766
 30
0.0000000000000164
 11
590.4490615587238835
 21
-64.3476261125743036
 31
0.0000000000000143
210
0.0
220
1.0
230
-0.0000000000000002
  0
LINE
  5
22DF
  8
0
  6
VERDECKT
 62
     1
 10
687.5437325081985591
 20
-73.8256885145046766
 30
0.0000000000000164
 11
688.3729555205587758
 21
-64.3476261125743036
 31
0.0000000000000143
210
0.0
220
1.0
230
-0.0000000000000002
  0
ARC
  5
22E0
  8
0
  6
VERDECKT
 62
     1
 10
-600.4110085396262093
 20
-63.4760686850982765
 30
0.0
 40
9.9999999999847642
210
0.0
220
-0.0000000000000002
230
-1.0
 50
354.9999999999955094
 51
0.0000000000032951
  0
ARC
  5
22E1
  8
0
  6
VERDECKT
 62
     1
 10
-678.4110085396566774
 20
-63.4760686850982765
 30
0.0
 40
9.9999999999847642
210
0.0
220
-0.0000000000000002
230
-1.0
 50
179.9999999999967031
 51
185.0000000000044054
  0
LINE
  5
22E2
  8
0
  6
VERDECKT
 62
     1
 10
688.4110085396414433
 20
46.0000000000000568
 30
-0.0000000000000102
 11
688.4110085396414433
 21
-63.4760686850977009
 31
0.0000000000000141
210
0.0
220
1.0
230
-0.0000000000000002
  0
LINE
  5
22E3
  8
0
  6
VERDECKT
 62
     1
 10
590.4110085396414433
 20
46.0000000000000568
 30
-0.0000000000000102
 11
590.4110085396414433
 21
-63.4760686850977009
 31
0.0000000000000141
210
0.0
220
1.0
230
-0.0000000000000002
  0
ENDBLK
  5
22E5
  8
0
  0
BLOCK
  8
0
  2
A$C542E55C4
 70
     0
 10
0.0
 20
0.0
 30
0.0
  3
A$C542E55C4
  1

  0
LINE
  5
22E9
  8
0
  6
CONTINUOUS
 62
     3
 10
542.911008539641557
 20
352.2290477814668748
 30
0.0000000000001421
 11
542.911008539641557
 21
348.2290477814668748
 31
0.0000000000001421
  0
LINE
  5
22EA
  8
0
  6
CONTINUOUS
 62
     3
 10
542.911008539641557
 20
348.2290477814668748
 30
0.0000000000001421
 11
538.911008539641557
 21
348.2290477814668748
 31
0.0000000000001411
  0
LINE
  5
22EB
  8
0
  6
CONTINUOUS
 62
     3
 10
735.9110085396411023
 20
348.2290477814671021
 30
0.0000000000001847
 11
735.9110085396411023
 21
352.2290477814668748
 31
0.0000000000001847
  0
LINE
  5
22EC
  8
0
  6
CONTINUOUS
 62
     3
 10
739.911008539641216
 20
348.2290477814668748
 30
0.0000000000001847
 11
735.9110085396411023
 21
348.2290477814668748
 31
0.0000000000001837
  0
LINE
  5
22ED
  8
0
  6
CONTINUOUS
 62
     3
 10
542.911008539641557
 20
155.2290477814673011
 30
0.0000000000001421
 11
542.911008539641557
 21
151.2290477814673011
 31
0.0000000000001421
  0
LINE
  5
22EE
  8
0
  6
CONTINUOUS
 62
     3
 10
538.911008539641557
 20
155.2290477814673011
 30
0.0000000000001421
 11
542.911008539641557
 21
155.2290477814673011
 31
0.0000000000001431
  0
LINE
  5
22EF
  8
0
  6
CONTINUOUS
 62
     3
 10
735.9110085396411023
 20
155.2290477814673011
 30
0.0000000000001847
 11
739.911008539641216
 21
155.2290477814673011
 31
0.0000000000001858
  0
LINE
  5
22F0
  8
0
  6
CONTINUOUS
 62
     3
 10
735.9110085396411023
 20
151.2290477814673011
 30
0.0000000000001847
 11
735.9110085396411023
 21
155.2290477814673011
 31
0.0000000000001847
  0
LINE
  5
22F1
  8
0
  6
CONTINUOUS
 62
     3
 10
542.911008539641557
 20
352.2290477814668748
 30
0.0000000000001421
 11
735.9110085396411023
 21
352.2290477814668748
 31
0.0000000000001911
  0
LINE
  5
22F2
  8
0
  6
CONTINUOUS
 62
     3
 10
735.9110085396411023
 20
151.2290477814673011
 30
0.0000000000001847
 11
542.911008539641557
 21
151.2290477814673011
 31
0.0000000000001358
  0
LINE
  5
22F3
  8
0
  6
CONTINUOUS
 62
     3
 10
735.9110085396411023
 20
155.2290477814673011
 30
0.0000000000001847
 11
542.911008539641557
 21
155.2290477814673011
 31
0.0000000000001358
  0
LINE
  5
22F4
  8
0
  6
CONTINUOUS
 62
     3
 10
542.911008539641557
 20
348.2290477814668748
 30
0.0000000000001421
 11
735.9110085396411023
 21
348.2290477814668748
 31
0.0000000000001911
  0
LINE
  5
22F5
  8
0
  6
CONTINUOUS
 62
     3
 10
735.9110085396411023
 20
348.2290477814671021
 30
0.0000000000001847
 11
735.9110085396411023
 21
155.2290477814673011
 31
0.0000000000001847
  0
LINE
  5
22F6
  8
0
  6
CONTINUOUS
 62
     3
 10
739.911008539641216
 20
348.2290477814668748
 30
0.0000000000001847
 11
739.911008539641216
 21
155.2290477814673011
 31
0.0000000000001847
  0
LINE
  5
22F7
  8
0
  6
CONTINUOUS
 62
     3
 10
562.5353904046785374
 20
328.6046659164301786
 30
0.0000000000001421
 11
555.7922063861259403
 21
335.3478499349828894
 31
0.0000000000001421
  0
LINE
  5
22F8
  8
0
  6
CONTINUOUS
 62
     3
 10
723.0298106931568327
 20
335.3478499349828894
 30
0.0000000000001847
 11
716.2866266746041219
 21
328.6046659164301786
 31
0.0000000000001847
  0
LINE
  5
22F9
  8
0
  6
CONTINUOUS
 62
     3
 10
562.5353904046784237
 20
328.6046659164301786
 30
0.0000000000001421
 11
565.6996705682095126
 21
325.4403857528990898
 31
0.000000000000143
  0
LINE
  5
22FA
  8
0
  6
CONTINUOUS
 62
     3
 10
716.2866266746043493
 20
328.6046659164298944
 30
0.0000000000001847
 11
713.1223465110733741
 21
325.4403857528989192
 31
0.0000000000001839
  0
LINE
  5
22FB
  8
0
  6
CONTINUOUS
 62
     3
 10
562.5353904046769458
 20
174.8534296465028035
 30
0.0000000000001421
 11
555.7922063861243487
 21
168.1102456279502917
 31
0.0000000000001421
  0
LINE
  5
22FC
  8
0
  6
CONTINUOUS
 62
     3
 10
562.5353904046769458
 20
174.8534296465026898
 30
0.0000000000001421
 11
565.6996705682095126
 21
178.0177098100351998
 31
0.000000000000143
  0
LINE
  5
22FD
  8
0
  6
CONTINUOUS
 62
     3
 10
723.029810693158197
 20
168.1102456279502064
 30
0.0000000000001847
 11
716.2866266746055999
 21
174.8534296465028035
 31
0.0000000000001847
  0
LINE
  5
22FE
  8
0
  6
CONTINUOUS
 62
     3
 10
713.1223465110731468
 20
325.4403857528986919
 30
0.0000000000001776
 11
709.7507545017966777
 21
322.0687937436227912
 31
0.0000000000001776
  0
LINE
  5
22FF
  8
0
  6
CONTINUOUS
 62
     3
 10
709.7507545017966777
 20
181.389301819311612
 30
0.0000000000001776
 11
713.1223465110731468
 21
178.0177098100353987
 31
0.0000000000001776
  0
LINE
  5
2300
  8
0
  6
CONTINUOUS
 62
     3
 10
569.071262577485868
 20
322.0687937436227912
 30
0.0000000000001421
 11
565.6996705682095126
 21
325.4403857528989761
 31
0.0000000000001421
  0
LINE
  5
2301
  8
0
  6
CONTINUOUS
 62
     3
 10
569.071262577485868
 20
181.389301819311612
 30
0.0000000000001421
 11
565.6996705682095126
 21
178.0177098100353135
 31
0.0000000000001421
  0
LINE
  5
2302
  8
0
  6
CONTINUOUS
 62
     3
 10
716.2866266746057136
 20
174.8534296465026898
 30
0.0000000000001847
 11
713.1223465110731468
 21
178.0177098100351998
 31
0.0000000000001839
  0
CIRCLE
  5
2303
  8
0
  6
CONTINUOUS
 62
     3
 10
639.4110085396414433
 20
251.7290477814671021
 30
0.0000000000001634
 40
49.0
  0
LINE
  5
2304
  8
0
  6
CONTINUOUS
 62
     3
 10
546.9110085396413297
 20
344.2290477814672158
 30
0.0000000000001421
 11
542.9110085396413297
 21
348.2290477814672158
 31
0.0000000000001421
  0
LINE
  5
2305
  8
0
  6
CONTINUOUS
 62
     3
 10
546.9110085396413297
 20
159.2290477814669885
 30
0.0000000000001421
 11
542.9110085396413297
 21
155.2290477814669885
 31
0.0000000000001421
  0
LINE
  5
2306
  8
0
  6
CONTINUOUS
 62
     3
 10
731.9110085396414433
 20
344.2290477814672158
 30
0.0000000000001847
 11
735.9110085396414433
 21
348.2290477814672158
 31
0.0000000000001847
  0
LINE
  5
2307
  8
0
  6
CONTINUOUS
 62
     3
 10
731.9110085396414433
 20
159.2290477814669885
 30
0.0000000000001847
 11
735.9110085396414433
 21
155.2290477814669885
 31
0.0000000000001847
  0
LINE
  5
2308
  8
0
  6
CONTINUOUS
 62
     3
 10
542.911008539641557
 20
155.2290477814673011
 30
0.0000000000001421
 11
542.911008539641557
 21
348.2290477814668748
 31
0.0000000000001421
  0
LINE
  5
2309
  8
0
  6
CONTINUOUS
 62
     3
 10
538.911008539641557
 20
155.2290477814673011
 30
0.0000000000001421
 11
538.911008539641557
 21
348.2290477814668748
 31
0.0000000000001421
  0
CIRCLE
  5
230A
  8
0
  6
CONTINUOUS
 62
     3
 10
639.4110085396414433
 20
251.7290477814671021
 30
0.0000000000001563
 40
48.1327239685572223
  0
CIRCLE
  5
230B
  8
0
  6
VERDECKT
 62
     1
 10
639.4110085396414433
 20
251.7290477814671874
 30
0.0000000000001634
 40
51.0
  0
CIRCLE
  5
230C
  8
0
  6
VERDECKT
 62
     1
 10
639.4110085396414433
 20
251.7290477814671021
 30
0.0000000000001563
 40
50.1251133647407414
  0
ENDBLK
  5
230E
  8
0
  0
ENDSEC
  0
SECTION
  2
ENTITIES
  0
TEXT
  5
8F
  8
VOLL
 10
78.076754716981128
 20
31.025947764705851
 30
0.0
 40
1.8
  1

  7
GREEKS
  0
INSERT
  5
C0C
  8
ADSK_ASSOC_ENTITY_BACKUPS
  2
*S0
 10
0.0
 20
0.0
 30
0.0
  0
INSERT
  5
22E6
  8
STEMPEL
  2
A$C20876B6A
 10
0.0
 20
-50.0
 30
0.0
  0
INSERT
  5
230F
  8
STEMPEL
  2
A$C542E55C4
 10
0.0
 20
0.0
 30
0.0
  0
VIEWPORT
  5
928
 67
     1
  8
0
 10
145.4915797562350122
 20
205.7191564977360088
 30
0.0
 40
788.6427357689041173
 41
422.141036533559884
 68
     1
 69
     1
1001
ACAD
1000
MVIEW
1002
{
1070
    16
1010
0.0
1020
0.0
1030
0.0
1010
0.0
1020
0.0
1030
1.0
1040
0.0
1040
422.141036533559884
1040
145.4915797562350122
1040
205.7191564977360088
1040
50.0
1040
0.0
1040
0.0
1070
     0
1070
  1500
1070
     1
1070
     1
1070
     0
1070
     0
1070
     0
1070
     0
1040
0.0
1040
0.0
1040
0.0
1040
10.0
1040
10.0
1040
10.0
1040
10.0
1070
     0
1002
{
1002
}
1002
}
  0
ENDSEC
  0
EOF
