  0
SECTION
  2
HEADER
  9
$ACADVER
  1
AC1009
  9
$INSBASE
 10
0.0
 20
0.0
 30
0.0
  9
$EXTMIN
 10
-165.0178514211654033
 20
-365.0343002234992014
 30
-0.0015258207003583
  9
$EXTMAX
 10
165.0354777498112071
 20
400.0343643343477993
 30
0.0000000349246037
  9
$LIMMIN
 10
0.0
 20
0.0
  9
$LIMMAX
 10
419.9999999999998863
 20
594.0
  9
$ORTHOMODE
 70
     1
  9
$REGENMODE
 70
     1
  9
$FILLMODE
 70
     1
  9
$QTEXTMODE
 70
     0
  9
$MIRRTEXT
 70
     1
  9
$DRAGMODE
 70
     2
  9
$LTSCALE
 40
20.0
  9
$OSMODE
 70
   511
  9
$ATTMODE
 70
     1
  9
$TEXTSIZE
 40
3.5
  9
$TRACEWID
 40
0.5
  9
$TEXTSTYLE
  7
STANDARD
  9
$CLAYER
  8
STEMPEL
  9
$CELTYPE
  6
BYLAYER
  9
$CECOLOR
 62
   256
  9
$DIMSCALE
 40
2.0
  9
$DIMASZ
 40
3.5
  9
$DIMEXO
 40
1.0
  9
$DIMDLI
 40
7.0
  9
$DIMRND
 40
0.0
  9
$DIMDLE
 40
0.0
  9
$DIMEXE
 40
1.0
  9
$DIMTP
 40
0.0
  9
$DIMTM
 40
0.0
  9
$DIMTXT
 40
3.5
  9
$DIMCEN
 40
1.5
  9
$DIMTSZ
 40
0.0
  9
$DIMTOL
 70
     0
  9
$DIMLIM
 70
     0
  9
$DIMTIH
 70
     0
  9
$DIMTOH
 70
     0
  9
$DIMSE1
 70
     0
  9
$DIMSE2
 70
     0
  9
$DIMTAD
 70
     1
  9
$DIMZIN
 70
     8
  9
$DIMBLK
  1

  9
$DIMASO
 70
     1
  9
$DIMSHO
 70
     0
  9
$DIMPOST
  1

  9
$DIMAPOST
  1

  9
$DIMALT
 70
     0
  9
$DIMALTD
 70
     2
  9
$DIMALTF
 40
25.3999999999999986
  9
$DIMLFAC
 40
1.0
  9
$DIMTOFL
 70
     1
  9
$DIMTVP
 40
0.0
  9
$DIMTIX
 70
     0
  9
$DIMSOXD
 70
     0
  9
$DIMSAH
 70
     0
  9
$DIMBLK1
  1

  9
$DIMBLK2
  1

  9
$DIMSTYLE
  2
STANDARD
  9
$DIMCLRD
 70
     0
  9
$DIMCLRE
 70
     0
  9
$DIMCLRT
 70
     1
  9
$DIMTFAC
 40
0.5142857142857143
  9
$DIMGAP
 40
1.5
  9
$LUNITS
 70
     2
  9
$LUPREC
 70
     2
  9
$SKETCHINC
 40
1.0
  9
$FILLETRAD
 40
0.0
  9
$AUNITS
 70
     0
  9
$AUPREC
 70
     0
  9
$MENU
  1
ACAD
  9
$ELEVATION
 40
0.0
  9
$PELEVATION
 40
0.0
  9
$THICKNESS
 40
0.0
  9
$LIMCHECK
 70
     0
  9
$BLIPMODE
 70
     0
  9
$CHAMFERA
 40
0.0
  9
$CHAMFERB
 40
0.0
  9
$SKPOLY
 70
     0
  9
$TDCREATE
 40
2455397.8646990740671754
  9
$TDUPDATE
 40
2460293.4989699078723788
  9
$TDINDWG
 40
0.0505616435
  9
$TDUSRTIMER
 40
0.0505616435
  9
$USRTIMER
 70
     1
  9
$ANGBASE
 50
0.0
  9
$ANGDIR
 70
     0
  9
$PDMODE
 70
     0
  9
$PDSIZE
 40
0.0
  9
$PLINEWID
 40
0.0
  9
$COORDS
 70
     1
  9
$SPLFRAME
 70
     0
  9
$SPLINETYPE
 70
     6
  9
$SPLINESEGS
 70
     8
  9
$ATTDIA
 70
     1
  9
$ATTREQ
 70
     1
  9
$HANDLING
 70
     1
  9
$HANDSEED
  5
12C2
  9
$SURFTAB1
 70
     6
  9
$SURFTAB2
 70
     6
  9
$SURFTYPE
 70
     6
  9
$SURFU
 70
     6
  9
$SURFV
 70
     6
  9
$UCSNAME
  2

  9
$UCSORG
 10
0.0
 20
0.0
 30
0.0
  9
$UCSXDIR
 10
1.0
 20
0.0
 30
0.0
  9
$UCSYDIR
 10
0.0
 20
1.0
 30
0.0
  9
$PUCSNAME
  2

  9
$PUCSORG
 10
0.0
 20
0.0
 30
0.0
  9
$PUCSXDIR
 10
1.0
 20
0.0
 30
0.0
  9
$PUCSYDIR
 10
0.0
 20
1.0
 30
0.0
  9
$USERI1
 70
     0
  9
$USERI2
 70
     0
  9
$USERI3
 70
     0
  9
$USERI4
 70
     0
  9
$USERI5
 70
     0
  9
$USERR1
 40
0.0
  9
$USERR2
 40
0.0
  9
$USERR3
 40
0.0
  9
$USERR4
 40
0.0
  9
$USERR5
 40
0.0
  9
$WORLDVIEW
 70
     1
  9
$SHADEDGE
 70
     3
  9
$SHADEDIF
 70
    70
  9
$TILEMODE
 70
     1
  9
$MAXACTVP
 70
    16
  9
$PLIMCHECK
 70
     0
  9
$PEXTMIN
 10
1.0000000000000000E+20
 20
1.0000000000000000E+20
 30
1.0000000000000000E+20
  9
$PEXTMAX
 10
-1.0000000000000000E+20
 20
-1.0000000000000000E+20
 30
-1.0000000000000000E+20
  9
$PLIMMIN
 10
0.0
 20
0.0
  9
$PLIMMAX
 10
12.0
 20
9.0
  9
$UNITMODE
 70
     0
  9
$VISRETAIN
 70
     0
  9
$PLINEGEN
 70
     0
  9
$PSLTSCALE
 70
     0
  0
ENDSEC
  0
SECTION
  2
TABLES
  0
TABLE
  2
VPORT
 70
     1
  0
VPORT
  2
*ACTIVE
 70
     0
 10
0.0
 20
0.0
 11
1.0
 21
1.0
 12
0.0088131643228735
 22
-100.0057205080522067
 13
0.0
 23
0.0
 14
1.0
 24
1.0
 15
10.0
 25
10.0
 16
-0.0000000000003742
 26
0.0
 36
1685.2373882866340864
 17
0.0
 27
117.5057525634765057
 37
-0.0000000000000444
 40
768.982059261467839
 41
1.8720136518771331
 42
50.0
 43
0.0
 44
0.0
 50
0.0
 51
0.0
 71
     0
 72
  1500
 73
     1
 74
     0
 75
     0
 76
     0
 77
     0
 78
     0
  0
ENDTAB
  0
TABLE
  2
LTYPE
 70
     3
  0
LTYPE
  2
CONTINUOUS
 70
     0
  3
Solid line
 72
    65
 73
     0
 40
0.0
  0
LTYPE
  2
VERDECKT
 70
     0
  3
Verdeckt __ __ __ __ __ __ __ __ __ __ __ __ __
 72
    65
 73
     2
 40
0.375
 49
0.25
 49
-0.125
  0
ENDTAB
  0
TABLE
  2
LAYER
 70
    10
  0
LAYER
  2
0
 70
     0
 62
     7
  6
CONTINUOUS
  0
LAYER
  2
VOLL
 70
     0
 62
     1
  6
CONTINUOUS
  0
LAYER
  2
STEMPEL
 70
     0
 62
     3
  6
CONTINUOUS
  0
ENDTAB
  0
TABLE
  2
STYLE
 70
     3
  0
STYLE
  2
STANDARD
 70
     0
 40
0.0
 41
0.8
 50
0.0
 71
     0
 42
3.5
  3
simplex.shx
  4

  0
STYLE
  2
GREEKS
 70
     0
 40
0.0
 41
0.8
 50
0.0
 71
     0
 42
2.5
  3
SIMPLEX.shx
  4

  0
ENDTAB
  0
TABLE
  2
VIEW
 70
     1
  0
ENDTAB
  0
TABLE
  2
UCS
 70
     0
  0
ENDTAB
  0
TABLE
  2
APPID
 70
    11
  0
APPID
  2
ACAD
 70
     0
  0
APPID
  2
ACAD_NAV_VCDISPLAY
 70
     0
  0
APPID
  2
ACAD_PSEXT
 70
     0
  0
APPID
  2
ACAD_DSTYLE_DIMJAG
 70
     0
  0
APPID
  2
ACAD_DSTYLE_DIMBREAK
 70
     0
  0
APPID
  2
ACAD_DSTYLE_DIMTALN
 70
     0
  0
APPID
  2
ACADANNOTATIVE
 70
     0
  0
APPID
  2
ACAECLAYERSTANDARD
 70
     0
  0
APPID
  2
ACCMTRANSPARENCY
 70
     0
  0
APPID
  2
ACAD_STEPID
 70
     0
  0
APPID
  2
ACAD_MLEADERVER
 70
     0
  0
ENDTAB
  0
TABLE
  2
DIMSTYLE
 70
     3
  0
DIMSTYLE
  2
STANDARD
 70
     0
  3

  4

  5

  6

  7

 40
1.0
 41
0.18
 42
0.0625
 43
0.38
 44
0.18
 45
0.0
 46
0.0
 47
0.0
 48
0.0
140
0.18
141
0.09
142
0.0
143
25.3999999999999986
144
1.0
145
0.0
146
1.0
147
0.09
 71
     0
 72
     0
 73
     1
 74
     1
 75
     0
 76
     0
 77
     0
 78
     0
170
     0
171
     2
172
     0
173
     0
174
     0
175
     0
176
     0
177
     0
178
     0
  0
ENDTAB
  0
ENDSEC
  0
SECTION
  2
BLOCKS
  0
BLOCK
  8
0
  2
$MODEL_SPACE
 70
     0
 10
0.0
 20
0.0
 30
0.0
  3
$MODEL_SPACE
  1

  0
ENDBLK
  5
36
  8
0
  0
BLOCK
 67
     1
  8
0
  2
$PAPER_SPACE
 70
     0
 10
0.0
 20
0.0
 30
0.0
  3
$PAPER_SPACE
  1

  0
ENDBLK
  5
34
 67
     1
  8
0
  0
BLOCK
  8
0
  2
A$C1681773C
 70
     0
 10
0.0
 20
0.0
 30
0.0
  3
A$C1681773C
  1

  0
CIRCLE
  5
11BD
  8
0
  6
CONTINUOUS
 62
     3
 10
-0.0000000000001386
 20
0.0
 30
0.0
 40
39.4500924592585989
  0
CIRCLE
  5
11BE
  8
0
  6
CONTINUOUS
 62
     3
 10
-0.000000000000141
 20
0.0
 30
0.0
 40
42.1000000000000227
  0
CIRCLE
  5
11BF
  8
0
  6
CONTINUOUS
 62
     3
 10
-0.0000000000001519
 20
-0.0000000000000142
 30
0.0
 40
34.8999999999999773
  0
CIRCLE
  5
11C0
  8
0
  6
CONTINUOUS
 62
     3
 10
-0.0000000000001387
 20
0.0
 30
0.0
 40
38.0
  0
CIRCLE
  5
11C1
  8
0
  6
CONTINUOUS
 62
     3
 10
-0.0000000000002273
 20
0.0
 30
0.0
 40
33.9123553972581178
  0
CIRCLE
  5
11C2
  8
0
  6
CONTINUOUS
 62
     3
 10
-0.000000000000142
 20
0.0
 30
0.0
 40
42.1000932431257269
  0
CIRCLE
  5
11C3
  8
0
  6
CONTINUOUS
 62
     3
 10
-0.0000000000002132
 20
-0.0000000000000284
 30
0.0
 40
145.2090983189532949
  0
CIRCLE
  5
11C4
  8
0
  6
CONTINUOUS
 62
     3
 10
-0.0000000000002132
 20
-0.0000000000000284
 30
0.0
 40
165.0
  0
CIRCLE
  5
11C5
  8
0
  6
VERDECKT
 62
     1
 10
-0.0000000000001449
 20
0.0
 30
0.0
 40
39.6000000000000227
  0
CIRCLE
  5
11C6
  8
0
  6
VERDECKT
 62
     1
 10
-0.0000000000001519
 20
-0.0000000000000142
 30
0.0
 40
36.5
  0
CIRCLE
  5
11C7
  8
0
  6
VERDECKT
 62
     1
 10
-0.000000000000141
 20
0.0
 30
0.0
 40
40.4999999999999929
  0
CIRCLE
  5
11C8
  8
0
  6
VERDECKT
 62
     1
 10
-0.0000000000002274
 20
0.0
 30
0.0
 40
35.5
  0
CIRCLE
  5
11C9
  8
0
  6
VERDECKT
 62
     1
 10
-0.000000000000142
 20
0.0
 30
0.0
 40
40.5000932431257326
  0
CIRCLE
  5
11CA
  8
0
  6
VERDECKT
 62
     1
 10
-0.0000000000002136
 20
-0.0000000000000285
 30
0.0
 40
145.3281296079356082
  0
ENDBLK
  5
11CC
  8
0
  0
BLOCK
  8
0
  2
A$C02071E12
 70
     0
 10
0.0
 20
0.0
 30
0.0
  3
A$C02071E12
  1

  0
LINE
  5
11D0
  8
0
  6
CONTINUOUS
 62
     3
 10
39.4500924592583715
 20
400.0
 30
-0.0000000000000888
 11
-39.4500924592588333
 21
400.0
 31
-0.0000000000000888
210
0.0
220
1.0
230
-0.0000000000000002
  0
LINE
  5
11D1
  8
0
  6
CONTINUOUS
 62
     3
 10
-36.5000000000003411
 20
7.9999999999999956
 30
-0.0000000000000018
 11
36.4999999999998934
 21
7.9999999999999956
 31
-0.0000000000000018
210
0.0
220
1.0
230
-0.0000000000000002
  0
LINE
  5
11D2
  8
0
  6
CONTINUOUS
 62
     3
 10
-35.5000000000002274
 20
-0.0000000000000052
 30
0.0
 11
35.4999999999997797
 21
-0.0000000000000052
 31
0.0
210
0.0
220
1.0
230
-0.0000000000000002
  0
LINE
  5
11D3
  8
0
  6
CONTINUOUS
 62
     3
 10
39.4500924592583999
 20
400.0
 30
-0.0000000000000888
 11
39.7576946759153813
 21
399.3403449176153117
 31
-0.0000000000000887
210
0.0
220
1.0
230
-0.0000000000000002
  0
LINE
  5
11D4
  8
0
  6
CONTINUOUS
 62
     3
 10
-39.4500924592588404
 20
400.0
 30
-0.0000000000000888
 11
-39.7576946759158218
 21
399.3403449176153117
 31
-0.0000000000000887
210
0.0
220
1.0
230
-0.0000000000000002
  0
ARC
  5
11D5
  8
0
  6
CONTINUOUS
 62
     3
 10
-17.1000000000009997
 20
388.7748883740966903
 30
0.0
 40
24.9999999999987601
210
0.0
220
-0.0000000000000002
230
-1.0
 50
154.9999999999959073
 51
180.0000000000007105
  0
ARC
  5
11D6
  8
0
  6
CONTINUOUS
 62
     3
 10
17.1000000000014687
 20
388.7748883740966903
 30
0.0
 40
24.9999999999987601
210
0.0
220
-0.0000000000000002
230
-1.0
 50
359.9999999999992042
 51
25.0000000000042313
  0
LINE
  5
11D7
  8
0
  6
CONTINUOUS
 62
     3
 10
-42.100000000000243
 20
384.7682800481865115
 30
-0.0000000000000854
 11
-42.100000000000243
 21
388.7748883740964061
 31
-0.0000000000000863
210
0.0
220
1.0
230
-0.0000000000000002
  0
LINE
  5
11D8
  8
0
  6
CONTINUOUS
 62
     3
 10
42.0999999999997883
 20
384.7682800481865115
 30
-0.0000000000000854
 11
42.0999999999997883
 21
388.7748883740964061
 31
-0.0000000000000863
210
0.0
220
1.0
230
-0.0000000000000002
  0
ARC
  5
11D9
  8
0
  6
CONTINUOUS
 62
     3
 10
-17.0999999999881815
 20
384.7000000000031719
 30
0.0
 40
25.0000932431373215
210
0.0
220
-0.0000000000000002
230
-1.0
 50
179.8435140456655006
 51
201.1831543930327939
  0
ARC
  5
11DA
  8
0
  6
CONTINUOUS
 62
     3
 10
17.0999999999886292
 20
384.7000000000031719
 30
0.0
 40
25.0000932431373286
210
0.0
220
-0.0000000000000002
230
-1.0
 50
338.8168456069672061
 51
0.1564859543344621
  0
ARC
  5
11DB
  8
0
  6
CONTINUOUS
 62
     3
 10
-51.6000000000017209
 20
371.330000000000723
 30
0.0
 40
12.0000000000019202
210
0.0
220
-0.0000000000000002
230
-1.0
 50
0.0
 51
21.1831543930266406
  0
ARC
  5
11DC
  8
0
  6
CONTINUOUS
 62
     3
 10
51.6000000000021686
 20
371.330000000000723
 30
0.0
 40
12.0000000000019202
210
0.0
220
-0.0000000000000002
230
-1.0
 50
158.8168456069714125
 51
179.9999999999980957
  0
LINE
  5
11DD
  8
0
  6
CONTINUOUS
 62
     3
 10
-39.6000000000002501
 20
350.3887264174152278
 30
-0.0000000000000778
 11
-39.6000000000002501
 21
371.330000000001121
 31
-0.0000000000000825
210
0.0
220
1.0
230
-0.0000000000000002
  0
LINE
  5
11DE
  8
0
  6
CONTINUOUS
 62
     3
 10
39.5999999999997883
 20
350.3887264174152278
 30
-0.0000000000000778
 11
39.5999999999997883
 21
371.330000000001121
 31
-0.0000000000000825
210
0.0
220
1.0
230
-0.0000000000000002
  0
ARC
  5
11DF
  8
0
  6
CONTINUOUS
 62
     3
 10
-27.5999999999985093
 20
350.3887264174155121
 30
0.0
 40
12.0000000000012808
210
0.0
220
-0.0000000000000002
230
-1.0
 50
180.0000000000015064
 51
212.3280641221552969
  0
ARC
  5
11E0
  8
0
  6
CONTINUOUS
 62
     3
 10
27.5999999999987295
 20
350.3887264174156257
 30
0.0
 40
12.0000000000015099
210
0.0
220
-0.0000000000000002
230
-1.0
 50
327.6719358778448168
 51
359.9999999999981242
  0
ARC
  5
11E1
  8
0
  6
CONTINUOUS
 62
     3
 10
-44.5000000000005116
 20
339.6934003354293736
 30
0.0
 40
8.0000000000007461
210
0.0
220
-0.0000000000000002
230
-1.0
 50
0.0000000000150631
 51
32.3280641221686267
  0
ARC
  5
11E2
  8
0
  6
CONTINUOUS
 62
     3
 10
44.5000000000009095
 20
339.6934003354293736
 30
0.0
 40
8.0000000000007105
210
0.0
220
-0.0000000000000002
230
-1.0
 50
147.6719358778316007
 51
179.9999999999849081
  0
LINE
  5
11E3
  8
0
  6
CONTINUOUS
 62
     3
 10
36.4999999999998934
 20
339.6934003354314768
 30
-0.0000000000000754
 11
36.4999999999998934
 21
320.0000000000001137
 31
-0.0000000000000711
210
0.0
220
1.0
230
-0.0000000000000002
  0
LINE
  5
11E4
  8
0
  6
CONTINUOUS
 62
     3
 10
36.4999999999998934
 20
305.0000000000005116
 30
-0.0000000000000677
 11
36.4999999999998934
 21
8.0000000000000018
 31
-0.0000000000000018
210
0.0
220
1.0
230
-0.0000000000000002
  0
LINE
  5
11E5
  8
0
  6
CONTINUOUS
 62
     3
 10
-36.5000000000003411
 20
339.6934003354314768
 30
-0.0000000000000754
 11
-36.5000000000003411
 21
320.0000000000001137
 31
-0.0000000000000711
210
0.0
220
1.0
230
-0.0000000000000002
  0
LINE
  5
11E6
  8
0
  6
CONTINUOUS
 62
     3
 10
-36.5000000000003411
 20
305.0000000000005116
 30
-0.0000000000000677
 11
-36.5000000000003411
 21
8.0000000000000018
 31
-0.0000000000000018
210
0.0
220
1.0
230
-0.0000000000000002
  0
LINE
  5
11E7
  8
0
  6
CONTINUOUS
 62
     3
 10
-35.5000000000001705
 20
0.0000000000000009
 30
0.0
 11
-36.5000000000002913
 21
8.0000000000000018
 31
-0.0000000000000018
210
0.0
220
1.0
230
-0.0000000000000002
  0
LINE
  5
11E8
  8
0
  6
CONTINUOUS
 62
     3
 10
35.4999999999997229
 20
0.0000000000000009
 30
0.0
 11
36.4999999999998295
 21
8.0000000000000018
 31
-0.0000000000000018
210
0.0
220
1.0
230
-0.0000000000000002
  0
LINE
  5
11E9
  8
0
  6
CONTINUOUS
 62
     3
 10
-165.0000000000003126
 20
320.0000000000001137
 30
-0.0000000000000711
 11
164.9999999999996874
 21
320.0000000000001137
 31
-0.0000000000000711
210
0.0
220
1.0
230
-0.0000000000000002
  0
LINE
  5
11EA
  8
0
  6
CONTINUOUS
 62
     3
 10
-165.000000000000199
 20
318.0000000000001137
 30
-0.0000000000000706
 11
164.9999999999996874
 21
318.0000000000001137
 31
-0.0000000000000706
210
0.0
220
1.0
230
-0.0000000000000002
  0
LINE
  5
11EB
  8
0
  6
CONTINUOUS
 62
     3
 10
-36.5000000000003411
 20
305.0
 30
-0.0000000000000677
 11
36.4999999999997726
 21
305.0
 31
-0.0000000000000677
210
0.0
220
1.0
230
-0.0000000000000002
  0
LINE
  5
11EC
  8
0
  6
CONTINUOUS
 62
     3
 10
164.9999999999996874
 20
320.0000000000001137
 30
-0.0000000000000711
 11
164.9999999999996874
 21
318.0000000000001137
 31
-0.0000000000000706
210
0.0
220
1.0
230
-0.0000000000000002
  0
LINE
  5
11ED
  8
0
  6
CONTINUOUS
 62
     3
 10
-165.0000000000003126
 20
320.0000000000001137
 30
-0.0000000000000711
 11
-165.0000000000003126
 21
318.0000000000001137
 31
-0.0000000000000706
210
0.0
220
1.0
230
-0.0000000000000002
  0
LINE
  5
11EE
  8
0
  6
CONTINUOUS
 62
     3
 10
-36.5000000000003411
 20
305.0
 30
-0.0000000000000677
 11
-145.3281296079358071
 21
318.0000000000001137
 31
-0.0000000000000706
210
0.0
220
1.0
230
-0.0000000000000002
  0
LINE
  5
11EF
  8
0
  6
CONTINUOUS
 62
     3
 10
36.4999999999997726
 20
305.0
 30
-0.0000000000000677
 11
145.3281296079352956
 21
318.0000000000001137
 31
-0.0000000000000706
210
0.0
220
1.0
230
-0.0000000000000002
  0
LINE
  5
11F0
  8
0
  6
VERDECKT
 62
     1
 10
37.9999999999997797
 20
399.3238107812148883
 30
-0.0000000000000887
 11
-38.0000000000002274
 21
399.3238107812148883
 31
-0.0000000000000887
210
0.0
220
1.0
230
-0.0000000000000002
  0
LINE
  5
11F1
  8
0
  6
VERDECKT
 62
     1
 10
-33.9123553972583593
 20
0.1984555753427505
 30
0.0
 11
33.9123553972578975
 21
0.1984555753427505
 31
0.0
210
0.0
220
1.0
230
-0.0000000000000002
  0
LINE
  5
11F2
  8
0
  6
VERDECKT
 62
     1
 10
-34.9000000000003183
 20
8.0996123972772835
 30
-0.0000000000000018
 11
34.8999999999998565
 21
8.0996123972772835
 31
-0.0000000000000018
210
0.0
220
1.0
230
-0.0000000000000002
  0
ARC
  5
11F3
  8
0
  6
VERDECKT
 62
     1
 10
-44.5000000000005969
 20
339.6934003354311926
 30
0.0
 40
9.6000000000008541
210
0.0
220
-0.0000000000000002
230
-1.0
 50
0.0000000000017048
 51
32.3280641221620826
  0
ARC
  5
11F4
  8
0
  6
VERDECKT
 62
     1
 10
44.5000000000009024
 20
339.6934003354311926
 30
0.0
 40
9.6000000000007155
210
0.0
220
-0.0000000000000002
230
-1.0
 50
147.6719358778377966
 51
179.9999999999982947
  0
ARC
  5
11F5
  8
0
  6
VERDECKT
 62
     1
 10
-27.6000000000001684
 20
350.3887264174168763
 30
0.0
 40
10.3999999999996007
210
0.0
220
-0.0000000000000002
230
-1.0
 50
179.9999999999984084
 51
212.3280641221622034
  0
ARC
  5
11F6
  8
0
  6
VERDECKT
 62
     1
 10
27.6000000000002892
 20
350.38872641741699
 30
0.0
 40
10.3999999999999204
210
0.0
220
-0.0000000000000002
230
-1.0
 50
327.671935877838223
 51
0.0000000000012468
  0
LINE
  5
11F7
  8
0
  6
VERDECKT
 62
     1
 10
-38.0000000000003411
 20
350.3887264174172174
 30
-0.0000000000000778
 11
-38.0000000000003411
 21
371.3300000000015757
 31
-0.0000000000000825
210
0.0
220
1.0
230
-0.0000000000000002
  0
LINE
  5
11F8
  8
0
  6
VERDECKT
 62
     1
 10
37.9999999999998934
 20
350.3887264174172174
 30
-0.0000000000000778
 11
37.9999999999998934
 21
371.3300000000015757
 31
-0.0000000000000825
210
0.0
220
1.0
230
-0.0000000000000002
  0
ARC
  5
11F9
  8
0
  6
VERDECKT
 62
     1
 10
-51.5999999999999019
 20
371.3300000000015757
 30
0.0
 40
13.6000000000000103
210
0.0
220
-0.0000000000000002
230
-1.0
 50
359.9999999999997158
 51
21.1831543930308399
  0
ARC
  5
11FA
  8
0
  6
VERDECKT
 62
     1
 10
51.6000000000003496
 20
371.3300000000015757
 30
0.0
 40
13.6000000000000192
210
0.0
220
-0.0000000000000002
230
-1.0
 50
158.8168456069691103
 51
180.0000000000001137
  0
ARC
  5
11FB
  8
0
  6
VERDECKT
 62
     1
 10
-17.0999999999906791
 20
384.700000000003115
 30
0.0
 40
23.400093243134819
210
0.0
220
-0.0000000000000002
230
-1.0
 50
179.8382525687270004
 51
201.1831543930331065
  0
ARC
  5
11FC
  8
0
  6
VERDECKT
 62
     1
 10
17.0999999999915495
 20
384.7000000000030013
 30
0.0
 40
23.4000932431343998
210
0.0
220
-0.0000000000000002
230
-1.0
 50
338.8168456069664103
 51
0.1617474312731779
  0
LINE
  5
11FD
  8
0
  6
VERDECKT
 62
     1
 10
-40.5000000000002203
 20
384.7660589659254242
 30
-0.0000000000000854
 11
-40.5000000000002203
 21
388.7748883740961787
 31
-0.0000000000000863
210
0.0
220
1.0
230
-0.0000000000000002
  0
LINE
  5
11FE
  8
0
  6
VERDECKT
 62
     1
 10
40.4999999999997726
 20
384.7660589659254242
 30
-0.0000000000000854
 11
40.4999999999997726
 21
388.7748883740961787
 31
-0.0000000000000863
210
0.0
220
1.0
230
-0.0000000000000002
  0
ARC
  5
11FF
  8
0
  6
VERDECKT
 62
     1
 10
-17.0999999999984382
 20
388.7748883740960082
 30
0.0
 40
23.4000000000013202
210
0.0
220
-0.0000000000000002
230
-1.0
 50
154.9999999999967883
 51
179.9999999999994031
  0
ARC
  5
1200
  8
0
  6
VERDECKT
 62
     1
 10
17.0999999999989001
 20
388.7748883740960082
 30
0.0
 40
23.4000000000013202
210
0.0
220
-0.0000000000000002
230
-1.0
 50
0.0000000000005598
 51
25.0000000000031299
  0
LINE
  5
1201
  8
0
  6
VERDECKT
 62
     1
 10
37.9999999999997513
 20
399.3238107812148883
 30
-0.0000000000000887
 11
38.3076022166567114
 21
398.6641556988300863
 31
-0.0000000000000885
210
0.0
220
1.0
230
-0.0000000000000002
  0
LINE
  5
1202
  8
0
  6
VERDECKT
 62
     1
 10
-38.0000000000002132
 20
399.3238107812148883
 30
-0.0000000000000887
 11
-38.307602216657159
 21
398.6641556988300863
 31
-0.0000000000000885
210
0.0
220
1.0
230
-0.0000000000000002
  0
LINE
  5
1203
  8
0
  6
VERDECKT
 62
     1
 10
-38.0000000000002487
 20
399.3238107812147746
 30
-0.0000000000000887
 11
-39.4500924592588618
 21
400.0
 31
-0.0000000000000888
210
0.0
220
1.0
230
-0.0000000000000002
  0
LINE
  5
1204
  8
0
  6
VERDECKT
 62
     1
 10
37.999999999999801
 20
399.3238107812147746
 30
-0.0000000000000887
 11
39.4500924592584994
 21
400.0
 31
-0.0000000000000888
210
0.0
220
1.0
230
-0.0000000000000002
  0
LINE
  5
1205
  8
0
  6
VERDECKT
 62
     1
 10
36.4999999999998934
 20
320.0000000000001137
 30
-0.0000000000000711
 11
36.4999999999998934
 21
305.0000000000005116
 31
-0.0000000000000677
210
0.0
220
1.0
230
-0.0000000000000002
  0
LINE
  5
1206
  8
0
  6
VERDECKT
 62
     1
 10
-36.5000000000003411
 20
320.0000000000001137
 30
-0.0000000000000711
 11
-36.5000000000003411
 21
305.0000000000005116
 31
-0.0000000000000677
210
0.0
220
1.0
230
-0.0000000000000002
  0
LINE
  5
1207
  8
0
  6
VERDECKT
 62
     1
 10
33.9123553972578975
 20
0.1984555753427506
 30
0.0
 11
35.4999999999997797
 21
-0.0000000000000052
 31
0.0
210
0.0
220
1.0
230
-0.0000000000000002
  0
LINE
  5
1208
  8
0
  6
VERDECKT
 62
     1
 10
-33.9123553972583593
 20
0.1984555753427506
 30
0.0
 11
-35.5000000000002274
 21
-0.0000000000000052
 31
0.0
210
0.0
220
1.0
230
-0.0000000000000002
  0
LINE
  5
1209
  8
0
  6
VERDECKT
 62
     1
 10
-33.9123553972583593
 20
0.1984555753427509
 30
0.0
 11
-34.9000000000003183
 21
8.0996123972772835
 31
-0.0000000000000018
210
0.0
220
1.0
230
-0.0000000000000002
  0
LINE
  5
120A
  8
0
  6
VERDECKT
 62
     1
 10
33.9123553972578975
 20
0.1984555753427509
 30
0.0
 11
34.8999999999998565
 21
8.0996123972772835
 31
-0.0000000000000018
210
0.0
220
1.0
230
-0.0000000000000002
  0
LINE
  5
120B
  8
0
  6
VERDECKT
 62
     1
 10
34.8999999999998565
 20
339.6934003354314768
 30
-0.0000000000000754
 11
34.8999999999998565
 21
8.0996123972772711
 31
-0.0000000000000018
210
0.0
220
1.0
230
-0.0000000000000002
  0
LINE
  5
120C
  8
0
  6
VERDECKT
 62
     1
 10
-34.9000000000003183
 20
339.6934003354314768
 30
-0.0000000000000754
 11
-34.9000000000003183
 21
8.0996123972772711
 31
-0.0000000000000018
210
0.0
220
1.0
230
-0.0000000000000002
  0
LINE
  5
120D
  8
0
  6
VERDECKT
 62
     1
 10
-36.5000000000003126
 20
307.0142188123820119
 30
-0.0000000000000682
 11
36.4999999999997513
 21
307.0142188123820119
 31
-0.0000000000000682
210
0.0
220
1.0
230
-0.0000000000000002
  0
LINE
  5
120E
  8
0
  6
VERDECKT
 62
     1
 10
-36.5000000000002984
 20
307.0142188123820119
 30
-0.0000000000000682
 11
-145.2090983189536075
 21
320.0000000000001137
 31
-0.0000000000000711
210
0.0
220
1.0
230
-0.0000000000000002
  0
LINE
  5
120F
  8
0
  6
VERDECKT
 62
     1
 10
36.49999999999973
 20
307.0142188123820119
 30
-0.0000000000000682
 11
145.2090983189530107
 21
320.0000000000001137
 31
-0.0000000000000711
210
0.0
220
1.0
230
-0.0000000000000002
  0
LINE
  5
1210
  8
0
  6
VERDECKT
 62
     1
 10
36.4999999999997726
 20
307.0142188123820119
 30
-0.0000000000000682
 11
36.4999999999997726
 21
305.0
 31
-0.0000000000000677
210
0.0
220
1.0
230
-0.0000000000000002
  0
LINE
  5
1211
  8
0
  6
VERDECKT
 62
     1
 10
-36.5000000000003411
 20
307.0142188123818983
 30
-0.0000000000000682
 11
-36.5000000000003411
 21
305.0000000000001137
 31
-0.0000000000000677
210
0.0
220
1.0
230
-0.0000000000000002
  0
ENDBLK
  5
1213
  8
0
  0
BLOCK
  8
0
  2
*U11
 70
     1
 10
0.0
 20
0.0
 30
0.0
  3
*U11
  1

  0
CIRCLE
  5
1283
  8
STEMPEL
 10
-278.4872686429919213
 20
-570.5978536953311959
 30
520.0
 40
34.8999999999999773
  0
CIRCLE
  5
1284
  8
STEMPEL
 10
-278.4872686429919213
 20
-570.5978536953311959
 30
525.0
 40
34.8999999999999773
  0
CIRCLE
  5
1285
  8
STEMPEL
 10
278.4872686429919213
 20
-570.5978536953311959
 30
-520.0
 40
36.5
210
0.0
220
0.0
230
-1.0
  0
CIRCLE
  5
1286
  8
STEMPEL
 10
-278.4872686429919213
 20
-570.5978536953311959
 30
525.0
 40
36.5
  0
CIRCLE
  5
1287
  8
STEMPEL
 10
278.4872686429919213
 20
-570.5978536953311959
 30
-520.0
 40
34.8999999999999773
210
0.0
220
0.0
230
-1.0
  0
CIRCLE
  5
1288
  8
STEMPEL
 10
278.4872686429919213
 20
-570.5978536953311959
 30
-520.0
 40
36.5
210
0.0
220
0.0
230
-1.0
  0
CIRCLE
  5
1289
  8
STEMPEL
 10
-278.4872686429919213
 20
-570.5978536953311959
 30
584.646944582183778
 40
39.7576946759155589
  0
CIRCLE
  5
128A
  8
STEMPEL
 10
-278.4872686429919213
 20
-570.5978536953311959
 30
585.3065996645684663
 40
39.4500924592585989
  0
CIRCLE
  5
128B
  8
STEMPEL
 10
-278.4872686429919213
 20
-570.5978536953311959
 30
574.0814880386648156
 40
42.1000000000000227
  0
CIRCLE
  5
128C
  8
STEMPEL
 10
-278.4872686429919213
 20
-570.5978536953311959
 30
584.646944582183778
 40
39.7576946759155589
  0
CIRCLE
  5
128D
  8
STEMPEL
 10
-278.4872686429919213
 20
-570.5978536953311959
 30
570.0748797127548642
 40
42.1000000000000227
  0
CIRCLE
  5
128E
  8
STEMPEL
 10
-278.4872686429919213
 20
-570.5978536953311959
 30
574.0814880386648156
 40
42.1000000000000227
  0
CIRCLE
  5
128F
  8
STEMPEL
 10
-278.4872686429919213
 20
-570.5978536953311959
 30
560.9728049531811394
 40
40.4108390084413713
  0
CIRCLE
  5
1290
  8
STEMPEL
 10
-278.4872686429919213
 20
-570.5978536953311959
 30
570.0748797127548642
 40
42.1000000000000227
  0
CIRCLE
  5
1291
  8
STEMPEL
 10
-278.4872686429919213
 20
-570.5978536953311959
 30
556.6365996645696441
 40
39.6000000000000227
  0
CIRCLE
  5
1292
  8
STEMPEL
 10
-278.4872686429919213
 20
-570.5978536953311959
 30
560.9728049531811394
 40
40.4108390084413713
  0
CIRCLE
  5
1293
  8
STEMPEL
 10
-278.4872686429919213
 20
-570.5978536953311959
 30
535.6953260819835805
 40
39.6000000000000227
  0
CIRCLE
  5
1294
  8
STEMPEL
 10
-278.4872686429919213
 20
-570.5978536953311959
 30
556.6365996645696441
 40
39.6000000000000227
  0
CIRCLE
  5
1295
  8
STEMPEL
 10
-278.4872686429919213
 20
-570.5978536953311959
 30
529.2781304327932048
 40
37.7400000000005775
  0
CIRCLE
  5
1296
  8
STEMPEL
 10
-278.4872686429919213
 20
-570.5978536953311959
 30
535.6953260819835805
 40
39.6000000000000227
  0
CIRCLE
  5
1297
  8
STEMPEL
 10
-278.4872686429919213
 20
-570.5978536953311959
 30
525.0
 40
36.5
  0
CIRCLE
  5
1298
  8
STEMPEL
 10
-278.4872686429919213
 20
-570.5978536953311959
 30
529.2781304327932048
 40
37.7400000000005775
  0
CIRCLE
  5
1299
  8
STEMPEL
 10
-278.4872686429919213
 20
-570.5978536953311959
 30
530.1337565193531418
 40
36.3880000000000265
  0
CIRCLE
  5
129A
  8
STEMPEL
 10
-278.4872686429919213
 20
-570.5978536953311959
 30
525.0
 40
34.8999999999999773
  0
CIRCLE
  5
129B
  8
STEMPEL
 10
-278.4872686429919213
 20
-570.5978536953311959
 30
535.6953260819857405
 40
38.0
  0
CIRCLE
  5
129C
  8
STEMPEL
 10
-278.4872686429919213
 20
-570.5978536953311959
 30
530.1337565193531418
 40
36.3880000000000265
  0
CIRCLE
  5
129D
  8
STEMPEL
 10
-278.4872686429919213
 20
-570.5978536953311959
 30
556.6365996645702126
 40
38.0000000000001066
  0
CIRCLE
  5
129E
  8
STEMPEL
 10
-278.4872686429919213
 20
-570.5978536953311959
 30
535.6953260819857405
 40
38.0
  0
CIRCLE
  5
129F
  8
STEMPEL
 10
-278.4872686429919213
 20
-570.5978536953311959
 30
561.5509656583300284
 40
38.91895087623368
  0
CIRCLE
  5
12A0
  8
STEMPEL
 10
-278.4872686429919213
 20
-570.5978536953311959
 30
556.6365996645702126
 40
38.0000000000001066
  0
CIRCLE
  5
12A1
  8
STEMPEL
 10
-278.4872686429919213
 20
-570.5978536953311959
 30
570.0726586304938337
 40
40.4999999999999929
  0
CIRCLE
  5
12A2
  8
STEMPEL
 10
-278.4872686429919213
 20
-570.5978536953311959
 30
561.5509656583300284
 40
38.91895087623368
  0
CIRCLE
  5
12A3
  8
STEMPEL
 10
-278.4872686429919213
 20
-570.5978536953311959
 30
574.0814880386647019
 40
40.4999999999999929
  0
CIRCLE
  5
12A4
  8
STEMPEL
 10
-278.4872686429919213
 20
-570.5978536953311959
 30
570.0726586304938337
 40
40.4999999999999929
  0
CIRCLE
  5
12A5
  8
STEMPEL
 10
-278.4872686429919213
 20
-570.5978536953311959
 30
583.9707553633985526
 40
38.3076022166569601
  0
CIRCLE
  5
12A6
  8
STEMPEL
 10
-278.4872686429919213
 20
-570.5978536953311959
 30
574.0814880386647019
 40
40.4999999999999929
  0
CIRCLE
  5
12A7
  8
STEMPEL
 10
-278.4872686429919213
 20
-570.5978536953311959
 30
584.6304104457833546
 40
38.0
  0
CIRCLE
  5
12A8
  8
STEMPEL
 10
-278.4872686429919213
 20
-570.5978536953311959
 30
583.9707553633985526
 40
38.3076022166569601
  0
CIRCLE
  5
12A9
  8
STEMPEL
 10
-278.4872686429919213
 20
-570.5978536953311959
 30
585.3065996645684663
 40
39.4500924592585989
  0
CIRCLE
  5
12AA
  8
STEMPEL
 10
-278.4872686429919213
 20
-570.5978536953311959
 30
584.6304104457833546
 40
38.0
  0
ENDBLK
  5
12AC
  8
0
  0
BLOCK
  8
0
  2
*U12
 70
     1
 10
0.0
 20
0.0
 30
0.0
  3
*U12
  1

  0
CIRCLE
  5
12B4
  8
STEMPEL
 10
278.4872686429919213
 20
-570.5978536953310822
 30
77.0000000000000142
 40
36.5000000000001066
210
0.0
220
-0.0000000000000001
230
-1.0
  0
CIRCLE
  5
12B5
  8
STEMPEL
 10
278.4872686429919213
 20
-570.5978536953310822
 30
75.0000000000000284
 40
36.5000000000001066
210
0.0
220
-0.0000000000000001
230
-1.0
  0
CIRCLE
  5
12B6
  8
STEMPEL
 10
278.4872686429919213
 20
-570.5978536953310822
 30
85.0000000000000284
 40
35.5
210
0.0
220
-0.0000000000000001
230
-1.0
  0
CIRCLE
  5
12B7
  8
STEMPEL
 10
278.4872686429919213
 20
-570.5978536953310822
 30
77.0000000000000142
 40
36.5000000000001066
210
0.0
220
-0.0000000000000001
230
-1.0
  0
CIRCLE
  5
12B8
  8
STEMPEL
 10
278.4872686429919213
 20
-570.5978536953310822
 30
84.8015444246572798
 40
33.9123553972581178
210
0.0
220
-0.0000000000000001
230
-1.0
  0
CIRCLE
  5
12B9
  8
STEMPEL
 10
278.4872686429919213
 20
-570.5978536953310822
 30
85.0000000000000284
 40
35.5
210
0.0
220
-0.0000000000000001
230
-1.0
  0
CIRCLE
  5
12BA
  8
STEMPEL
 10
278.4872686429919213
 20
-570.5978536953310822
 30
76.9003876027227449
 40
34.9000000000000909
210
0.0
220
-0.0000000000000001
230
-1.0
  0
CIRCLE
  5
12BB
  8
STEMPEL
 10
278.4872686429919213
 20
-570.5978536953310822
 30
84.8015444246572798
 40
33.9123553972581178
210
0.0
220
-0.0000000000000001
230
-1.0
  0
CIRCLE
  5
12BC
  8
STEMPEL
 10
278.4872686429919213
 20
-570.5978536953310822
 30
75.0000000000000284
 40
34.9000000000000909
210
0.0
220
-0.0000000000000001
230
-1.0
  0
CIRCLE
  5
12BD
  8
STEMPEL
 10
278.4872686429919213
 20
-570.5978536953310822
 30
76.9003876027227449
 40
34.9000000000000909
210
0.0
220
-0.0000000000000001
230
-1.0
  0
CIRCLE
  5
12BE
  8
STEMPEL
 10
-278.4872686429919213
 20
-570.5978536953310822
 30
-75.0
 40
36.5000000000001066
  0
CIRCLE
  5
12BF
  8
STEMPEL
 10
-278.4872686429919213
 20
-570.5978536953310822
 30
-75.0
 40
34.9000000000000909
  0
ENDBLK
  5
12C1
  8
0
  0
ENDSEC
  0
SECTION
  2
ENTITIES
  0
TEXT
  5
8F
  8
VOLL
 10
78.076754716981128
 20
31.025947764705851
 30
0.0
 40
1.8
  1

  7
GREEKS
  0
INSERT
  5
11CD
  8
STEMPEL
  2
A$C1681773C
 10
0.0
 20
-200.0
 30
0.0
  0
INSERT
  5
1214
  8
STEMPEL
  2
A$C02071E12
 10
0.0
 20
0.0
 30
0.0
  0
ENDSEC
  0
EOF
