  0
SECTION
  2
HEADER
  9
$ACADVER
  1
AC1009
  9
$INSBASE
 10
0.0
 20
0.0
 30
0.0
  9
$EXTMIN
 10
-150.0000000814326881
 20
-149.9999252326728936
 30
-0.0000000013970007
  9
$EXTMAX
 10
149.9999991505237062
 20
202.9999997318655005
 30
-0.0000000013970007
  9
$LIMMIN
 10
0.0
 20
0.0
  9
$LIMMAX
 10
12.0
 20
9.0
  9
$ORTHOMODE
 70
     1
  9
$REGENMODE
 70
     1
  9
$FILLMODE
 70
     1
  9
$QTEXTMODE
 70
     0
  9
$MIRRTEXT
 70
     0
  9
$DRAGMODE
 70
     2
  9
$LTSCALE
 40
1.0
  9
$OSMODE
 70
   511
  9
$ATTMODE
 70
     1
  9
$TEXTSIZE
 40
0.2
  9
$TRACEWID
 40
0.05
  9
$TEXTSTYLE
  7
STANDARD
  9
$CLAYER
  8
0
  9
$CELTYPE
  6
BYLAYER
  9
$CECOLOR
 62
   256
  9
$DIMSCALE
 40
1.0
  9
$DIMASZ
 40
0.18
  9
$DIMEXO
 40
0.0625
  9
$DIMDLI
 40
0.38
  9
$DIMRND
 40
0.0
  9
$DIMDLE
 40
0.0
  9
$DIMEXE
 40
0.18
  9
$DIMTP
 40
0.0
  9
$DIMTM
 40
0.0
  9
$DIMTXT
 40
0.18
  9
$DIMCEN
 40
0.09
  9
$DIMTSZ
 40
0.0
  9
$DIMTOL
 70
     0
  9
$DIMLIM
 70
     0
  9
$DIMTIH
 70
     1
  9
$DIMTOH
 70
     1
  9
$DIMSE1
 70
     0
  9
$DIMSE2
 70
     0
  9
$DIMTAD
 70
     0
  9
$DIMZIN
 70
     0
  9
$DIMBLK
  1

  9
$DIMASO
 70
     1
  9
$DIMSHO
 70
     1
  9
$DIMPOST
  1

  9
$DIMAPOST
  1

  9
$DIMALT
 70
     0
  9
$DIMALTD
 70
     2
  9
$DIMALTF
 40
25.3999999999999986
  9
$DIMLFAC
 40
1.0
  9
$DIMTOFL
 70
     0
  9
$DIMTVP
 40
0.0
  9
$DIMTIX
 70
     0
  9
$DIMSOXD
 70
     0
  9
$DIMSAH
 70
     0
  9
$DIMBLK1
  1

  9
$DIMBLK2
  1

  9
$DIMSTYLE
  2
STANDARD
  9
$DIMCLRD
 70
     0
  9
$DIMCLRE
 70
     0
  9
$DIMCLRT
 70
     0
  9
$DIMTFAC
 40
1.0
  9
$DIMGAP
 40
0.09
  9
$LUNITS
 70
     2
  9
$LUPREC
 70
     4
  9
$SKETCHINC
 40
0.1
  9
$FILLETRAD
 40
0.0
  9
$AUNITS
 70
     0
  9
$AUPREC
 70
     0
  9
$MENU
  1
.
  9
$ELEVATION
 40
0.0
  9
$PELEVATION
 40
0.0
  9
$THICKNESS
 40
0.0
  9
$LIMCHECK
 70
     0
  9
$BLIPMODE
 70
     0
  9
$CHAMFERA
 40
0.0
  9
$CHAMFERB
 40
0.0
  9
$SKPOLY
 70
     0
  9
$TDCREATE
 40
2460584.3396759261377156
  9
$TDUPDATE
 40
2460584.3408912038430572
  9
$TDINDWG
 40
0.0011111111
  9
$TDUSRTIMER
 40
0.0011111111
  9
$USRTIMER
 70
     1
  9
$ANGBASE
 50
0.0
  9
$ANGDIR
 70
     0
  9
$PDMODE
 70
     0
  9
$PDSIZE
 40
0.0
  9
$PLINEWID
 40
0.0
  9
$COORDS
 70
     1
  9
$SPLFRAME
 70
     0
  9
$SPLINETYPE
 70
     6
  9
$SPLINESEGS
 70
     8
  9
$ATTDIA
 70
     1
  9
$ATTREQ
 70
     1
  9
$HANDLING
 70
     1
  9
$HANDSEED
  5
662
  9
$SURFTAB1
 70
     6
  9
$SURFTAB2
 70
     6
  9
$SURFTYPE
 70
     6
  9
$SURFU
 70
     6
  9
$SURFV
 70
     6
  9
$UCSNAME
  2

  9
$UCSORG
 10
0.0
 20
0.0
 30
0.0
  9
$UCSXDIR
 10
1.0
 20
0.0
 30
0.0
  9
$UCSYDIR
 10
0.0
 20
1.0
 30
0.0
  9
$PUCSNAME
  2

  9
$PUCSORG
 10
0.0
 20
0.0
 30
0.0
  9
$PUCSXDIR
 10
1.0
 20
0.0
 30
0.0
  9
$PUCSYDIR
 10
0.0
 20
1.0
 30
0.0
  9
$USERI1
 70
     0
  9
$USERI2
 70
     0
  9
$USERI3
 70
     0
  9
$USERI4
 70
     0
  9
$USERI5
 70
     0
  9
$USERR1
 40
0.0
  9
$USERR2
 40
0.0
  9
$USERR3
 40
0.0
  9
$USERR4
 40
0.0
  9
$USERR5
 40
0.0
  9
$WORLDVIEW
 70
     1
  9
$SHADEDGE
 70
     3
  9
$SHADEDIF
 70
    70
  9
$TILEMODE
 70
     1
  9
$MAXACTVP
 70
    64
  9
$PLIMCHECK
 70
     0
  9
$PEXTMIN
 10
1.0000000000000000E+20
 20
1.0000000000000000E+20
 30
1.0000000000000000E+20
  9
$PEXTMAX
 10
-1.0000000000000000E+20
 20
-1.0000000000000000E+20
 30
-1.0000000000000000E+20
  9
$PLIMMIN
 10
0.0
 20
0.0
  9
$PLIMMAX
 10
12.0
 20
9.0
  9
$UNITMODE
 70
     0
  9
$VISRETAIN
 70
     1
  9
$PLINEGEN
 70
     0
  9
$PSLTSCALE
 70
     1
  0
ENDSEC
  0
SECTION
  2
TABLES
  0
TABLE
  2
VPORT
 70
     1
  0
VPORT
  2
*ACTIVE
 70
     0
 10
0.0
 20
0.0
 11
1.0
 21
1.0
 12
-0.0000004654545194
 22
26.5000372495962893
 13
0.0
 23
0.0
 14
1.0
 24
1.0
 15
0.0
 25
0.0
 16
-0.0000000000002439
 26
0.0
 36
1098.3285109789640046
 17
0.0
 27
0.0
 37
-0.0000000000000007
 40
354.8195122066236991
 41
1.8847807394668949
 42
50.0
 43
0.0
 44
0.0
 50
0.0
 51
0.0
 71
     0
 72
   100
 73
     1
 74
     1
 75
     0
 76
     0
 77
     0
 78
     0
  0
ENDTAB
  0
TABLE
  2
LTYPE
 70
    47
  0
LTYPE
  2
CONTINUOUS
 70
     0
  3
Solid line
 72
    65
 73
     0
 40
0.0
  0
LTYPE
  2
VERDECKT
 70
     0
  3
Verdeckt __ __ __ __ __ __ __ __ __ __ __ __ __
 72
    65
 73
     2
 40
9.5249999999999986
 49
6.3499999999999988
 49
-3.1749999999999989
  0
ENDTAB
  0
TABLE
  2
LAYER
 70
     3
  0
LAYER
  2
0
 70
     0
 62
     7
  6
CONTINUOUS
  0
ENDTAB
  0
TABLE
  2
STYLE
 70
     4
  0
STYLE
  2
STANDARD
 70
     0
 40
0.0
 41
1.0
 50
0.0
 71
     0
 42
0.2
  3
txt
  4

  0
ENDTAB
  0
TABLE
  2
VIEW
 70
     1
  0
ENDTAB
  0
TABLE
  2
UCS
 70
     0
  0
ENDTAB
  0
TABLE
  2
APPID
 70
    13
  0
APPID
  2
ACAD
 70
     0
  0
APPID
  2
ACADANNOTATIVE
 70
     0
  0
APPID
  2
ACAD_MATERIAL_MAPPER
 70
     0
  0
APPID
  2
ACAD_MATERIAL_MAPPER_2
 70
     0
  0
APPID
  2
ACAD_NAV_VCDISPLAY
 70
     0
  0
APPID
  2
ACAD_PSEXT
 70
     0
  0
APPID
  2
ACAECLAYERSTANDARD
 70
     0
  0
APPID
  2
ACCMTRANSPARENCY
 70
     0
  0
APPID
  2
ACAD_STEPID
 70
     0
  0
APPID
  2
ACAD_DSTYLE_DIMJAG
 70
     0
  0
APPID
  2
ACAD_DSTYLE_DIMBREAK
 70
     0
  0
APPID
  2
ACAD_DSTYLE_DIMTALN
 70
     0
  0
APPID
  2
ACAD_MLEADERVER
 70
     0
  0
ENDTAB
  0
TABLE
  2
DIMSTYLE
 70
     4
  0
DIMSTYLE
  2
STANDARD
 70
     0
  3

  4

  5

  6

  7

 40
1.0
 41
0.18
 42
0.0625
 43
0.38
 44
0.18
 45
0.0
 46
0.0
 47
0.0
 48
0.0
140
0.18
141
0.09
142
0.0
143
25.3999999999999986
144
1.0
145
0.0
146
1.0
147
0.09
 71
     0
 72
     0
 73
     1
 74
     1
 75
     0
 76
     0
 77
     0
 78
     0
170
     0
171
     2
172
     0
173
     0
174
     0
175
     0
176
     0
177
     0
178
     0
  0
ENDTAB
  0
ENDSEC
  0
SECTION
  2
BLOCKS
  0
BLOCK
  8
0
  2
$MODEL_SPACE
 70
     0
 10
0.0
 20
0.0
 30
0.0
  3
$MODEL_SPACE
  1

  0
ENDBLK
  5
72
  8
0
  0
BLOCK
 67
     1
  8
0
  2
$PAPER_SPACE
 70
     0
 10
0.0
 20
0.0
 30
0.0
  3
$PAPER_SPACE
  1

  0
ENDBLK
  5
6E
 67
     1
  8
0
  0
BLOCK
  8
0
  2
A$C01004946
 70
     0
 10
0.0
 20
0.0
 30
0.0
  3
A$C01004946
  1

  0
ARC
  5
10E
  8
0
  6
CONTINUOUS
 62
     3
 10
-0.2500000000000036
 20
-98.9000000000032742
 30
-0.0000000000000001
 40
0.099999999999971
 50
0.0
 51
90.0000000000052154
  0
LINE
  5
10F
  8
0
  6
CONTINUOUS
 62
     3
 10
-0.250000000000014
 20
-98.8000000000000256
 30
-0.0000000000000001
 11
-3.9259147702121409
 21
-98.8000000000000398
 31
-0.0000000000000009
  0
ARC
  5
110
  8
0
  6
CONTINUOUS
 62
     3
 10
-3.9259147702121422
 20
-98.9000000000000057
 30
-0.0000000000000009
 40
0.0999999999999517
 50
89.999999999998721
 51
142.0201275551482922
  0
ARC
  5
111
  8
0
  6
CONTINUOUS
 62
     3
 10
-7.0000000000000009
 20
-96.5
 30
-0.0000000000000016
 40
3.8000000000000029
 50
37.9798724448523117
 51
322.0201275551477238
  0
ARC
  5
112
  8
0
  6
CONTINUOUS
 62
     3
 10
-3.9259147702121431
 20
-94.0999999999999943
 30
-0.0000000000000009
 40
0.0999999999999531
 50
217.9798724448521057
 51
270.0000000000017053
  0
LINE
  5
113
  8
0
  6
CONTINUOUS
 62
     3
 10
-3.9259147702121409
 20
-94.1999999999999744
 30
-0.0000000000000009
 11
-0.2500000000000142
 21
-94.1999999999999886
 31
-0.0000000000000001
  0
ARC
  5
114
  8
0
  6
CONTINUOUS
 62
     3
 10
-0.250000000000003
 20
-94.0999999999967258
 30
-0.0000000000000001
 40
0.0999999999999801
 50
270.0
 51
0.0000000000052543
  0
LINE
  5
115
  8
0
  6
CONTINUOUS
 62
     3
 10
-0.1499999999999901
 20
-94.0999999999967258
 30
0.0
 11
-0.1500000000000134
 21
-42.4997352932932984
 31
0.0
  0
LINE
  5
116
  8
0
  6
CONTINUOUS
 62
     3
 10
0.1499999999999812
 20
-42.4997352932932984
 30
0.0
 11
0.1499999999997122
 21
-94.2999999999999687
 31
0.0
  0
LINE
  5
117
  8
0
  6
CONTINUOUS
 62
     3
 10
0.1499999999999917
 20
-124.5
 30
0.0
 11
-0.1500000000000055
 21
-124.4999999999999005
 31
-0.0000000000000001
  0
LINE
  5
118
  8
0
  6
CONTINUOUS
 62
     3
 10
-0.1500000000000031
 20
-124.4999999999999005
 30
0.0
 11
-0.1499999999999873
 21
-98.9000000000032742
 31
0.0
  0
ARC
  5
119
  8
0
  6
CONTINUOUS
 62
     3
 10
-0.0500000000003123
 20
-94.2999999999999829
 30
0.0
 40
0.1999999999999968
 50
269.9999999999990905
 51
0.0000000000040711
  0
LINE
  5
11A
  8
0
  6
CONTINUOUS
 62
     3
 10
-0.0500000000003131
 20
-94.4999999999999289
 30
0.0
 11
-3.9259147702121342
 21
-94.4999999999999858
 31
-0.0000000000000009
  0
ARC
  5
11B
  8
0
  6
CONTINUOUS
 62
     3
 10
-3.9259147702121169
 20
-94.0999999999999375
 30
-0.0000000000000009
 40
0.4000000000000484
 50
217.9798724448600922
 51
270.0
  0
ARC
  5
11C
  8
0
  6
CONTINUOUS
 62
     3
 10
-7.0000000000000009
 20
-96.5
 30
-0.0000000000000016
 40
3.4999999999999951
 50
37.979872444852198
 51
322.0201275551473259
  0
ARC
  5
11D
  8
0
  6
CONTINUOUS
 62
     3
 10
-3.92591477021214
 20
-98.9000000000000057
 30
-0.0000000000000009
 40
0.3999999999999911
 50
90.0
 51
142.0201275551522997
  0
LINE
  5
11E
  8
0
  6
CONTINUOUS
 62
     3
 10
-3.9259147702121382
 20
-98.5000000000000284
 30
-0.0000000000000009
 11
-0.0500000000003134
 21
-98.5000000000000142
 31
0.0
  0
ARC
  5
11F
  8
0
  6
CONTINUOUS
 62
     3
 10
-0.0500000000003108
 20
-98.7000000000000028
 30
0.0
 40
0.1999999999999886
 50
359.9999999999959073
 51
90.0000000000008953
  0
LINE
  5
120
  8
0
  6
CONTINUOUS
 62
     3
 10
0.149999999999712
 20
-98.7000000000000171
 30
0.0
 11
0.1499999999999974
 21
-124.5
 31
0.0
  0
ARC
  5
121
  8
0
  6
CONTINUOUS
 62
     3
 10
-0.0500000000003107
 20
98.7000000000000028
 30
0.0
 40
0.1999999999999967
 50
269.9999999999990905
 51
0.0000000000040711
  0
LINE
  5
122
  8
0
  6
CONTINUOUS
 62
     3
 10
-0.0500000000003167
 20
98.5000000000000142
 30
0.0
 11
-3.9259147702121409
 21
98.5000000000000142
 31
-0.0000000000000009
  0
ARC
  5
123
  8
0
  6
CONTINUOUS
 62
     3
 10
-3.92591477021214
 20
98.9000000000000057
 30
-0.0000000000000009
 40
0.3999999999999915
 50
217.9798724448477003
 51
270.0
  0
ARC
  5
124
  8
0
  6
CONTINUOUS
 62
     3
 10
-7.0000000000000009
 20
96.5
 30
-0.0000000000000016
 40
3.4999999999999978
 50
37.9798724448527381
 51
322.0201275551477806
  0
ARC
  5
125
  8
0
  6
CONTINUOUS
 62
     3
 10
-3.9259147702121169
 20
94.0999999999999375
 30
-0.0000000000000009
 40
0.4000000000000478
 50
90.0000000000032259
 51
142.0201275551430911
  0
LINE
  5
126
  8
0
  6
CONTINUOUS
 62
     3
 10
-3.9259147702121409
 20
94.4999999999999858
 30
-0.0000000000000009
 11
-0.0500000000003134
 21
94.4999999999999432
 31
0.0
  0
ARC
  5
127
  8
0
  6
CONTINUOUS
 62
     3
 10
-0.0500000000003123
 20
94.2999999999999829
 30
0.0
 40
0.1999999999999886
 50
359.9999999999959073
 51
90.0000000000008953
  0
LINE
  5
128
  8
0
  6
CONTINUOUS
 62
     3
 10
0.1499999999997128
 20
94.2999999999999687
 30
0.0
 11
0.1499999999999818
 21
42.4997352932932984
 31
0.0
  0
LINE
  5
129
  8
0
  6
CONTINUOUS
 62
     3
 10
-0.1500000000000119
 20
42.4997352932932984
 30
0.0
 11
-0.1499999999999886
 21
94.0999999999967258
 31
0.0
  0
ARC
  5
12A
  8
0
  6
CONTINUOUS
 62
     3
 10
-0.250000000000003
 20
94.0999999999967258
 30
-0.0000000000000001
 40
0.099999999999971
 50
0.0
 51
90.0000000000052864
  0
LINE
  5
12B
  8
0
  6
CONTINUOUS
 62
     3
 10
-0.250000000000014
 20
94.1999999999999886
 30
-0.0000000000000001
 11
-3.9259147702121449
 21
94.1999999999999744
 31
-0.0000000000000009
  0
ARC
  5
12C
  8
0
  6
CONTINUOUS
 62
     3
 10
-3.9259147702121431
 20
94.0999999999999943
 30
-0.0000000000000009
 40
0.0999999999999517
 50
89.9999999999982236
 51
142.0201275551478091
  0
ARC
  5
12D
  8
0
  6
CONTINUOUS
 62
     3
 10
-7.0
 20
96.5
 30
-0.0000000000000016
 40
3.800000000000002
 50
37.9798724448523117
 51
322.0201275551477238
  0
ARC
  5
12E
  8
0
  6
CONTINUOUS
 62
     3
 10
-3.9259147702121422
 20
98.9000000000000057
 30
-0.0000000000000009
 40
0.0999999999999541
 50
217.9798724448517078
 51
270.0000000000013074
  0
LINE
  5
12F
  8
0
  6
CONTINUOUS
 62
     3
 10
-3.9259147702121382
 20
98.8000000000000256
 30
-0.0000000000000009
 11
-0.2500000000000107
 21
98.7999999999999972
 31
-0.0000000000000001
  0
ARC
  5
130
  8
0
  6
CONTINUOUS
 62
     3
 10
-0.2500000000000035
 20
98.9000000000032742
 30
-0.0000000000000001
 40
0.0999999999999801
 50
270.0
 51
0.0000000000052543
  0
LINE
  5
131
  8
0
  6
CONTINUOUS
 62
     3
 10
-0.1499999999999882
 20
98.9000000000032742
 30
0.0
 11
-0.1500000000000041
 21
124.4999999999999005
 31
0.0
  0
LINE
  5
132
  8
0
  6
CONTINUOUS
 62
     3
 10
-0.1500000000000055
 20
124.4999999999999005
 30
0.0
 11
0.1499999999999917
 21
124.5
 31
0.0000000000000001
  0
LINE
  5
133
  8
0
  6
CONTINUOUS
 62
     3
 10
0.1499999999999891
 20
124.5
 30
0.0
 11
0.1499999999997037
 21
98.7000000000000171
 31
0.0
  0
LINE
  5
134
  8
0
  6
CONTINUOUS
 62
     3
 10
-0.1500000000000221
 20
-146.4643892836076873
 30
0.0
 11
-0.1500000000000046
 21
-125.4999999999999005
 31
0.0
  0
POLYLINE
  8
0
  5
1D6
  62
3
  66
     1
 10
0.000000
 20
0.000000
 30
0.000000
  70
     8
  0
VERTEX
  8
0
  5
1D7
 10
-0.150000
 20
-147.879
 30
0.000000
  70
    32
  0
VERTEX
  8
0
  5
1D8
 10
-0.150000
 20
-147.873
 30
0.000000
  70
    32
  0
VERTEX
  8
0
  5
1D9
 10
-0.150000
 20
-147.868
 30
0.000000
  70
    32
  0
VERTEX
  8
0
  5
1DA
 10
-0.150000
 20
-147.862
 30
0.000000
  70
    32
  0
VERTEX
  8
0
  5
1DB
 10
-0.150000
 20
-147.856
 30
0.000000
  70
    32
  0
VERTEX
  8
0
  5
1DC
 10
-0.150000
 20
-147.851
 30
0.000000
  70
    32
  0
VERTEX
  8
0
  5
1DD
 10
-0.150000
 20
-147.845
 30
0.000000
  70
    32
  0
VERTEX
  8
0
  5
1DE
 10
-0.150000
 20
-147.839
 30
0.000000
  70
    32
  0
VERTEX
  8
0
  5
1DF
 10
-0.150000
 20
-147.833
 30
0.000000
  70
    32
  0
VERTEX
  8
0
  5
1E0
 10
-0.150000
 20
-147.827
 30
0.000000
  70
    32
  0
VERTEX
  8
0
  5
1E1
 10
-0.150000
 20
-147.822
 30
0.000000
  70
    32
  0
VERTEX
  8
0
  5
1E2
 10
-0.150000
 20
-147.816
 30
0.000000
  70
    32
  0
VERTEX
  8
0
  5
1E3
 10
-0.150000
 20
-147.810
 30
0.000000
  70
    32
  0
VERTEX
  8
0
  5
1E4
 10
-0.150000
 20
-147.804
 30
0.000000
  70
    32
  0
VERTEX
  8
0
  5
1E5
 10
-0.150000
 20
-147.798
 30
0.000000
  70
    32
  0
VERTEX
  8
0
  5
1E6
 10
-0.150000
 20
-147.791
 30
0.000000
  70
    32
  0
VERTEX
  8
0
  5
1E7
 10
-0.150000
 20
-147.785
 30
0.000000
  70
    32
  0
VERTEX
  8
0
  5
1E8
 10
-0.150000
 20
-147.779
 30
0.000000
  70
    32
  0
VERTEX
  8
0
  5
1E9
 10
-0.150000
 20
-147.773
 30
0.000000
  70
    32
  0
VERTEX
  8
0
  5
1EA
 10
-0.150000
 20
-147.767
 30
0.000000
  70
    32
  0
VERTEX
  8
0
  5
1EB
 10
-0.150000
 20
-147.760
 30
0.000000
  70
    32
  0
VERTEX
  8
0
  5
1EC
 10
-0.150000
 20
-147.754
 30
0.000000
  70
    32
  0
VERTEX
  8
0
  5
1ED
 10
-0.150000
 20
-147.748
 30
0.000000
  70
    32
  0
VERTEX
  8
0
  5
1EE
 10
-0.150000
 20
-147.741
 30
0.000000
  70
    32
  0
VERTEX
  8
0
  5
1EF
 10
-0.150000
 20
-147.735
 30
0.000000
  70
    32
  0
VERTEX
  8
0
  5
1F0
 10
-0.150000
 20
-147.728
 30
0.000000
  70
    32
  0
VERTEX
  8
0
  5
1F1
 10
-0.150000
 20
-147.722
 30
0.000000
  70
    32
  0
VERTEX
  8
0
  5
1F2
 10
-0.150000
 20
-147.715
 30
0.000000
  70
    32
  0
VERTEX
  8
0
  5
1F3
 10
-0.150000
 20
-147.709
 30
0.000000
  70
    32
  0
VERTEX
  8
0
  5
1F4
 10
-0.150000
 20
-147.702
 30
0.000000
  70
    32
  0
VERTEX
  8
0
  5
1F5
 10
-0.150000
 20
-147.696
 30
0.000000
  70
    32
  0
VERTEX
  8
0
  5
1F6
 10
-0.150000
 20
-147.689
 30
0.000000
  70
    32
  0
VERTEX
  8
0
  5
1F7
 10
-0.150000
 20
-147.682
 30
0.000000
  70
    32
  0
VERTEX
  8
0
  5
1F8
 10
-0.150000
 20
-147.676
 30
0.000000
  70
    32
  0
VERTEX
  8
0
  5
1F9
 10
-0.150000
 20
-147.669
 30
0.000000
  70
    32
  0
VERTEX
  8
0
  5
1FA
 10
-0.150000
 20
-147.662
 30
0.000000
  70
    32
  0
VERTEX
  8
0
  5
1FB
 10
-0.150000
 20
-147.655
 30
0.000000
  70
    32
  0
VERTEX
  8
0
  5
1FC
 10
-0.150000
 20
-147.649
 30
0.000000
  70
    32
  0
VERTEX
  8
0
  5
1FD
 10
-0.150000
 20
-147.642
 30
0.000000
  70
    32
  0
VERTEX
  8
0
  5
1FE
 10
-0.150000
 20
-147.635
 30
0.000000
  70
    32
  0
VERTEX
  8
0
  5
1FF
 10
-0.150000
 20
-147.628
 30
0.000000
  70
    32
  0
VERTEX
  8
0
  5
200
 10
-0.150000
 20
-147.621
 30
0.000000
  70
    32
  0
VERTEX
  8
0
  5
201
 10
-0.150000
 20
-147.614
 30
0.000000
  70
    32
  0
VERTEX
  8
0
  5
202
 10
-0.150000
 20
-147.607
 30
0.000000
  70
    32
  0
VERTEX
  8
0
  5
203
 10
-0.150000
 20
-147.600
 30
0.000000
  70
    32
  0
VERTEX
  8
0
  5
204
 10
-0.150000
 20
-147.594
 30
0.000000
  70
    32
  0
VERTEX
  8
0
  5
205
 10
-0.150000
 20
-147.587
 30
0.000000
  70
    32
  0
VERTEX
  8
0
  5
206
 10
-0.150000
 20
-147.580
 30
0.000000
  70
    32
  0
VERTEX
  8
0
  5
207
 10
-0.150000
 20
-147.572
 30
0.000000
  70
    32
  0
VERTEX
  8
0
  5
208
 10
-0.150000
 20
-147.565
 30
0.000000
  70
    32
  0
VERTEX
  8
0
  5
209
 10
-0.150000
 20
-147.558
 30
0.000000
  70
    32
  0
VERTEX
  8
0
  5
20A
 10
-0.150000
 20
-147.551
 30
0.000000
  70
    32
  0
VERTEX
  8
0
  5
20B
 10
-0.150000
 20
-147.544
 30
0.000000
  70
    32
  0
VERTEX
  8
0
  5
20C
 10
-0.150000
 20
-147.537
 30
0.000000
  70
    32
  0
VERTEX
  8
0
  5
20D
 10
-0.150000
 20
-147.530
 30
0.000000
  70
    32
  0
VERTEX
  8
0
  5
20E
 10
-0.150000
 20
-147.523
 30
0.000000
  70
    32
  0
VERTEX
  8
0
  5
20F
 10
-0.150000
 20
-147.516
 30
0.000000
  70
    32
  0
VERTEX
  8
0
  5
210
 10
-0.150000
 20
-147.509
 30
0.000000
  70
    32
  0
VERTEX
  8
0
  5
211
 10
-0.150000
 20
-147.501
 30
0.000000
  70
    32
  0
VERTEX
  8
0
  5
212
 10
-0.150000
 20
-147.494
 30
0.000000
  70
    32
  0
VERTEX
  8
0
  5
213
 10
-0.150000
 20
-147.487
 30
0.000000
  70
    32
  0
VERTEX
  8
0
  5
214
 10
-0.150000
 20
-147.480
 30
0.000000
  70
    32
  0
VERTEX
  8
0
  5
215
 10
-0.150000
 20
-147.473
 30
0.000000
  70
    32
  0
VERTEX
  8
0
  5
216
 10
-0.150000
 20
-147.465
 30
0.000000
  70
    32
  0
VERTEX
  8
0
  5
217
 10
-0.150000
 20
-147.458
 30
0.000000
  70
    32
  0
VERTEX
  8
0
  5
218
 10
-0.150000
 20
-147.451
 30
0.000000
  70
    32
  0
VERTEX
  8
0
  5
219
 10
-0.150000
 20
-147.444
 30
0.000000
  70
    32
  0
VERTEX
  8
0
  5
21A
 10
-0.150000
 20
-147.436
 30
0.000000
  70
    32
  0
VERTEX
  8
0
  5
21B
 10
-0.150000
 20
-147.429
 30
0.000000
  70
    32
  0
VERTEX
  8
0
  5
21C
 10
-0.150000
 20
-147.422
 30
0.000000
  70
    32
  0
VERTEX
  8
0
  5
21D
 10
-0.150000
 20
-147.415
 30
0.000000
  70
    32
  0
VERTEX
  8
0
  5
21E
 10
-0.150000
 20
-147.407
 30
0.000000
  70
    32
  0
VERTEX
  8
0
  5
21F
 10
-0.150000
 20
-147.400
 30
0.000000
  70
    32
  0
VERTEX
  8
0
  5
220
 10
-0.150000
 20
-147.393
 30
0.000000
  70
    32
  0
VERTEX
  8
0
  5
221
 10
-0.150000
 20
-147.386
 30
0.000000
  70
    32
  0
VERTEX
  8
0
  5
222
 10
-0.150000
 20
-147.378
 30
0.000000
  70
    32
  0
VERTEX
  8
0
  5
223
 10
-0.150000
 20
-147.371
 30
0.000000
  70
    32
  0
VERTEX
  8
0
  5
224
 10
-0.150000
 20
-147.364
 30
0.000000
  70
    32
  0
VERTEX
  8
0
  5
225
 10
-0.150000
 20
-147.356
 30
0.000000
  70
    32
  0
VERTEX
  8
0
  5
226
 10
-0.150000
 20
-147.349
 30
0.000000
  70
    32
  0
VERTEX
  8
0
  5
227
 10
-0.150000
 20
-147.342
 30
0.000000
  70
    32
  0
VERTEX
  8
0
  5
228
 10
-0.150000
 20
-147.335
 30
0.000000
  70
    32
  0
VERTEX
  8
0
  5
229
 10
-0.150000
 20
-147.327
 30
0.000000
  70
    32
  0
VERTEX
  8
0
  5
22A
 10
-0.150000
 20
-147.320
 30
0.000000
  70
    32
  0
VERTEX
  8
0
  5
22B
 10
-0.150000
 20
-147.313
 30
0.000000
  70
    32
  0
VERTEX
  8
0
  5
22C
 10
-0.150000
 20
-147.306
 30
0.000000
  70
    32
  0
VERTEX
  8
0
  5
22D
 10
-0.150000
 20
-147.298
 30
0.000000
  70
    32
  0
VERTEX
  8
0
  5
22E
 10
-0.150000
 20
-147.291
 30
0.000000
  70
    32
  0
VERTEX
  8
0
  5
22F
 10
-0.150000
 20
-147.284
 30
0.000000
  70
    32
  0
VERTEX
  8
0
  5
230
 10
-0.150000
 20
-147.277
 30
0.000000
  70
    32
  0
VERTEX
  8
0
  5
231
 10
-0.150000
 20
-147.269
 30
0.000000
  70
    32
  0
VERTEX
  8
0
  5
232
 10
-0.150000
 20
-147.262
 30
0.000000
  70
    32
  0
VERTEX
  8
0
  5
233
 10
-0.150000
 20
-147.255
 30
0.000000
  70
    32
  0
VERTEX
  8
0
  5
234
 10
-0.150000
 20
-147.248
 30
0.000000
  70
    32
  0
VERTEX
  8
0
  5
235
 10
-0.150000
 20
-147.241
 30
0.000000
  70
    32
  0
VERTEX
  8
0
  5
236
 10
-0.150000
 20
-147.233
 30
0.000000
  70
    32
  0
VERTEX
  8
0
  5
237
 10
-0.150000
 20
-147.226
 30
0.000000
  70
    32
  0
VERTEX
  8
0
  5
238
 10
-0.150000
 20
-147.219
 30
0.000000
  70
    32
  0
VERTEX
  8
0
  5
239
 10
-0.150000
 20
-147.212
 30
0.000000
  70
    32
  0
VERTEX
  8
0
  5
23A
 10
-0.150000
 20
-147.204
 30
0.000000
  70
    32
  0
VERTEX
  8
0
  5
23B
 10
-0.150000
 20
-147.197
 30
0.000000
  70
    32
  0
VERTEX
  8
0
  5
23C
 10
-0.150000
 20
-147.190
 30
0.000000
  70
    32
  0
VERTEX
  8
0
  5
23D
 10
-0.150000
 20
-147.182
 30
0.000000
  70
    32
  0
VERTEX
  8
0
  5
23E
 10
-0.150000
 20
-147.175
 30
0.000000
  70
    32
  0
VERTEX
  8
0
  5
23F
 10
-0.150000
 20
-147.167
 30
0.000000
  70
    32
  0
VERTEX
  8
0
  5
240
 10
-0.150000
 20
-147.160
 30
0.000000
  70
    32
  0
VERTEX
  8
0
  5
241
 10
-0.150000
 20
-147.152
 30
0.000000
  70
    32
  0
VERTEX
  8
0
  5
242
 10
-0.150000
 20
-147.145
 30
0.000000
  70
    32
  0
VERTEX
  8
0
  5
243
 10
-0.150000
 20
-147.137
 30
0.000000
  70
    32
  0
VERTEX
  8
0
  5
244
 10
-0.150000
 20
-147.130
 30
0.000000
  70
    32
  0
VERTEX
  8
0
  5
245
 10
-0.150000
 20
-147.122
 30
0.000000
  70
    32
  0
VERTEX
  8
0
  5
246
 10
-0.150000
 20
-147.114
 30
0.000000
  70
    32
  0
VERTEX
  8
0
  5
247
 10
-0.150000
 20
-147.107
 30
0.000000
  70
    32
  0
VERTEX
  8
0
  5
248
 10
-0.150000
 20
-147.099
 30
0.000000
  70
    32
  0
VERTEX
  8
0
  5
249
 10
-0.150000
 20
-147.091
 30
0.000000
  70
    32
  0
VERTEX
  8
0
  5
24A
 10
-0.150000
 20
-147.083
 30
0.000000
  70
    32
  0
VERTEX
  8
0
  5
24B
 10
-0.150000
 20
-147.075
 30
0.000000
  70
    32
  0
VERTEX
  8
0
  5
24C
 10
-0.150000
 20
-147.067
 30
0.000000
  70
    32
  0
VERTEX
  8
0
  5
24D
 10
-0.150000
 20
-147.060
 30
0.000000
  70
    32
  0
VERTEX
  8
0
  5
24E
 10
-0.150000
 20
-147.052
 30
0.000000
  70
    32
  0
VERTEX
  8
0
  5
24F
 10
-0.150000
 20
-147.044
 30
0.000000
  70
    32
  0
VERTEX
  8
0
  5
250
 10
-0.150000
 20
-147.036
 30
0.000000
  70
    32
  0
VERTEX
  8
0
  5
251
 10
-0.150000
 20
-147.028
 30
0.000000
  70
    32
  0
VERTEX
  8
0
  5
252
 10
-0.150000
 20
-147.020
 30
0.000000
  70
    32
  0
VERTEX
  8
0
  5
253
 10
-0.150000
 20
-147.012
 30
0.000000
  70
    32
  0
VERTEX
  8
0
  5
254
 10
-0.150000
 20
-147.004
 30
0.000000
  70
    32
  0
VERTEX
  8
0
  5
255
 10
-0.150000
 20
-146.996
 30
0.000000
  70
    32
  0
VERTEX
  8
0
  5
256
 10
-0.150000
 20
-146.988
 30
0.000000
  70
    32
  0
VERTEX
  8
0
  5
257
 10
-0.150000
 20
-146.979
 30
0.000000
  70
    32
  0
VERTEX
  8
0
  5
258
 10
-0.150000
 20
-146.971
 30
0.000000
  70
    32
  0
VERTEX
  8
0
  5
259
 10
-0.150000
 20
-146.963
 30
0.000000
  70
    32
  0
VERTEX
  8
0
  5
25A
 10
-0.150000
 20
-146.955
 30
0.000000
  70
    32
  0
VERTEX
  8
0
  5
25B
 10
-0.150000
 20
-146.947
 30
0.000000
  70
    32
  0
VERTEX
  8
0
  5
25C
 10
-0.150000
 20
-146.939
 30
0.000000
  70
    32
  0
VERTEX
  8
0
  5
25D
 10
-0.150000
 20
-146.930
 30
0.000000
  70
    32
  0
VERTEX
  8
0
  5
25E
 10
-0.150000
 20
-146.922
 30
0.000000
  70
    32
  0
VERTEX
  8
0
  5
25F
 10
-0.150000
 20
-146.914
 30
0.000000
  70
    32
  0
VERTEX
  8
0
  5
260
 10
-0.150000
 20
-146.906
 30
0.000000
  70
    32
  0
VERTEX
  8
0
  5
261
 10
-0.150000
 20
-146.898
 30
0.000000
  70
    32
  0
VERTEX
  8
0
  5
262
 10
-0.150000
 20
-146.889
 30
0.000000
  70
    32
  0
VERTEX
  8
0
  5
263
 10
-0.150000
 20
-146.881
 30
0.000000
  70
    32
  0
VERTEX
  8
0
  5
264
 10
-0.150000
 20
-146.873
 30
0.000000
  70
    32
  0
VERTEX
  8
0
  5
265
 10
-0.150000
 20
-146.864
 30
0.000000
  70
    32
  0
VERTEX
  8
0
  5
266
 10
-0.150000
 20
-146.856
 30
0.000000
  70
    32
  0
VERTEX
  8
0
  5
267
 10
-0.150000
 20
-146.848
 30
0.000000
  70
    32
  0
VERTEX
  8
0
  5
268
 10
-0.150000
 20
-146.840
 30
0.000000
  70
    32
  0
VERTEX
  8
0
  5
269
 10
-0.150000
 20
-146.831
 30
0.000000
  70
    32
  0
VERTEX
  8
0
  5
26A
 10
-0.150000
 20
-146.823
 30
0.000000
  70
    32
  0
VERTEX
  8
0
  5
26B
 10
-0.150000
 20
-146.815
 30
0.000000
  70
    32
  0
VERTEX
  8
0
  5
26C
 10
-0.150000
 20
-146.806
 30
0.000000
  70
    32
  0
VERTEX
  8
0
  5
26D
 10
-0.150000
 20
-146.798
 30
0.000000
  70
    32
  0
VERTEX
  8
0
  5
26E
 10
-0.150000
 20
-146.790
 30
0.000000
  70
    32
  0
VERTEX
  8
0
  5
26F
 10
-0.150000
 20
-146.781
 30
0.000000
  70
    32
  0
VERTEX
  8
0
  5
270
 10
-0.150000
 20
-146.773
 30
0.000000
  70
    32
  0
VERTEX
  8
0
  5
271
 10
-0.150000
 20
-146.765
 30
0.000000
  70
    32
  0
VERTEX
  8
0
  5
272
 10
-0.150000
 20
-146.756
 30
0.000000
  70
    32
  0
VERTEX
  8
0
  5
273
 10
-0.150000
 20
-146.748
 30
0.000000
  70
    32
  0
VERTEX
  8
0
  5
274
 10
-0.150000
 20
-146.740
 30
0.000000
  70
    32
  0
VERTEX
  8
0
  5
275
 10
-0.150000
 20
-146.732
 30
0.000000
  70
    32
  0
VERTEX
  8
0
  5
276
 10
-0.150000
 20
-146.723
 30
0.000000
  70
    32
  0
VERTEX
  8
0
  5
277
 10
-0.150000
 20
-146.715
 30
0.000000
  70
    32
  0
VERTEX
  8
0
  5
278
 10
-0.150000
 20
-146.707
 30
0.000000
  70
    32
  0
VERTEX
  8
0
  5
279
 10
-0.150000
 20
-146.698
 30
0.000000
  70
    32
  0
VERTEX
  8
0
  5
27A
 10
-0.150000
 20
-146.690
 30
0.000000
  70
    32
  0
VERTEX
  8
0
  5
27B
 10
-0.150000
 20
-146.682
 30
0.000000
  70
    32
  0
VERTEX
  8
0
  5
27C
 10
-0.150000
 20
-146.674
 30
0.000000
  70
    32
  0
VERTEX
  8
0
  5
27D
 10
-0.150000
 20
-146.665
 30
0.000000
  70
    32
  0
VERTEX
  8
0
  5
27E
 10
-0.150000
 20
-146.657
 30
0.000000
  70
    32
  0
VERTEX
  8
0
  5
27F
 10
-0.150000
 20
-146.649
 30
0.000000
  70
    32
  0
VERTEX
  8
0
  5
280
 10
-0.150000
 20
-146.641
 30
0.000000
  70
    32
  0
VERTEX
  8
0
  5
281
 10
-0.150000
 20
-146.632
 30
0.000000
  70
    32
  0
VERTEX
  8
0
  5
282
 10
-0.150000
 20
-146.624
 30
0.000000
  70
    32
  0
VERTEX
  8
0
  5
283
 10
-0.150000
 20
-146.616
 30
0.000000
  70
    32
  0
VERTEX
  8
0
  5
284
 10
-0.150000
 20
-146.608
 30
0.000000
  70
    32
  0
VERTEX
  8
0
  5
285
 10
-0.150000
 20
-146.600
 30
0.000000
  70
    32
  0
VERTEX
  8
0
  5
286
 10
-0.150000
 20
-146.592
 30
0.000000
  70
    32
  0
VERTEX
  8
0
  5
287
 10
-0.150000
 20
-146.584
 30
0.000000
  70
    32
  0
VERTEX
  8
0
  5
288
 10
-0.150000
 20
-146.575
 30
0.000000
  70
    32
  0
VERTEX
  8
0
  5
289
 10
-0.150000
 20
-146.567
 30
0.000000
  70
    32
  0
VERTEX
  8
0
  5
28A
 10
-0.150000
 20
-146.559
 30
0.000000
  70
    32
  0
VERTEX
  8
0
  5
28B
 10
-0.150000
 20
-146.551
 30
0.000000
  70
    32
  0
VERTEX
  8
0
  5
28C
 10
-0.150000
 20
-146.543
 30
0.000000
  70
    32
  0
VERTEX
  8
0
  5
28D
 10
-0.150000
 20
-146.535
 30
0.000000
  70
    32
  0
VERTEX
  8
0
  5
28E
 10
-0.150000
 20
-146.527
 30
0.000000
  70
    32
  0
VERTEX
  8
0
  5
28F
 10
-0.150000
 20
-146.519
 30
0.000000
  70
    32
  0
VERTEX
  8
0
  5
290
 10
-0.150000
 20
-146.511
 30
0.000000
  70
    32
  0
VERTEX
  8
0
  5
291
 10
-0.150000
 20
-146.504
 30
0.000000
  70
    32
  0
VERTEX
  8
0
  5
292
 10
-0.150000
 20
-146.496
 30
0.000000
  70
    32
  0
VERTEX
  8
0
  5
293
 10
-0.150000
 20
-146.488
 30
0.000000
  70
    32
  0
VERTEX
  8
0
  5
294
 10
-0.150000
 20
-146.480
 30
0.000000
  70
    32
  0
VERTEX
  8
0
  5
295
 10
-0.150000
 20
-146.472
 30
0.000000
  70
    32
  0
VERTEX
  8
0
  5
296
 10
-0.150000
 20
-146.464
 30
0.000000
  70
    32
  0
SEQEND
  8
0
  5
297
  0
LINE
  5
136
  8
0
  6
CONTINUOUS
 62
     3
 10
-0.1500000000000258
 20
-149.292817863566512
 30
0.0
 11
-0.1500000000000249
 21
-147.8786035805453878
 31
0.0
  0
LINE
  5
137
  8
0
  6
CONTINUOUS
 62
     3
 10
-0.1500000000000266
 20
-149.9999249999812037
 30
0.0
 11
-0.1500000000000258
 21
-149.292817863566512
 31
0.0
  0
LINE
  5
138
  8
0
  6
CONTINUOUS
 62
     3
 10
-0.1500000000000055
 20
-125.4999999999999005
 30
0.0
 11
0.1499999999999952
 21
-125.4999999999999005
 31
0.0000000000000001
  0
LINE
  5
139
  8
0
  6
CONTINUOUS
 62
     3
 10
0.1500000000000022
 20
-149.292817863566512
 30
0.0
 11
0.1500000000000023
 21
-149.9999249999812037
 31
0.0
  0
LINE
  5
13A
  8
0
  6
CONTINUOUS
 62
     3
 10
0.1500000000000015
 20
-147.8786035805453878
 30
0.0
 11
0.1500000000000022
 21
-149.292817863566512
 31
0.0
  0
POLYLINE
  8
0
  5
298
  62
3
  66
     1
 10
0.000000
 20
0.000000
 30
0.000000
  70
     8
  0
VERTEX
  8
0
  5
299
 10
0.150000
 20
-146.464
 30
0.000000
  70
    32
  0
VERTEX
  8
0
  5
29A
 10
0.150000
 20
-146.472
 30
0.000000
  70
    32
  0
VERTEX
  8
0
  5
29B
 10
0.150000
 20
-146.480
 30
0.000000
  70
    32
  0
VERTEX
  8
0
  5
29C
 10
0.150000
 20
-146.488
 30
0.000000
  70
    32
  0
VERTEX
  8
0
  5
29D
 10
0.150000
 20
-146.496
 30
0.000000
  70
    32
  0
VERTEX
  8
0
  5
29E
 10
0.150000
 20
-146.504
 30
0.000000
  70
    32
  0
VERTEX
  8
0
  5
29F
 10
0.150000
 20
-146.511
 30
0.000000
  70
    32
  0
VERTEX
  8
0
  5
2A0
 10
0.150000
 20
-146.519
 30
0.000000
  70
    32
  0
VERTEX
  8
0
  5
2A1
 10
0.150000
 20
-146.527
 30
0.000000
  70
    32
  0
VERTEX
  8
0
  5
2A2
 10
0.150000
 20
-146.535
 30
0.000000
  70
    32
  0
VERTEX
  8
0
  5
2A3
 10
0.150000
 20
-146.543
 30
0.000000
  70
    32
  0
VERTEX
  8
0
  5
2A4
 10
0.150000
 20
-146.551
 30
0.000000
  70
    32
  0
VERTEX
  8
0
  5
2A5
 10
0.150000
 20
-146.559
 30
0.000000
  70
    32
  0
VERTEX
  8
0
  5
2A6
 10
0.150000
 20
-146.567
 30
0.000000
  70
    32
  0
VERTEX
  8
0
  5
2A7
 10
0.150000
 20
-146.575
 30
0.000000
  70
    32
  0
VERTEX
  8
0
  5
2A8
 10
0.150000
 20
-146.584
 30
0.000000
  70
    32
  0
VERTEX
  8
0
  5
2A9
 10
0.150000
 20
-146.592
 30
0.000000
  70
    32
  0
VERTEX
  8
0
  5
2AA
 10
0.150000
 20
-146.600
 30
0.000000
  70
    32
  0
VERTEX
  8
0
  5
2AB
 10
0.150000
 20
-146.608
 30
0.000000
  70
    32
  0
VERTEX
  8
0
  5
2AC
 10
0.150000
 20
-146.616
 30
0.000000
  70
    32
  0
VERTEX
  8
0
  5
2AD
 10
0.150000
 20
-146.624
 30
0.000000
  70
    32
  0
VERTEX
  8
0
  5
2AE
 10
0.150000
 20
-146.632
 30
0.000000
  70
    32
  0
VERTEX
  8
0
  5
2AF
 10
0.150000
 20
-146.641
 30
0.000000
  70
    32
  0
VERTEX
  8
0
  5
2B0
 10
0.150000
 20
-146.649
 30
0.000000
  70
    32
  0
VERTEX
  8
0
  5
2B1
 10
0.150000
 20
-146.657
 30
0.000000
  70
    32
  0
VERTEX
  8
0
  5
2B2
 10
0.150000
 20
-146.665
 30
0.000000
  70
    32
  0
VERTEX
  8
0
  5
2B3
 10
0.150000
 20
-146.674
 30
0.000000
  70
    32
  0
VERTEX
  8
0
  5
2B4
 10
0.150000
 20
-146.682
 30
0.000000
  70
    32
  0
VERTEX
  8
0
  5
2B5
 10
0.150000
 20
-146.690
 30
0.000000
  70
    32
  0
VERTEX
  8
0
  5
2B6
 10
0.150000
 20
-146.698
 30
0.000000
  70
    32
  0
VERTEX
  8
0
  5
2B7
 10
0.150000
 20
-146.707
 30
0.000000
  70
    32
  0
VERTEX
  8
0
  5
2B8
 10
0.150000
 20
-146.715
 30
0.000000
  70
    32
  0
VERTEX
  8
0
  5
2B9
 10
0.150000
 20
-146.723
 30
0.000000
  70
    32
  0
VERTEX
  8
0
  5
2BA
 10
0.150000
 20
-146.732
 30
0.000000
  70
    32
  0
VERTEX
  8
0
  5
2BB
 10
0.150000
 20
-146.740
 30
0.000000
  70
    32
  0
VERTEX
  8
0
  5
2BC
 10
0.150000
 20
-146.748
 30
0.000000
  70
    32
  0
VERTEX
  8
0
  5
2BD
 10
0.150000
 20
-146.756
 30
0.000000
  70
    32
  0
VERTEX
  8
0
  5
2BE
 10
0.150000
 20
-146.765
 30
0.000000
  70
    32
  0
VERTEX
  8
0
  5
2BF
 10
0.150000
 20
-146.773
 30
0.000000
  70
    32
  0
VERTEX
  8
0
  5
2C0
 10
0.150000
 20
-146.781
 30
0.000000
  70
    32
  0
VERTEX
  8
0
  5
2C1
 10
0.150000
 20
-146.790
 30
0.000000
  70
    32
  0
VERTEX
  8
0
  5
2C2
 10
0.150000
 20
-146.798
 30
0.000000
  70
    32
  0
VERTEX
  8
0
  5
2C3
 10
0.150000
 20
-146.806
 30
0.000000
  70
    32
  0
VERTEX
  8
0
  5
2C4
 10
0.150000
 20
-146.815
 30
0.000000
  70
    32
  0
VERTEX
  8
0
  5
2C5
 10
0.150000
 20
-146.823
 30
0.000000
  70
    32
  0
VERTEX
  8
0
  5
2C6
 10
0.150000
 20
-146.831
 30
0.000000
  70
    32
  0
VERTEX
  8
0
  5
2C7
 10
0.150000
 20
-146.840
 30
0.000000
  70
    32
  0
VERTEX
  8
0
  5
2C8
 10
0.150000
 20
-146.848
 30
0.000000
  70
    32
  0
VERTEX
  8
0
  5
2C9
 10
0.150000
 20
-146.856
 30
0.000000
  70
    32
  0
VERTEX
  8
0
  5
2CA
 10
0.150000
 20
-146.864
 30
0.000000
  70
    32
  0
VERTEX
  8
0
  5
2CB
 10
0.150000
 20
-146.873
 30
0.000000
  70
    32
  0
VERTEX
  8
0
  5
2CC
 10
0.150000
 20
-146.881
 30
0.000000
  70
    32
  0
VERTEX
  8
0
  5
2CD
 10
0.150000
 20
-146.889
 30
0.000000
  70
    32
  0
VERTEX
  8
0
  5
2CE
 10
0.150000
 20
-146.898
 30
0.000000
  70
    32
  0
VERTEX
  8
0
  5
2CF
 10
0.150000
 20
-146.906
 30
0.000000
  70
    32
  0
VERTEX
  8
0
  5
2D0
 10
0.150000
 20
-146.914
 30
0.000000
  70
    32
  0
VERTEX
  8
0
  5
2D1
 10
0.150000
 20
-146.922
 30
0.000000
  70
    32
  0
VERTEX
  8
0
  5
2D2
 10
0.150000
 20
-146.930
 30
0.000000
  70
    32
  0
VERTEX
  8
0
  5
2D3
 10
0.150000
 20
-146.939
 30
0.000000
  70
    32
  0
VERTEX
  8
0
  5
2D4
 10
0.150000
 20
-146.947
 30
0.000000
  70
    32
  0
VERTEX
  8
0
  5
2D5
 10
0.150000
 20
-146.955
 30
0.000000
  70
    32
  0
VERTEX
  8
0
  5
2D6
 10
0.150000
 20
-146.963
 30
0.000000
  70
    32
  0
VERTEX
  8
0
  5
2D7
 10
0.150000
 20
-146.971
 30
0.000000
  70
    32
  0
VERTEX
  8
0
  5
2D8
 10
0.150000
 20
-146.979
 30
0.000000
  70
    32
  0
VERTEX
  8
0
  5
2D9
 10
0.150000
 20
-146.988
 30
0.000000
  70
    32
  0
VERTEX
  8
0
  5
2DA
 10
0.150000
 20
-146.996
 30
0.000000
  70
    32
  0
VERTEX
  8
0
  5
2DB
 10
0.150000
 20
-147.004
 30
0.000000
  70
    32
  0
VERTEX
  8
0
  5
2DC
 10
0.150000
 20
-147.012
 30
0.000000
  70
    32
  0
VERTEX
  8
0
  5
2DD
 10
0.150000
 20
-147.020
 30
0.000000
  70
    32
  0
VERTEX
  8
0
  5
2DE
 10
0.150000
 20
-147.028
 30
0.000000
  70
    32
  0
VERTEX
  8
0
  5
2DF
 10
0.150000
 20
-147.036
 30
0.000000
  70
    32
  0
VERTEX
  8
0
  5
2E0
 10
0.150000
 20
-147.044
 30
0.000000
  70
    32
  0
VERTEX
  8
0
  5
2E1
 10
0.150000
 20
-147.052
 30
0.000000
  70
    32
  0
VERTEX
  8
0
  5
2E2
 10
0.150000
 20
-147.060
 30
0.000000
  70
    32
  0
VERTEX
  8
0
  5
2E3
 10
0.150000
 20
-147.067
 30
0.000000
  70
    32
  0
VERTEX
  8
0
  5
2E4
 10
0.150000
 20
-147.075
 30
0.000000
  70
    32
  0
VERTEX
  8
0
  5
2E5
 10
0.150000
 20
-147.083
 30
0.000000
  70
    32
  0
VERTEX
  8
0
  5
2E6
 10
0.150000
 20
-147.091
 30
0.000000
  70
    32
  0
VERTEX
  8
0
  5
2E7
 10
0.150000
 20
-147.099
 30
0.000000
  70
    32
  0
VERTEX
  8
0
  5
2E8
 10
0.150000
 20
-147.107
 30
0.000000
  70
    32
  0
VERTEX
  8
0
  5
2E9
 10
0.150000
 20
-147.114
 30
0.000000
  70
    32
  0
VERTEX
  8
0
  5
2EA
 10
0.150000
 20
-147.122
 30
0.000000
  70
    32
  0
VERTEX
  8
0
  5
2EB
 10
0.150000
 20
-147.130
 30
0.000000
  70
    32
  0
VERTEX
  8
0
  5
2EC
 10
0.150000
 20
-147.137
 30
0.000000
  70
    32
  0
VERTEX
  8
0
  5
2ED
 10
0.150000
 20
-147.145
 30
0.000000
  70
    32
  0
VERTEX
  8
0
  5
2EE
 10
0.150000
 20
-147.152
 30
0.000000
  70
    32
  0
VERTEX
  8
0
  5
2EF
 10
0.150000
 20
-147.160
 30
0.000000
  70
    32
  0
VERTEX
  8
0
  5
2F0
 10
0.150000
 20
-147.167
 30
0.000000
  70
    32
  0
VERTEX
  8
0
  5
2F1
 10
0.150000
 20
-147.175
 30
0.000000
  70
    32
  0
VERTEX
  8
0
  5
2F2
 10
0.150000
 20
-147.182
 30
0.000000
  70
    32
  0
VERTEX
  8
0
  5
2F3
 10
0.150000
 20
-147.190
 30
0.000000
  70
    32
  0
VERTEX
  8
0
  5
2F4
 10
0.150000
 20
-147.197
 30
0.000000
  70
    32
  0
VERTEX
  8
0
  5
2F5
 10
0.150000
 20
-147.204
 30
0.000000
  70
    32
  0
VERTEX
  8
0
  5
2F6
 10
0.150000
 20
-147.212
 30
0.000000
  70
    32
  0
VERTEX
  8
0
  5
2F7
 10
0.150000
 20
-147.219
 30
0.000000
  70
    32
  0
VERTEX
  8
0
  5
2F8
 10
0.150000
 20
-147.226
 30
0.000000
  70
    32
  0
VERTEX
  8
0
  5
2F9
 10
0.150000
 20
-147.233
 30
0.000000
  70
    32
  0
VERTEX
  8
0
  5
2FA
 10
0.150000
 20
-147.241
 30
0.000000
  70
    32
  0
VERTEX
  8
0
  5
2FB
 10
0.150000
 20
-147.248
 30
0.000000
  70
    32
  0
VERTEX
  8
0
  5
2FC
 10
0.150000
 20
-147.255
 30
0.000000
  70
    32
  0
VERTEX
  8
0
  5
2FD
 10
0.150000
 20
-147.262
 30
0.000000
  70
    32
  0
VERTEX
  8
0
  5
2FE
 10
0.150000
 20
-147.269
 30
0.000000
  70
    32
  0
VERTEX
  8
0
  5
2FF
 10
0.150000
 20
-147.277
 30
0.000000
  70
    32
  0
VERTEX
  8
0
  5
300
 10
0.150000
 20
-147.284
 30
0.000000
  70
    32
  0
VERTEX
  8
0
  5
301
 10
0.150000
 20
-147.291
 30
0.000000
  70
    32
  0
VERTEX
  8
0
  5
302
 10
0.150000
 20
-147.298
 30
0.000000
  70
    32
  0
VERTEX
  8
0
  5
303
 10
0.150000
 20
-147.306
 30
0.000000
  70
    32
  0
VERTEX
  8
0
  5
304
 10
0.150000
 20
-147.313
 30
0.000000
  70
    32
  0
VERTEX
  8
0
  5
305
 10
0.150000
 20
-147.320
 30
0.000000
  70
    32
  0
VERTEX
  8
0
  5
306
 10
0.150000
 20
-147.327
 30
0.000000
  70
    32
  0
VERTEX
  8
0
  5
307
 10
0.150000
 20
-147.335
 30
0.000000
  70
    32
  0
VERTEX
  8
0
  5
308
 10
0.150000
 20
-147.342
 30
0.000000
  70
    32
  0
VERTEX
  8
0
  5
309
 10
0.150000
 20
-147.349
 30
0.000000
  70
    32
  0
VERTEX
  8
0
  5
30A
 10
0.150000
 20
-147.356
 30
0.000000
  70
    32
  0
VERTEX
  8
0
  5
30B
 10
0.150000
 20
-147.364
 30
0.000000
  70
    32
  0
VERTEX
  8
0
  5
30C
 10
0.150000
 20
-147.371
 30
0.000000
  70
    32
  0
VERTEX
  8
0
  5
30D
 10
0.150000
 20
-147.378
 30
0.000000
  70
    32
  0
VERTEX
  8
0
  5
30E
 10
0.150000
 20
-147.386
 30
0.000000
  70
    32
  0
VERTEX
  8
0
  5
30F
 10
0.150000
 20
-147.393
 30
0.000000
  70
    32
  0
VERTEX
  8
0
  5
310
 10
0.150000
 20
-147.400
 30
0.000000
  70
    32
  0
VERTEX
  8
0
  5
311
 10
0.150000
 20
-147.407
 30
0.000000
  70
    32
  0
VERTEX
  8
0
  5
312
 10
0.150000
 20
-147.415
 30
0.000000
  70
    32
  0
VERTEX
  8
0
  5
313
 10
0.150000
 20
-147.422
 30
0.000000
  70
    32
  0
VERTEX
  8
0
  5
314
 10
0.150000
 20
-147.429
 30
0.000000
  70
    32
  0
VERTEX
  8
0
  5
315
 10
0.150000
 20
-147.436
 30
0.000000
  70
    32
  0
VERTEX
  8
0
  5
316
 10
0.150000
 20
-147.444
 30
0.000000
  70
    32
  0
VERTEX
  8
0
  5
317
 10
0.150000
 20
-147.451
 30
0.000000
  70
    32
  0
VERTEX
  8
0
  5
318
 10
0.150000
 20
-147.458
 30
0.000000
  70
    32
  0
VERTEX
  8
0
  5
319
 10
0.150000
 20
-147.465
 30
0.000000
  70
    32
  0
VERTEX
  8
0
  5
31A
 10
0.150000
 20
-147.473
 30
0.000000
  70
    32
  0
VERTEX
  8
0
  5
31B
 10
0.150000
 20
-147.480
 30
0.000000
  70
    32
  0
VERTEX
  8
0
  5
31C
 10
0.150000
 20
-147.487
 30
0.000000
  70
    32
  0
VERTEX
  8
0
  5
31D
 10
0.150000
 20
-147.494
 30
0.000000
  70
    32
  0
VERTEX
  8
0
  5
31E
 10
0.150000
 20
-147.501
 30
0.000000
  70
    32
  0
VERTEX
  8
0
  5
31F
 10
0.150000
 20
-147.509
 30
0.000000
  70
    32
  0
VERTEX
  8
0
  5
320
 10
0.150000
 20
-147.516
 30
0.000000
  70
    32
  0
VERTEX
  8
0
  5
321
 10
0.150000
 20
-147.523
 30
0.000000
  70
    32
  0
VERTEX
  8
0
  5
322
 10
0.150000
 20
-147.530
 30
0.000000
  70
    32
  0
VERTEX
  8
0
  5
323
 10
0.150000
 20
-147.537
 30
0.000000
  70
    32
  0
VERTEX
  8
0
  5
324
 10
0.150000
 20
-147.544
 30
0.000000
  70
    32
  0
VERTEX
  8
0
  5
325
 10
0.150000
 20
-147.551
 30
0.000000
  70
    32
  0
VERTEX
  8
0
  5
326
 10
0.150000
 20
-147.558
 30
0.000000
  70
    32
  0
VERTEX
  8
0
  5
327
 10
0.150000
 20
-147.565
 30
0.000000
  70
    32
  0
VERTEX
  8
0
  5
328
 10
0.150000
 20
-147.572
 30
0.000000
  70
    32
  0
VERTEX
  8
0
  5
329
 10
0.150000
 20
-147.580
 30
0.000000
  70
    32
  0
VERTEX
  8
0
  5
32A
 10
0.150000
 20
-147.587
 30
0.000000
  70
    32
  0
VERTEX
  8
0
  5
32B
 10
0.150000
 20
-147.594
 30
0.000000
  70
    32
  0
VERTEX
  8
0
  5
32C
 10
0.150000
 20
-147.600
 30
0.000000
  70
    32
  0
VERTEX
  8
0
  5
32D
 10
0.150000
 20
-147.607
 30
0.000000
  70
    32
  0
VERTEX
  8
0
  5
32E
 10
0.150000
 20
-147.614
 30
0.000000
  70
    32
  0
VERTEX
  8
0
  5
32F
 10
0.150000
 20
-147.621
 30
0.000000
  70
    32
  0
VERTEX
  8
0
  5
330
 10
0.150000
 20
-147.628
 30
0.000000
  70
    32
  0
VERTEX
  8
0
  5
331
 10
0.150000
 20
-147.635
 30
0.000000
  70
    32
  0
VERTEX
  8
0
  5
332
 10
0.150000
 20
-147.642
 30
0.000000
  70
    32
  0
VERTEX
  8
0
  5
333
 10
0.150000
 20
-147.649
 30
0.000000
  70
    32
  0
VERTEX
  8
0
  5
334
 10
0.150000
 20
-147.655
 30
0.000000
  70
    32
  0
VERTEX
  8
0
  5
335
 10
0.150000
 20
-147.662
 30
0.000000
  70
    32
  0
VERTEX
  8
0
  5
336
 10
0.150000
 20
-147.669
 30
0.000000
  70
    32
  0
VERTEX
  8
0
  5
337
 10
0.150000
 20
-147.676
 30
0.000000
  70
    32
  0
VERTEX
  8
0
  5
338
 10
0.150000
 20
-147.682
 30
0.000000
  70
    32
  0
VERTEX
  8
0
  5
339
 10
0.150000
 20
-147.689
 30
0.000000
  70
    32
  0
VERTEX
  8
0
  5
33A
 10
0.150000
 20
-147.696
 30
0.000000
  70
    32
  0
VERTEX
  8
0
  5
33B
 10
0.150000
 20
-147.702
 30
0.000000
  70
    32
  0
VERTEX
  8
0
  5
33C
 10
0.150000
 20
-147.709
 30
0.000000
  70
    32
  0
VERTEX
  8
0
  5
33D
 10
0.150000
 20
-147.715
 30
0.000000
  70
    32
  0
VERTEX
  8
0
  5
33E
 10
0.150000
 20
-147.722
 30
0.000000
  70
    32
  0
VERTEX
  8
0
  5
33F
 10
0.150000
 20
-147.728
 30
0.000000
  70
    32
  0
VERTEX
  8
0
  5
340
 10
0.150000
 20
-147.735
 30
0.000000
  70
    32
  0
VERTEX
  8
0
  5
341
 10
0.150000
 20
-147.741
 30
0.000000
  70
    32
  0
VERTEX
  8
0
  5
342
 10
0.150000
 20
-147.748
 30
0.000000
  70
    32
  0
VERTEX
  8
0
  5
343
 10
0.150000
 20
-147.754
 30
0.000000
  70
    32
  0
VERTEX
  8
0
  5
344
 10
0.150000
 20
-147.760
 30
0.000000
  70
    32
  0
VERTEX
  8
0
  5
345
 10
0.150000
 20
-147.767
 30
0.000000
  70
    32
  0
VERTEX
  8
0
  5
346
 10
0.150000
 20
-147.773
 30
0.000000
  70
    32
  0
VERTEX
  8
0
  5
347
 10
0.150000
 20
-147.779
 30
0.000000
  70
    32
  0
VERTEX
  8
0
  5
348
 10
0.150000
 20
-147.785
 30
0.000000
  70
    32
  0
VERTEX
  8
0
  5
349
 10
0.150000
 20
-147.791
 30
0.000000
  70
    32
  0
VERTEX
  8
0
  5
34A
 10
0.150000
 20
-147.798
 30
0.000000
  70
    32
  0
VERTEX
  8
0
  5
34B
 10
0.150000
 20
-147.804
 30
0.000000
  70
    32
  0
VERTEX
  8
0
  5
34C
 10
0.150000
 20
-147.810
 30
0.000000
  70
    32
  0
VERTEX
  8
0
  5
34D
 10
0.150000
 20
-147.816
 30
0.000000
  70
    32
  0
VERTEX
  8
0
  5
34E
 10
0.150000
 20
-147.822
 30
0.000000
  70
    32
  0
VERTEX
  8
0
  5
34F
 10
0.150000
 20
-147.827
 30
0.000000
  70
    32
  0
VERTEX
  8
0
  5
350
 10
0.150000
 20
-147.833
 30
0.000000
  70
    32
  0
VERTEX
  8
0
  5
351
 10
0.150000
 20
-147.839
 30
0.000000
  70
    32
  0
VERTEX
  8
0
  5
352
 10
0.150000
 20
-147.845
 30
0.000000
  70
    32
  0
VERTEX
  8
0
  5
353
 10
0.150000
 20
-147.851
 30
0.000000
  70
    32
  0
VERTEX
  8
0
  5
354
 10
0.150000
 20
-147.856
 30
0.000000
  70
    32
  0
VERTEX
  8
0
  5
355
 10
0.150000
 20
-147.862
 30
0.000000
  70
    32
  0
VERTEX
  8
0
  5
356
 10
0.150000
 20
-147.868
 30
0.000000
  70
    32
  0
VERTEX
  8
0
  5
357
 10
0.150000
 20
-147.873
 30
0.000000
  70
    32
  0
VERTEX
  8
0
  5
358
 10
0.150000
 20
-147.879
 30
0.000000
  70
    32
  0
SEQEND
  8
0
  5
359
  0
LINE
  5
13C
  8
0
  6
CONTINUOUS
 62
     3
 10
0.1499999999999964
 20
-125.4999999999999005
 30
0.0
 11
0.1500000000000036
 21
-146.4643892836076873
 31
0.0
  0
LINE
  5
13D
  8
0
  6
CONTINUOUS
 62
     3
 10
-0.1500000000000028
 20
125.4999999999999005
 30
0.0
 11
-0.1500000000000203
 21
146.4643892836076873
 31
0.0
  0
LINE
  5
13E
  8
0
  6
CONTINUOUS
 62
     3
 10
-0.1500000000000258
 20
149.292817863566512
 30
0.0
 11
-0.1500000000000265
 21
149.9999249999812037
 31
0.0
  0
LINE
  5
13F
  8
0
  6
CONTINUOUS
 62
     3
 10
-0.1500000000000249
 20
147.8786035805453878
 30
0.0
 11
-0.1500000000000258
 21
149.292817863566512
 31
0.0
  0
POLYLINE
  8
0
  5
35A
  62
3
  66
     1
 10
0.000000
 20
0.000000
 30
0.000000
  70
     8
  0
VERTEX
  8
0
  5
35B
 10
-0.150000
 20
146.464
 30
0.000000
  70
    32
  0
VERTEX
  8
0
  5
35C
 10
-0.150000
 20
146.472
 30
0.000000
  70
    32
  0
VERTEX
  8
0
  5
35D
 10
-0.150000
 20
146.480
 30
0.000000
  70
    32
  0
VERTEX
  8
0
  5
35E
 10
-0.150000
 20
146.488
 30
0.000000
  70
    32
  0
VERTEX
  8
0
  5
35F
 10
-0.150000
 20
146.496
 30
0.000000
  70
    32
  0
VERTEX
  8
0
  5
360
 10
-0.150000
 20
146.504
 30
0.000000
  70
    32
  0
VERTEX
  8
0
  5
361
 10
-0.150000
 20
146.511
 30
0.000000
  70
    32
  0
VERTEX
  8
0
  5
362
 10
-0.150000
 20
146.519
 30
0.000000
  70
    32
  0
VERTEX
  8
0
  5
363
 10
-0.150000
 20
146.527
 30
0.000000
  70
    32
  0
VERTEX
  8
0
  5
364
 10
-0.150000
 20
146.535
 30
0.000000
  70
    32
  0
VERTEX
  8
0
  5
365
 10
-0.150000
 20
146.543
 30
0.000000
  70
    32
  0
VERTEX
  8
0
  5
366
 10
-0.150000
 20
146.551
 30
0.000000
  70
    32
  0
VERTEX
  8
0
  5
367
 10
-0.150000
 20
146.559
 30
0.000000
  70
    32
  0
VERTEX
  8
0
  5
368
 10
-0.150000
 20
146.567
 30
0.000000
  70
    32
  0
VERTEX
  8
0
  5
369
 10
-0.150000
 20
146.575
 30
0.000000
  70
    32
  0
VERTEX
  8
0
  5
36A
 10
-0.150000
 20
146.584
 30
0.000000
  70
    32
  0
VERTEX
  8
0
  5
36B
 10
-0.150000
 20
146.592
 30
0.000000
  70
    32
  0
VERTEX
  8
0
  5
36C
 10
-0.150000
 20
146.600
 30
0.000000
  70
    32
  0
VERTEX
  8
0
  5
36D
 10
-0.150000
 20
146.608
 30
0.000000
  70
    32
  0
VERTEX
  8
0
  5
36E
 10
-0.150000
 20
146.616
 30
0.000000
  70
    32
  0
VERTEX
  8
0
  5
36F
 10
-0.150000
 20
146.624
 30
0.000000
  70
    32
  0
VERTEX
  8
0
  5
370
 10
-0.150000
 20
146.632
 30
0.000000
  70
    32
  0
VERTEX
  8
0
  5
371
 10
-0.150000
 20
146.641
 30
0.000000
  70
    32
  0
VERTEX
  8
0
  5
372
 10
-0.150000
 20
146.649
 30
0.000000
  70
    32
  0
VERTEX
  8
0
  5
373
 10
-0.150000
 20
146.657
 30
0.000000
  70
    32
  0
VERTEX
  8
0
  5
374
 10
-0.150000
 20
146.665
 30
0.000000
  70
    32
  0
VERTEX
  8
0
  5
375
 10
-0.150000
 20
146.674
 30
0.000000
  70
    32
  0
VERTEX
  8
0
  5
376
 10
-0.150000
 20
146.682
 30
0.000000
  70
    32
  0
VERTEX
  8
0
  5
377
 10
-0.150000
 20
146.690
 30
0.000000
  70
    32
  0
VERTEX
  8
0
  5
378
 10
-0.150000
 20
146.698
 30
0.000000
  70
    32
  0
VERTEX
  8
0
  5
379
 10
-0.150000
 20
146.707
 30
0.000000
  70
    32
  0
VERTEX
  8
0
  5
37A
 10
-0.150000
 20
146.715
 30
0.000000
  70
    32
  0
VERTEX
  8
0
  5
37B
 10
-0.150000
 20
146.723
 30
0.000000
  70
    32
  0
VERTEX
  8
0
  5
37C
 10
-0.150000
 20
146.732
 30
0.000000
  70
    32
  0
VERTEX
  8
0
  5
37D
 10
-0.150000
 20
146.740
 30
0.000000
  70
    32
  0
VERTEX
  8
0
  5
37E
 10
-0.150000
 20
146.748
 30
0.000000
  70
    32
  0
VERTEX
  8
0
  5
37F
 10
-0.150000
 20
146.756
 30
0.000000
  70
    32
  0
VERTEX
  8
0
  5
380
 10
-0.150000
 20
146.765
 30
0.000000
  70
    32
  0
VERTEX
  8
0
  5
381
 10
-0.150000
 20
146.773
 30
0.000000
  70
    32
  0
VERTEX
  8
0
  5
382
 10
-0.150000
 20
146.781
 30
0.000000
  70
    32
  0
VERTEX
  8
0
  5
383
 10
-0.150000
 20
146.790
 30
0.000000
  70
    32
  0
VERTEX
  8
0
  5
384
 10
-0.150000
 20
146.798
 30
0.000000
  70
    32
  0
VERTEX
  8
0
  5
385
 10
-0.150000
 20
146.806
 30
0.000000
  70
    32
  0
VERTEX
  8
0
  5
386
 10
-0.150000
 20
146.815
 30
0.000000
  70
    32
  0
VERTEX
  8
0
  5
387
 10
-0.150000
 20
146.823
 30
0.000000
  70
    32
  0
VERTEX
  8
0
  5
388
 10
-0.150000
 20
146.831
 30
0.000000
  70
    32
  0
VERTEX
  8
0
  5
389
 10
-0.150000
 20
146.840
 30
0.000000
  70
    32
  0
VERTEX
  8
0
  5
38A
 10
-0.150000
 20
146.848
 30
0.000000
  70
    32
  0
VERTEX
  8
0
  5
38B
 10
-0.150000
 20
146.856
 30
0.000000
  70
    32
  0
VERTEX
  8
0
  5
38C
 10
-0.150000
 20
146.864
 30
0.000000
  70
    32
  0
VERTEX
  8
0
  5
38D
 10
-0.150000
 20
146.873
 30
0.000000
  70
    32
  0
VERTEX
  8
0
  5
38E
 10
-0.150000
 20
146.881
 30
0.000000
  70
    32
  0
VERTEX
  8
0
  5
38F
 10
-0.150000
 20
146.889
 30
0.000000
  70
    32
  0
VERTEX
  8
0
  5
390
 10
-0.150000
 20
146.898
 30
0.000000
  70
    32
  0
VERTEX
  8
0
  5
391
 10
-0.150000
 20
146.906
 30
0.000000
  70
    32
  0
VERTEX
  8
0
  5
392
 10
-0.150000
 20
146.914
 30
0.000000
  70
    32
  0
VERTEX
  8
0
  5
393
 10
-0.150000
 20
146.922
 30
0.000000
  70
    32
  0
VERTEX
  8
0
  5
394
 10
-0.150000
 20
146.930
 30
0.000000
  70
    32
  0
VERTEX
  8
0
  5
395
 10
-0.150000
 20
146.939
 30
0.000000
  70
    32
  0
VERTEX
  8
0
  5
396
 10
-0.150000
 20
146.947
 30
0.000000
  70
    32
  0
VERTEX
  8
0
  5
397
 10
-0.150000
 20
146.955
 30
0.000000
  70
    32
  0
VERTEX
  8
0
  5
398
 10
-0.150000
 20
146.963
 30
0.000000
  70
    32
  0
VERTEX
  8
0
  5
399
 10
-0.150000
 20
146.971
 30
0.000000
  70
    32
  0
VERTEX
  8
0
  5
39A
 10
-0.150000
 20
146.979
 30
0.000000
  70
    32
  0
VERTEX
  8
0
  5
39B
 10
-0.150000
 20
146.988
 30
0.000000
  70
    32
  0
VERTEX
  8
0
  5
39C
 10
-0.150000
 20
146.996
 30
0.000000
  70
    32
  0
VERTEX
  8
0
  5
39D
 10
-0.150000
 20
147.004
 30
0.000000
  70
    32
  0
VERTEX
  8
0
  5
39E
 10
-0.150000
 20
147.012
 30
0.000000
  70
    32
  0
VERTEX
  8
0
  5
39F
 10
-0.150000
 20
147.020
 30
0.000000
  70
    32
  0
VERTEX
  8
0
  5
3A0
 10
-0.150000
 20
147.028
 30
0.000000
  70
    32
  0
VERTEX
  8
0
  5
3A1
 10
-0.150000
 20
147.036
 30
0.000000
  70
    32
  0
VERTEX
  8
0
  5
3A2
 10
-0.150000
 20
147.044
 30
0.000000
  70
    32
  0
VERTEX
  8
0
  5
3A3
 10
-0.150000
 20
147.052
 30
0.000000
  70
    32
  0
VERTEX
  8
0
  5
3A4
 10
-0.150000
 20
147.060
 30
0.000000
  70
    32
  0
VERTEX
  8
0
  5
3A5
 10
-0.150000
 20
147.067
 30
0.000000
  70
    32
  0
VERTEX
  8
0
  5
3A6
 10
-0.150000
 20
147.075
 30
0.000000
  70
    32
  0
VERTEX
  8
0
  5
3A7
 10
-0.150000
 20
147.083
 30
0.000000
  70
    32
  0
VERTEX
  8
0
  5
3A8
 10
-0.150000
 20
147.091
 30
0.000000
  70
    32
  0
VERTEX
  8
0
  5
3A9
 10
-0.150000
 20
147.099
 30
0.000000
  70
    32
  0
VERTEX
  8
0
  5
3AA
 10
-0.150000
 20
147.107
 30
0.000000
  70
    32
  0
VERTEX
  8
0
  5
3AB
 10
-0.150000
 20
147.114
 30
0.000000
  70
    32
  0
VERTEX
  8
0
  5
3AC
 10
-0.150000
 20
147.122
 30
0.000000
  70
    32
  0
VERTEX
  8
0
  5
3AD
 10
-0.150000
 20
147.130
 30
0.000000
  70
    32
  0
VERTEX
  8
0
  5
3AE
 10
-0.150000
 20
147.137
 30
0.000000
  70
    32
  0
VERTEX
  8
0
  5
3AF
 10
-0.150000
 20
147.145
 30
0.000000
  70
    32
  0
VERTEX
  8
0
  5
3B0
 10
-0.150000
 20
147.152
 30
0.000000
  70
    32
  0
VERTEX
  8
0
  5
3B1
 10
-0.150000
 20
147.160
 30
0.000000
  70
    32
  0
VERTEX
  8
0
  5
3B2
 10
-0.150000
 20
147.167
 30
0.000000
  70
    32
  0
VERTEX
  8
0
  5
3B3
 10
-0.150000
 20
147.175
 30
0.000000
  70
    32
  0
VERTEX
  8
0
  5
3B4
 10
-0.150000
 20
147.182
 30
0.000000
  70
    32
  0
VERTEX
  8
0
  5
3B5
 10
-0.150000
 20
147.190
 30
0.000000
  70
    32
  0
VERTEX
  8
0
  5
3B6
 10
-0.150000
 20
147.197
 30
0.000000
  70
    32
  0
VERTEX
  8
0
  5
3B7
 10
-0.150000
 20
147.204
 30
0.000000
  70
    32
  0
VERTEX
  8
0
  5
3B8
 10
-0.150000
 20
147.212
 30
0.000000
  70
    32
  0
VERTEX
  8
0
  5
3B9
 10
-0.150000
 20
147.219
 30
0.000000
  70
    32
  0
VERTEX
  8
0
  5
3BA
 10
-0.150000
 20
147.226
 30
0.000000
  70
    32
  0
VERTEX
  8
0
  5
3BB
 10
-0.150000
 20
147.233
 30
0.000000
  70
    32
  0
VERTEX
  8
0
  5
3BC
 10
-0.150000
 20
147.241
 30
0.000000
  70
    32
  0
VERTEX
  8
0
  5
3BD
 10
-0.150000
 20
147.248
 30
0.000000
  70
    32
  0
VERTEX
  8
0
  5
3BE
 10
-0.150000
 20
147.255
 30
0.000000
  70
    32
  0
VERTEX
  8
0
  5
3BF
 10
-0.150000
 20
147.262
 30
0.000000
  70
    32
  0
VERTEX
  8
0
  5
3C0
 10
-0.150000
 20
147.269
 30
0.000000
  70
    32
  0
VERTEX
  8
0
  5
3C1
 10
-0.150000
 20
147.277
 30
0.000000
  70
    32
  0
VERTEX
  8
0
  5
3C2
 10
-0.150000
 20
147.284
 30
0.000000
  70
    32
  0
VERTEX
  8
0
  5
3C3
 10
-0.150000
 20
147.291
 30
0.000000
  70
    32
  0
VERTEX
  8
0
  5
3C4
 10
-0.150000
 20
147.298
 30
0.000000
  70
    32
  0
VERTEX
  8
0
  5
3C5
 10
-0.150000
 20
147.306
 30
0.000000
  70
    32
  0
VERTEX
  8
0
  5
3C6
 10
-0.150000
 20
147.313
 30
0.000000
  70
    32
  0
VERTEX
  8
0
  5
3C7
 10
-0.150000
 20
147.320
 30
0.000000
  70
    32
  0
VERTEX
  8
0
  5
3C8
 10
-0.150000
 20
147.327
 30
0.000000
  70
    32
  0
VERTEX
  8
0
  5
3C9
 10
-0.150000
 20
147.335
 30
0.000000
  70
    32
  0
VERTEX
  8
0
  5
3CA
 10
-0.150000
 20
147.342
 30
0.000000
  70
    32
  0
VERTEX
  8
0
  5
3CB
 10
-0.150000
 20
147.349
 30
0.000000
  70
    32
  0
VERTEX
  8
0
  5
3CC
 10
-0.150000
 20
147.356
 30
0.000000
  70
    32
  0
VERTEX
  8
0
  5
3CD
 10
-0.150000
 20
147.364
 30
0.000000
  70
    32
  0
VERTEX
  8
0
  5
3CE
 10
-0.150000
 20
147.371
 30
0.000000
  70
    32
  0
VERTEX
  8
0
  5
3CF
 10
-0.150000
 20
147.378
 30
0.000000
  70
    32
  0
VERTEX
  8
0
  5
3D0
 10
-0.150000
 20
147.386
 30
0.000000
  70
    32
  0
VERTEX
  8
0
  5
3D1
 10
-0.150000
 20
147.393
 30
0.000000
  70
    32
  0
VERTEX
  8
0
  5
3D2
 10
-0.150000
 20
147.400
 30
0.000000
  70
    32
  0
VERTEX
  8
0
  5
3D3
 10
-0.150000
 20
147.407
 30
0.000000
  70
    32
  0
VERTEX
  8
0
  5
3D4
 10
-0.150000
 20
147.415
 30
0.000000
  70
    32
  0
VERTEX
  8
0
  5
3D5
 10
-0.150000
 20
147.422
 30
0.000000
  70
    32
  0
VERTEX
  8
0
  5
3D6
 10
-0.150000
 20
147.429
 30
0.000000
  70
    32
  0
VERTEX
  8
0
  5
3D7
 10
-0.150000
 20
147.436
 30
0.000000
  70
    32
  0
VERTEX
  8
0
  5
3D8
 10
-0.150000
 20
147.444
 30
0.000000
  70
    32
  0
VERTEX
  8
0
  5
3D9
 10
-0.150000
 20
147.451
 30
0.000000
  70
    32
  0
VERTEX
  8
0
  5
3DA
 10
-0.150000
 20
147.458
 30
0.000000
  70
    32
  0
VERTEX
  8
0
  5
3DB
 10
-0.150000
 20
147.465
 30
0.000000
  70
    32
  0
VERTEX
  8
0
  5
3DC
 10
-0.150000
 20
147.473
 30
0.000000
  70
    32
  0
VERTEX
  8
0
  5
3DD
 10
-0.150000
 20
147.480
 30
0.000000
  70
    32
  0
VERTEX
  8
0
  5
3DE
 10
-0.150000
 20
147.487
 30
0.000000
  70
    32
  0
VERTEX
  8
0
  5
3DF
 10
-0.150000
 20
147.494
 30
0.000000
  70
    32
  0
VERTEX
  8
0
  5
3E0
 10
-0.150000
 20
147.501
 30
0.000000
  70
    32
  0
VERTEX
  8
0
  5
3E1
 10
-0.150000
 20
147.509
 30
0.000000
  70
    32
  0
VERTEX
  8
0
  5
3E2
 10
-0.150000
 20
147.516
 30
0.000000
  70
    32
  0
VERTEX
  8
0
  5
3E3
 10
-0.150000
 20
147.523
 30
0.000000
  70
    32
  0
VERTEX
  8
0
  5
3E4
 10
-0.150000
 20
147.530
 30
0.000000
  70
    32
  0
VERTEX
  8
0
  5
3E5
 10
-0.150000
 20
147.537
 30
0.000000
  70
    32
  0
VERTEX
  8
0
  5
3E6
 10
-0.150000
 20
147.544
 30
0.000000
  70
    32
  0
VERTEX
  8
0
  5
3E7
 10
-0.150000
 20
147.551
 30
0.000000
  70
    32
  0
VERTEX
  8
0
  5
3E8
 10
-0.150000
 20
147.558
 30
0.000000
  70
    32
  0
VERTEX
  8
0
  5
3E9
 10
-0.150000
 20
147.565
 30
0.000000
  70
    32
  0
VERTEX
  8
0
  5
3EA
 10
-0.150000
 20
147.572
 30
0.000000
  70
    32
  0
VERTEX
  8
0
  5
3EB
 10
-0.150000
 20
147.580
 30
0.000000
  70
    32
  0
VERTEX
  8
0
  5
3EC
 10
-0.150000
 20
147.587
 30
0.000000
  70
    32
  0
VERTEX
  8
0
  5
3ED
 10
-0.150000
 20
147.594
 30
0.000000
  70
    32
  0
VERTEX
  8
0
  5
3EE
 10
-0.150000
 20
147.600
 30
0.000000
  70
    32
  0
VERTEX
  8
0
  5
3EF
 10
-0.150000
 20
147.607
 30
0.000000
  70
    32
  0
VERTEX
  8
0
  5
3F0
 10
-0.150000
 20
147.614
 30
0.000000
  70
    32
  0
VERTEX
  8
0
  5
3F1
 10
-0.150000
 20
147.621
 30
0.000000
  70
    32
  0
VERTEX
  8
0
  5
3F2
 10
-0.150000
 20
147.628
 30
0.000000
  70
    32
  0
VERTEX
  8
0
  5
3F3
 10
-0.150000
 20
147.635
 30
0.000000
  70
    32
  0
VERTEX
  8
0
  5
3F4
 10
-0.150000
 20
147.642
 30
0.000000
  70
    32
  0
VERTEX
  8
0
  5
3F5
 10
-0.150000
 20
147.649
 30
0.000000
  70
    32
  0
VERTEX
  8
0
  5
3F6
 10
-0.150000
 20
147.655
 30
0.000000
  70
    32
  0
VERTEX
  8
0
  5
3F7
 10
-0.150000
 20
147.662
 30
0.000000
  70
    32
  0
VERTEX
  8
0
  5
3F8
 10
-0.150000
 20
147.669
 30
0.000000
  70
    32
  0
VERTEX
  8
0
  5
3F9
 10
-0.150000
 20
147.676
 30
0.000000
  70
    32
  0
VERTEX
  8
0
  5
3FA
 10
-0.150000
 20
147.682
 30
0.000000
  70
    32
  0
VERTEX
  8
0
  5
3FB
 10
-0.150000
 20
147.689
 30
0.000000
  70
    32
  0
VERTEX
  8
0
  5
3FC
 10
-0.150000
 20
147.696
 30
0.000000
  70
    32
  0
VERTEX
  8
0
  5
3FD
 10
-0.150000
 20
147.702
 30
0.000000
  70
    32
  0
VERTEX
  8
0
  5
3FE
 10
-0.150000
 20
147.709
 30
0.000000
  70
    32
  0
VERTEX
  8
0
  5
3FF
 10
-0.150000
 20
147.715
 30
0.000000
  70
    32
  0
VERTEX
  8
0
  5
400
 10
-0.150000
 20
147.722
 30
0.000000
  70
    32
  0
VERTEX
  8
0
  5
401
 10
-0.150000
 20
147.728
 30
0.000000
  70
    32
  0
VERTEX
  8
0
  5
402
 10
-0.150000
 20
147.735
 30
0.000000
  70
    32
  0
VERTEX
  8
0
  5
403
 10
-0.150000
 20
147.741
 30
0.000000
  70
    32
  0
VERTEX
  8
0
  5
404
 10
-0.150000
 20
147.748
 30
0.000000
  70
    32
  0
VERTEX
  8
0
  5
405
 10
-0.150000
 20
147.754
 30
0.000000
  70
    32
  0
VERTEX
  8
0
  5
406
 10
-0.150000
 20
147.760
 30
0.000000
  70
    32
  0
VERTEX
  8
0
  5
407
 10
-0.150000
 20
147.767
 30
0.000000
  70
    32
  0
VERTEX
  8
0
  5
408
 10
-0.150000
 20
147.773
 30
0.000000
  70
    32
  0
VERTEX
  8
0
  5
409
 10
-0.150000
 20
147.779
 30
0.000000
  70
    32
  0
VERTEX
  8
0
  5
40A
 10
-0.150000
 20
147.785
 30
0.000000
  70
    32
  0
VERTEX
  8
0
  5
40B
 10
-0.150000
 20
147.791
 30
0.000000
  70
    32
  0
VERTEX
  8
0
  5
40C
 10
-0.150000
 20
147.798
 30
0.000000
  70
    32
  0
VERTEX
  8
0
  5
40D
 10
-0.150000
 20
147.804
 30
0.000000
  70
    32
  0
VERTEX
  8
0
  5
40E
 10
-0.150000
 20
147.810
 30
0.000000
  70
    32
  0
VERTEX
  8
0
  5
40F
 10
-0.150000
 20
147.816
 30
0.000000
  70
    32
  0
VERTEX
  8
0
  5
410
 10
-0.150000
 20
147.822
 30
0.000000
  70
    32
  0
VERTEX
  8
0
  5
411
 10
-0.150000
 20
147.827
 30
0.000000
  70
    32
  0
VERTEX
  8
0
  5
412
 10
-0.150000
 20
147.833
 30
0.000000
  70
    32
  0
VERTEX
  8
0
  5
413
 10
-0.150000
 20
147.839
 30
0.000000
  70
    32
  0
VERTEX
  8
0
  5
414
 10
-0.150000
 20
147.845
 30
0.000000
  70
    32
  0
VERTEX
  8
0
  5
415
 10
-0.150000
 20
147.851
 30
0.000000
  70
    32
  0
VERTEX
  8
0
  5
416
 10
-0.150000
 20
147.856
 30
0.000000
  70
    32
  0
VERTEX
  8
0
  5
417
 10
-0.150000
 20
147.862
 30
0.000000
  70
    32
  0
VERTEX
  8
0
  5
418
 10
-0.150000
 20
147.868
 30
0.000000
  70
    32
  0
VERTEX
  8
0
  5
419
 10
-0.150000
 20
147.873
 30
0.000000
  70
    32
  0
VERTEX
  8
0
  5
41A
 10
-0.150000
 20
147.879
 30
0.000000
  70
    32
  0
SEQEND
  8
0
  5
41B
  0
LINE
  5
141
  8
0
  6
CONTINUOUS
 62
     3
 10
0.1500000000000035
 20
146.4643892836076873
 30
0.0
 11
0.1499999999999963
 21
125.4999999999999005
 31
0.0
  0
POLYLINE
  8
0
  5
41C
  62
3
  66
     1
 10
0.000000
 20
0.000000
 30
0.000000
  70
     8
  0
VERTEX
  8
0
  5
41D
 10
0.150000
 20
147.879
 30
0.000000
  70
    32
  0
VERTEX
  8
0
  5
41E
 10
0.150000
 20
147.873
 30
0.000000
  70
    32
  0
VERTEX
  8
0
  5
41F
 10
0.150000
 20
147.868
 30
0.000000
  70
    32
  0
VERTEX
  8
0
  5
420
 10
0.150000
 20
147.862
 30
0.000000
  70
    32
  0
VERTEX
  8
0
  5
421
 10
0.150000
 20
147.856
 30
0.000000
  70
    32
  0
VERTEX
  8
0
  5
422
 10
0.150000
 20
147.851
 30
0.000000
  70
    32
  0
VERTEX
  8
0
  5
423
 10
0.150000
 20
147.845
 30
0.000000
  70
    32
  0
VERTEX
  8
0
  5
424
 10
0.150000
 20
147.839
 30
0.000000
  70
    32
  0
VERTEX
  8
0
  5
425
 10
0.150000
 20
147.833
 30
0.000000
  70
    32
  0
VERTEX
  8
0
  5
426
 10
0.150000
 20
147.827
 30
0.000000
  70
    32
  0
VERTEX
  8
0
  5
427
 10
0.150000
 20
147.822
 30
0.000000
  70
    32
  0
VERTEX
  8
0
  5
428
 10
0.150000
 20
147.816
 30
0.000000
  70
    32
  0
VERTEX
  8
0
  5
429
 10
0.150000
 20
147.810
 30
0.000000
  70
    32
  0
VERTEX
  8
0
  5
42A
 10
0.150000
 20
147.804
 30
0.000000
  70
    32
  0
VERTEX
  8
0
  5
42B
 10
0.150000
 20
147.798
 30
0.000000
  70
    32
  0
VERTEX
  8
0
  5
42C
 10
0.150000
 20
147.791
 30
0.000000
  70
    32
  0
VERTEX
  8
0
  5
42D
 10
0.150000
 20
147.785
 30
0.000000
  70
    32
  0
VERTEX
  8
0
  5
42E
 10
0.150000
 20
147.779
 30
0.000000
  70
    32
  0
VERTEX
  8
0
  5
42F
 10
0.150000
 20
147.773
 30
0.000000
  70
    32
  0
VERTEX
  8
0
  5
430
 10
0.150000
 20
147.767
 30
0.000000
  70
    32
  0
VERTEX
  8
0
  5
431
 10
0.150000
 20
147.760
 30
0.000000
  70
    32
  0
VERTEX
  8
0
  5
432
 10
0.150000
 20
147.754
 30
0.000000
  70
    32
  0
VERTEX
  8
0
  5
433
 10
0.150000
 20
147.748
 30
0.000000
  70
    32
  0
VERTEX
  8
0
  5
434
 10
0.150000
 20
147.741
 30
0.000000
  70
    32
  0
VERTEX
  8
0
  5
435
 10
0.150000
 20
147.735
 30
0.000000
  70
    32
  0
VERTEX
  8
0
  5
436
 10
0.150000
 20
147.728
 30
0.000000
  70
    32
  0
VERTEX
  8
0
  5
437
 10
0.150000
 20
147.722
 30
0.000000
  70
    32
  0
VERTEX
  8
0
  5
438
 10
0.150000
 20
147.715
 30
0.000000
  70
    32
  0
VERTEX
  8
0
  5
439
 10
0.150000
 20
147.709
 30
0.000000
  70
    32
  0
VERTEX
  8
0
  5
43A
 10
0.150000
 20
147.702
 30
0.000000
  70
    32
  0
VERTEX
  8
0
  5
43B
 10
0.150000
 20
147.696
 30
0.000000
  70
    32
  0
VERTEX
  8
0
  5
43C
 10
0.150000
 20
147.689
 30
0.000000
  70
    32
  0
VERTEX
  8
0
  5
43D
 10
0.150000
 20
147.682
 30
0.000000
  70
    32
  0
VERTEX
  8
0
  5
43E
 10
0.150000
 20
147.676
 30
0.000000
  70
    32
  0
VERTEX
  8
0
  5
43F
 10
0.150000
 20
147.669
 30
0.000000
  70
    32
  0
VERTEX
  8
0
  5
440
 10
0.150000
 20
147.662
 30
0.000000
  70
    32
  0
VERTEX
  8
0
  5
441
 10
0.150000
 20
147.655
 30
0.000000
  70
    32
  0
VERTEX
  8
0
  5
442
 10
0.150000
 20
147.649
 30
0.000000
  70
    32
  0
VERTEX
  8
0
  5
443
 10
0.150000
 20
147.642
 30
0.000000
  70
    32
  0
VERTEX
  8
0
  5
444
 10
0.150000
 20
147.635
 30
0.000000
  70
    32
  0
VERTEX
  8
0
  5
445
 10
0.150000
 20
147.628
 30
0.000000
  70
    32
  0
VERTEX
  8
0
  5
446
 10
0.150000
 20
147.621
 30
0.000000
  70
    32
  0
VERTEX
  8
0
  5
447
 10
0.150000
 20
147.614
 30
0.000000
  70
    32
  0
VERTEX
  8
0
  5
448
 10
0.150000
 20
147.607
 30
0.000000
  70
    32
  0
VERTEX
  8
0
  5
449
 10
0.150000
 20
147.600
 30
0.000000
  70
    32
  0
VERTEX
  8
0
  5
44A
 10
0.150000
 20
147.594
 30
0.000000
  70
    32
  0
VERTEX
  8
0
  5
44B
 10
0.150000
 20
147.587
 30
0.000000
  70
    32
  0
VERTEX
  8
0
  5
44C
 10
0.150000
 20
147.580
 30
0.000000
  70
    32
  0
VERTEX
  8
0
  5
44D
 10
0.150000
 20
147.572
 30
0.000000
  70
    32
  0
VERTEX
  8
0
  5
44E
 10
0.150000
 20
147.565
 30
0.000000
  70
    32
  0
VERTEX
  8
0
  5
44F
 10
0.150000
 20
147.558
 30
0.000000
  70
    32
  0
VERTEX
  8
0
  5
450
 10
0.150000
 20
147.551
 30
0.000000
  70
    32
  0
VERTEX
  8
0
  5
451
 10
0.150000
 20
147.544
 30
0.000000
  70
    32
  0
VERTEX
  8
0
  5
452
 10
0.150000
 20
147.537
 30
0.000000
  70
    32
  0
VERTEX
  8
0
  5
453
 10
0.150000
 20
147.530
 30
0.000000
  70
    32
  0
VERTEX
  8
0
  5
454
 10
0.150000
 20
147.523
 30
0.000000
  70
    32
  0
VERTEX
  8
0
  5
455
 10
0.150000
 20
147.516
 30
0.000000
  70
    32
  0
VERTEX
  8
0
  5
456
 10
0.150000
 20
147.509
 30
0.000000
  70
    32
  0
VERTEX
  8
0
  5
457
 10
0.150000
 20
147.501
 30
0.000000
  70
    32
  0
VERTEX
  8
0
  5
458
 10
0.150000
 20
147.494
 30
0.000000
  70
    32
  0
VERTEX
  8
0
  5
459
 10
0.150000
 20
147.487
 30
0.000000
  70
    32
  0
VERTEX
  8
0
  5
45A
 10
0.150000
 20
147.480
 30
0.000000
  70
    32
  0
VERTEX
  8
0
  5
45B
 10
0.150000
 20
147.473
 30
0.000000
  70
    32
  0
VERTEX
  8
0
  5
45C
 10
0.150000
 20
147.465
 30
0.000000
  70
    32
  0
VERTEX
  8
0
  5
45D
 10
0.150000
 20
147.458
 30
0.000000
  70
    32
  0
VERTEX
  8
0
  5
45E
 10
0.150000
 20
147.451
 30
0.000000
  70
    32
  0
VERTEX
  8
0
  5
45F
 10
0.150000
 20
147.444
 30
0.000000
  70
    32
  0
VERTEX
  8
0
  5
460
 10
0.150000
 20
147.436
 30
0.000000
  70
    32
  0
VERTEX
  8
0
  5
461
 10
0.150000
 20
147.429
 30
0.000000
  70
    32
  0
VERTEX
  8
0
  5
462
 10
0.150000
 20
147.422
 30
0.000000
  70
    32
  0
VERTEX
  8
0
  5
463
 10
0.150000
 20
147.415
 30
0.000000
  70
    32
  0
VERTEX
  8
0
  5
464
 10
0.150000
 20
147.407
 30
0.000000
  70
    32
  0
VERTEX
  8
0
  5
465
 10
0.150000
 20
147.400
 30
0.000000
  70
    32
  0
VERTEX
  8
0
  5
466
 10
0.150000
 20
147.393
 30
0.000000
  70
    32
  0
VERTEX
  8
0
  5
467
 10
0.150000
 20
147.386
 30
0.000000
  70
    32
  0
VERTEX
  8
0
  5
468
 10
0.150000
 20
147.378
 30
0.000000
  70
    32
  0
VERTEX
  8
0
  5
469
 10
0.150000
 20
147.371
 30
0.000000
  70
    32
  0
VERTEX
  8
0
  5
46A
 10
0.150000
 20
147.364
 30
0.000000
  70
    32
  0
VERTEX
  8
0
  5
46B
 10
0.150000
 20
147.356
 30
0.000000
  70
    32
  0
VERTEX
  8
0
  5
46C
 10
0.150000
 20
147.349
 30
0.000000
  70
    32
  0
VERTEX
  8
0
  5
46D
 10
0.150000
 20
147.342
 30
0.000000
  70
    32
  0
VERTEX
  8
0
  5
46E
 10
0.150000
 20
147.335
 30
0.000000
  70
    32
  0
VERTEX
  8
0
  5
46F
 10
0.150000
 20
147.327
 30
0.000000
  70
    32
  0
VERTEX
  8
0
  5
470
 10
0.150000
 20
147.320
 30
0.000000
  70
    32
  0
VERTEX
  8
0
  5
471
 10
0.150000
 20
147.313
 30
0.000000
  70
    32
  0
VERTEX
  8
0
  5
472
 10
0.150000
 20
147.306
 30
0.000000
  70
    32
  0
VERTEX
  8
0
  5
473
 10
0.150000
 20
147.298
 30
0.000000
  70
    32
  0
VERTEX
  8
0
  5
474
 10
0.150000
 20
147.291
 30
0.000000
  70
    32
  0
VERTEX
  8
0
  5
475
 10
0.150000
 20
147.284
 30
0.000000
  70
    32
  0
VERTEX
  8
0
  5
476
 10
0.150000
 20
147.277
 30
0.000000
  70
    32
  0
VERTEX
  8
0
  5
477
 10
0.150000
 20
147.269
 30
0.000000
  70
    32
  0
VERTEX
  8
0
  5
478
 10
0.150000
 20
147.262
 30
0.000000
  70
    32
  0
VERTEX
  8
0
  5
479
 10
0.150000
 20
147.255
 30
0.000000
  70
    32
  0
VERTEX
  8
0
  5
47A
 10
0.150000
 20
147.248
 30
0.000000
  70
    32
  0
VERTEX
  8
0
  5
47B
 10
0.150000
 20
147.241
 30
0.000000
  70
    32
  0
VERTEX
  8
0
  5
47C
 10
0.150000
 20
147.233
 30
0.000000
  70
    32
  0
VERTEX
  8
0
  5
47D
 10
0.150000
 20
147.226
 30
0.000000
  70
    32
  0
VERTEX
  8
0
  5
47E
 10
0.150000
 20
147.219
 30
0.000000
  70
    32
  0
VERTEX
  8
0
  5
47F
 10
0.150000
 20
147.212
 30
0.000000
  70
    32
  0
VERTEX
  8
0
  5
480
 10
0.150000
 20
147.204
 30
0.000000
  70
    32
  0
VERTEX
  8
0
  5
481
 10
0.150000
 20
147.197
 30
0.000000
  70
    32
  0
VERTEX
  8
0
  5
482
 10
0.150000
 20
147.190
 30
0.000000
  70
    32
  0
VERTEX
  8
0
  5
483
 10
0.150000
 20
147.182
 30
0.000000
  70
    32
  0
VERTEX
  8
0
  5
484
 10
0.150000
 20
147.175
 30
0.000000
  70
    32
  0
VERTEX
  8
0
  5
485
 10
0.150000
 20
147.167
 30
0.000000
  70
    32
  0
VERTEX
  8
0
  5
486
 10
0.150000
 20
147.160
 30
0.000000
  70
    32
  0
VERTEX
  8
0
  5
487
 10
0.150000
 20
147.152
 30
0.000000
  70
    32
  0
VERTEX
  8
0
  5
488
 10
0.150000
 20
147.145
 30
0.000000
  70
    32
  0
VERTEX
  8
0
  5
489
 10
0.150000
 20
147.137
 30
0.000000
  70
    32
  0
VERTEX
  8
0
  5
48A
 10
0.150000
 20
147.130
 30
0.000000
  70
    32
  0
VERTEX
  8
0
  5
48B
 10
0.150000
 20
147.122
 30
0.000000
  70
    32
  0
VERTEX
  8
0
  5
48C
 10
0.150000
 20
147.114
 30
0.000000
  70
    32
  0
VERTEX
  8
0
  5
48D
 10
0.150000
 20
147.107
 30
0.000000
  70
    32
  0
VERTEX
  8
0
  5
48E
 10
0.150000
 20
147.099
 30
0.000000
  70
    32
  0
VERTEX
  8
0
  5
48F
 10
0.150000
 20
147.091
 30
0.000000
  70
    32
  0
VERTEX
  8
0
  5
490
 10
0.150000
 20
147.083
 30
0.000000
  70
    32
  0
VERTEX
  8
0
  5
491
 10
0.150000
 20
147.075
 30
0.000000
  70
    32
  0
VERTEX
  8
0
  5
492
 10
0.150000
 20
147.067
 30
0.000000
  70
    32
  0
VERTEX
  8
0
  5
493
 10
0.150000
 20
147.060
 30
0.000000
  70
    32
  0
VERTEX
  8
0
  5
494
 10
0.150000
 20
147.052
 30
0.000000
  70
    32
  0
VERTEX
  8
0
  5
495
 10
0.150000
 20
147.044
 30
0.000000
  70
    32
  0
VERTEX
  8
0
  5
496
 10
0.150000
 20
147.036
 30
0.000000
  70
    32
  0
VERTEX
  8
0
  5
497
 10
0.150000
 20
147.028
 30
0.000000
  70
    32
  0
VERTEX
  8
0
  5
498
 10
0.150000
 20
147.020
 30
0.000000
  70
    32
  0
VERTEX
  8
0
  5
499
 10
0.150000
 20
147.012
 30
0.000000
  70
    32
  0
VERTEX
  8
0
  5
49A
 10
0.150000
 20
147.004
 30
0.000000
  70
    32
  0
VERTEX
  8
0
  5
49B
 10
0.150000
 20
146.996
 30
0.000000
  70
    32
  0
VERTEX
  8
0
  5
49C
 10
0.150000
 20
146.988
 30
0.000000
  70
    32
  0
VERTEX
  8
0
  5
49D
 10
0.150000
 20
146.979
 30
0.000000
  70
    32
  0
VERTEX
  8
0
  5
49E
 10
0.150000
 20
146.971
 30
0.000000
  70
    32
  0
VERTEX
  8
0
  5
49F
 10
0.150000
 20
146.963
 30
0.000000
  70
    32
  0
VERTEX
  8
0
  5
4A0
 10
0.150000
 20
146.955
 30
0.000000
  70
    32
  0
VERTEX
  8
0
  5
4A1
 10
0.150000
 20
146.947
 30
0.000000
  70
    32
  0
VERTEX
  8
0
  5
4A2
 10
0.150000
 20
146.939
 30
0.000000
  70
    32
  0
VERTEX
  8
0
  5
4A3
 10
0.150000
 20
146.930
 30
0.000000
  70
    32
  0
VERTEX
  8
0
  5
4A4
 10
0.150000
 20
146.922
 30
0.000000
  70
    32
  0
VERTEX
  8
0
  5
4A5
 10
0.150000
 20
146.914
 30
0.000000
  70
    32
  0
VERTEX
  8
0
  5
4A6
 10
0.150000
 20
146.906
 30
0.000000
  70
    32
  0
VERTEX
  8
0
  5
4A7
 10
0.150000
 20
146.898
 30
0.000000
  70
    32
  0
VERTEX
  8
0
  5
4A8
 10
0.150000
 20
146.889
 30
0.000000
  70
    32
  0
VERTEX
  8
0
  5
4A9
 10
0.150000
 20
146.881
 30
0.000000
  70
    32
  0
VERTEX
  8
0
  5
4AA
 10
0.150000
 20
146.873
 30
0.000000
  70
    32
  0
VERTEX
  8
0
  5
4AB
 10
0.150000
 20
146.864
 30
0.000000
  70
    32
  0
VERTEX
  8
0
  5
4AC
 10
0.150000
 20
146.856
 30
0.000000
  70
    32
  0
VERTEX
  8
0
  5
4AD
 10
0.150000
 20
146.848
 30
0.000000
  70
    32
  0
VERTEX
  8
0
  5
4AE
 10
0.150000
 20
146.840
 30
0.000000
  70
    32
  0
VERTEX
  8
0
  5
4AF
 10
0.150000
 20
146.831
 30
0.000000
  70
    32
  0
VERTEX
  8
0
  5
4B0
 10
0.150000
 20
146.823
 30
0.000000
  70
    32
  0
VERTEX
  8
0
  5
4B1
 10
0.150000
 20
146.815
 30
0.000000
  70
    32
  0
VERTEX
  8
0
  5
4B2
 10
0.150000
 20
146.806
 30
0.000000
  70
    32
  0
VERTEX
  8
0
  5
4B3
 10
0.150000
 20
146.798
 30
0.000000
  70
    32
  0
VERTEX
  8
0
  5
4B4
 10
0.150000
 20
146.790
 30
0.000000
  70
    32
  0
VERTEX
  8
0
  5
4B5
 10
0.150000
 20
146.781
 30
0.000000
  70
    32
  0
VERTEX
  8
0
  5
4B6
 10
0.150000
 20
146.773
 30
0.000000
  70
    32
  0
VERTEX
  8
0
  5
4B7
 10
0.150000
 20
146.765
 30
0.000000
  70
    32
  0
VERTEX
  8
0
  5
4B8
 10
0.150000
 20
146.756
 30
0.000000
  70
    32
  0
VERTEX
  8
0
  5
4B9
 10
0.150000
 20
146.748
 30
0.000000
  70
    32
  0
VERTEX
  8
0
  5
4BA
 10
0.150000
 20
146.740
 30
0.000000
  70
    32
  0
VERTEX
  8
0
  5
4BB
 10
0.150000
 20
146.732
 30
0.000000
  70
    32
  0
VERTEX
  8
0
  5
4BC
 10
0.150000
 20
146.723
 30
0.000000
  70
    32
  0
VERTEX
  8
0
  5
4BD
 10
0.150000
 20
146.715
 30
0.000000
  70
    32
  0
VERTEX
  8
0
  5
4BE
 10
0.150000
 20
146.707
 30
0.000000
  70
    32
  0
VERTEX
  8
0
  5
4BF
 10
0.150000
 20
146.698
 30
0.000000
  70
    32
  0
VERTEX
  8
0
  5
4C0
 10
0.150000
 20
146.690
 30
0.000000
  70
    32
  0
VERTEX
  8
0
  5
4C1
 10
0.150000
 20
146.682
 30
0.000000
  70
    32
  0
VERTEX
  8
0
  5
4C2
 10
0.150000
 20
146.674
 30
0.000000
  70
    32
  0
VERTEX
  8
0
  5
4C3
 10
0.150000
 20
146.665
 30
0.000000
  70
    32
  0
VERTEX
  8
0
  5
4C4
 10
0.150000
 20
146.657
 30
0.000000
  70
    32
  0
VERTEX
  8
0
  5
4C5
 10
0.150000
 20
146.649
 30
0.000000
  70
    32
  0
VERTEX
  8
0
  5
4C6
 10
0.150000
 20
146.641
 30
0.000000
  70
    32
  0
VERTEX
  8
0
  5
4C7
 10
0.150000
 20
146.632
 30
0.000000
  70
    32
  0
VERTEX
  8
0
  5
4C8
 10
0.150000
 20
146.624
 30
0.000000
  70
    32
  0
VERTEX
  8
0
  5
4C9
 10
0.150000
 20
146.616
 30
0.000000
  70
    32
  0
VERTEX
  8
0
  5
4CA
 10
0.150000
 20
146.608
 30
0.000000
  70
    32
  0
VERTEX
  8
0
  5
4CB
 10
0.150000
 20
146.600
 30
0.000000
  70
    32
  0
VERTEX
  8
0
  5
4CC
 10
0.150000
 20
146.592
 30
0.000000
  70
    32
  0
VERTEX
  8
0
  5
4CD
 10
0.150000
 20
146.584
 30
0.000000
  70
    32
  0
VERTEX
  8
0
  5
4CE
 10
0.150000
 20
146.575
 30
0.000000
  70
    32
  0
VERTEX
  8
0
  5
4CF
 10
0.150000
 20
146.567
 30
0.000000
  70
    32
  0
VERTEX
  8
0
  5
4D0
 10
0.150000
 20
146.559
 30
0.000000
  70
    32
  0
VERTEX
  8
0
  5
4D1
 10
0.150000
 20
146.551
 30
0.000000
  70
    32
  0
VERTEX
  8
0
  5
4D2
 10
0.150000
 20
146.543
 30
0.000000
  70
    32
  0
VERTEX
  8
0
  5
4D3
 10
0.150000
 20
146.535
 30
0.000000
  70
    32
  0
VERTEX
  8
0
  5
4D4
 10
0.150000
 20
146.527
 30
0.000000
  70
    32
  0
VERTEX
  8
0
  5
4D5
 10
0.150000
 20
146.519
 30
0.000000
  70
    32
  0
VERTEX
  8
0
  5
4D6
 10
0.150000
 20
146.511
 30
0.000000
  70
    32
  0
VERTEX
  8
0
  5
4D7
 10
0.150000
 20
146.504
 30
0.000000
  70
    32
  0
VERTEX
  8
0
  5
4D8
 10
0.150000
 20
146.496
 30
0.000000
  70
    32
  0
VERTEX
  8
0
  5
4D9
 10
0.150000
 20
146.488
 30
0.000000
  70
    32
  0
VERTEX
  8
0
  5
4DA
 10
0.150000
 20
146.480
 30
0.000000
  70
    32
  0
VERTEX
  8
0
  5
4DB
 10
0.150000
 20
146.472
 30
0.000000
  70
    32
  0
VERTEX
  8
0
  5
4DC
 10
0.150000
 20
146.464
 30
0.000000
  70
    32
  0
SEQEND
  8
0
  5
4DD
  0
LINE
  5
143
  8
0
  6
CONTINUOUS
 62
     3
 10
0.1500000000000022
 20
149.292817863566512
 30
0.0
 11
0.1500000000000015
 21
147.8786035805453878
 31
0.0
  0
LINE
  5
144
  8
0
  6
CONTINUOUS
 62
     3
 10
0.1500000000000023
 20
149.9999249999812037
 30
0.0
 11
0.1500000000000022
 21
149.292817863566512
 31
0.0
  0
LINE
  5
145
  8
0
  6
CONTINUOUS
 62
     3
 10
0.1499999999999917
 20
125.4999999999999005
 30
0.0
 11
-0.1500000000000055
 21
125.4999999999999005
 31
-0.0000000000000001
  0
ARC
  5
146
  8
0
  6
CONTINUOUS
 62
     3
 10
0.0000000000000002
 20
0.0000000000000036
 30
0.0
 40
42.5
 50
270.2022208181185192
 51
89.7977791818814808
  0
ARC
  5
147
  8
0
  6
CONTINUOUS
 62
     3
 10
0.0000000000000038
 20
0.0
 30
0.0
 40
42.5
 50
90.2022208181185761
 51
269.7977791818814239
  0
ARC
  5
148
  8
0
  6
CONTINUOUS
 62
     3
 10
-0.0000000000000135
 20
-0.0000000000000284
 30
0.0
 40
149.2928932188133899
 50
90.0575671633636574
 51
269.9424328366363852
  0
ARC
  5
149
  8
0
  6
CONTINUOUS
 62
     3
 10
0.0000000000000147
 20
-0.0000000000000142
 30
0.0
 40
150.0
 50
90.057295789062394
 51
269.9427042109376202
  0
ARC
  5
14A
  8
0
  6
CONTINUOUS
 62
     3
 10
-0.0000000000000137
 20
-0.0000000000000142
 30
0.0
 40
150.0
 50
270.0572957890623798
 51
89.9427042109376202
  0
ARC
  5
14B
  8
0
  6
CONTINUOUS
 62
     3
 10
-0.0000000000000278
 20
-0.0000000000000142
 30
0.0
 40
149.2928932188133899
 50
270.0575671633636148
 51
89.9424328366363284
  0
ENDBLK
  5
14D
  8
0
  0
BLOCK
  8
0
  2
A$CDC01E167
 70
     0
 10
0.0
 20
0.0
 30
0.0
  3
A$CDC01E167
  1

  0
POLYLINE
  8
0
  5
4DE
  62
3
  66
     1
 10
0.000000
 20
0.000000
 30
0.000000
  70
     8
  0
VERTEX
  8
0
  5
4DF
 10
-0.150000
 20
2.14900e-13
 30
0.000000
  70
    32
  0
VERTEX
  8
0
  5
4E0
 10
-0.150000
 20
2.84748e-05
 30
-5.74063e-23
  70
    32
  0
VERTEX
  8
0
  5
4E1
 10
-0.150000
 20
0.000113754
 30
-4.59251e-22
  70
    32
  0
VERTEX
  8
0
  5
4E2
 10
-0.150000
 20
0.000255619
 30
-1.54997e-21
  70
    32
  0
VERTEX
  8
0
  5
4E3
 10
-0.150000
 20
0.000453852
 30
-3.67400e-21
  70
    32
  0
VERTEX
  8
0
  5
4E4
 10
-0.150000
 20
0.000708235
 30
-7.17579e-21
  70
    32
  0
VERTEX
  8
0
  5
4E5
 10
-0.150000
 20
0.00101855
 30
-1.23998e-20
  70
    32
  0
VERTEX
  8
0
  5
4E6
 10
-0.150000
 20
0.00138458
 30
-1.96904e-20
  70
    32
  0
VERTEX
  8
0
  5
4E7
 10
-0.150000
 20
0.00180610
 30
-2.93920e-20
  70
    32
  0
VERTEX
  8
0
  5
4E8
 10
-0.150000
 20
0.00228290
 30
-4.18492e-20
  70
    32
  0
VERTEX
  8
0
  5
4E9
 10
-0.150000
 20
0.00281476
 30
-5.74063e-20
  70
    32
  0
VERTEX
  8
0
  5
4EA
 10
-0.150000
 20
0.00340146
 30
-7.64078e-20
  70
    32
  0
VERTEX
  8
0
  5
4EB
 10
-0.150000
 20
0.00404278
 30
-9.91981e-20
  70
    32
  0
VERTEX
  8
0
  5
4EC
 10
-0.150000
 20
0.00473851
 30
-1.26122e-19
  70
    32
  0
VERTEX
  8
0
  5
4ED
 10
-0.150000
 20
0.00548843
 30
-1.57523e-19
  70
    32
  0
VERTEX
  8
0
  5
4EE
 10
-0.150000
 20
0.00629231
 30
-1.93746e-19
  70
    32
  0
VERTEX
  8
0
  5
4EF
 10
-0.150000
 20
0.00714994
 30
-2.35136e-19
  70
    32
  0
VERTEX
  8
0
  5
4F0
 10
-0.150000
 20
0.00806111
 30
-2.82037e-19
  70
    32
  0
VERTEX
  8
0
  5
4F1
 10
-0.150000
 20
0.00902558
 30
-3.34794e-19
  70
    32
  0
VERTEX
  8
0
  5
4F2
 10
-0.150000
 20
0.0100432
 30
-3.93750e-19
  70
    32
  0
VERTEX
  8
0
  5
4F3
 10
-0.150000
 20
0.0111136
 30
-4.59251e-19
  70
    32
  0
VERTEX
  8
0
  5
4F4
 10
-0.150000
 20
0.0122367
 30
-5.31640e-19
  70
    32
  0
VERTEX
  8
0
  5
4F5
 10
-0.150000
 20
0.0134123
 30
-6.11262e-19
  70
    32
  0
VERTEX
  8
0
  5
4F6
 10
-0.150000
 20
0.0146400
 30
-6.98463e-19
  70
    32
  0
VERTEX
  8
0
  5
4F7
 10
-0.150000
 20
0.0159198
 30
-7.93585e-19
  70
    32
  0
VERTEX
  8
0
  5
4F8
 10
-0.150000
 20
0.0172514
 30
-8.96974e-19
  70
    32
  0
VERTEX
  8
0
  5
4F9
 10
-0.150000
 20
0.0186345
 30
-1.00897e-18
  70
    32
  0
VERTEX
  8
0
  5
4FA
 10
-0.150000
 20
0.0200690
 30
-1.12993e-18
  70
    32
  0
VERTEX
  8
0
  5
4FB
 10
-0.150000
 20
0.0215546
 30
-1.26018e-18
  70
    32
  0
VERTEX
  8
0
  5
4FC
 10
-0.150000
 20
0.0230912
 30
-1.40008e-18
  70
    32
  0
VERTEX
  8
0
  5
4FD
 10
-0.150000
 20
0.0246784
 30
-1.54997e-18
  70
    32
  0
VERTEX
  8
0
  5
4FE
 10
-0.150000
 20
0.0263161
 30
-1.71019e-18
  70
    32
  0
VERTEX
  8
0
  5
4FF
 10
-0.150000
 20
0.0280041
 30
-1.88109e-18
  70
    32
  0
VERTEX
  8
0
  5
500
 10
-0.150000
 20
0.0297421
 30
-2.06301e-18
  70
    32
  0
VERTEX
  8
0
  5
501
 10
-0.150000
 20
0.0315299
 30
-2.25630e-18
  70
    32
  0
VERTEX
  8
0
  5
502
 10
-0.150000
 20
0.0333673
 30
-2.46130e-18
  70
    32
  0
VERTEX
  8
0
  5
503
 10
-0.150000
 20
0.0352542
 30
-2.67835e-18
  70
    32
  0
VERTEX
  8
0
  5
504
 10
-0.150000
 20
0.0371902
 30
-2.90780e-18
  70
    32
  0
VERTEX
  8
0
  5
505
 10
-0.150000
 20
0.0391751
 30
-3.15000e-18
  70
    32
  0
VERTEX
  8
0
  5
506
 10
-0.150000
 20
0.0412088
 30
-3.40529e-18
  70
    32
  0
VERTEX
  8
0
  5
507
 10
-0.150000
 20
0.0432910
 30
-3.67400e-18
  70
    32
  0
VERTEX
  8
0
  5
508
 10
-0.150000
 20
0.0454214
 30
-3.95650e-18
  70
    32
  0
VERTEX
  8
0
  5
509
 10
-0.150000
 20
0.0476000
 30
-4.25312e-18
  70
    32
  0
VERTEX
  8
0
  5
50A
 10
-0.150000
 20
0.0498264
 30
-4.56420e-18
  70
    32
  0
VERTEX
  8
0
  5
50B
 10
-0.150000
 20
0.0521005
 30
-4.89010e-18
  70
    32
  0
VERTEX
  8
0
  5
50C
 10
-0.150000
 20
0.0544220
 30
-5.23115e-18
  70
    32
  0
VERTEX
  8
0
  5
50D
 10
-0.150000
 20
0.0567907
 30
-5.58770e-18
  70
    32
  0
VERTEX
  8
0
  5
50E
 10
-0.150000
 20
0.0592064
 30
-5.96010e-18
  70
    32
  0
VERTEX
  8
0
  5
50F
 10
-0.150000
 20
0.0616688
 30
-6.34868e-18
  70
    32
  0
VERTEX
  8
0
  5
510
 10
-0.150000
 20
0.0641778
 30
-6.75380e-18
  70
    32
  0
VERTEX
  8
0
  5
511
 10
-0.150000
 20
0.0667332
 30
-7.17579e-18
  70
    32
  0
VERTEX
  8
0
  5
512
 10
-0.150000
 20
0.0693346
 30
-7.61500e-18
  70
    32
  0
VERTEX
  8
0
  5
513
 10
-0.150000
 20
0.0719820
 30
-8.07179e-18
  70
    32
  0
VERTEX
  8
0
  5
514
 10
-0.150000
 20
0.0746750
 30
-8.54648e-18
  70
    32
  0
VERTEX
  8
0
  5
515
 10
-0.150000
 20
0.0774135
 30
-9.03943e-18
  70
    32
  0
VERTEX
  8
0
  5
516
 10
-0.150000
 20
0.0801972
 30
-9.55098e-18
  70
    32
  0
VERTEX
  8
0
  5
517
 10
-0.150000
 20
0.0830259
 30
-1.00815e-17
  70
    32
  0
VERTEX
  8
0
  5
518
 10
-0.150000
 20
0.0858995
 30
-1.06312e-17
  70
    32
  0
VERTEX
  8
0
  5
519
 10
-0.150000
 20
0.0888176
 30
-1.12007e-17
  70
    32
  0
VERTEX
  8
0
  5
51A
 10
-0.150000
 20
0.0917802
 30
-1.17901e-17
  70
    32
  0
VERTEX
  8
0
  5
51B
 10
-0.150000
 20
0.0947868
 30
-1.23998e-17
  70
    32
  0
VERTEX
  8
0
  5
51C
 10
-0.150000
 20
0.0978374
 30
-1.30301e-17
  70
    32
  0
VERTEX
  8
0
  5
51D
 10
-0.150000
 20
0.100932
 30
-1.36815e-17
  70
    32
  0
VERTEX
  8
0
  5
51E
 10
-0.150000
 20
0.104070
 30
-1.43543e-17
  70
    32
  0
VERTEX
  8
0
  5
51F
 10
-0.150000
 20
0.107251
 30
-1.50487e-17
  70
    32
  0
VERTEX
  8
0
  5
520
 10
-0.150000
 20
0.110475
 30
-1.57652e-17
  70
    32
  0
VERTEX
  8
0
  5
521
 10
-0.150000
 20
0.113742
 30
-1.65041e-17
  70
    32
  0
VERTEX
  8
0
  5
522
 10
-0.150000
 20
0.117051
 30
-1.72657e-17
  70
    32
  0
VERTEX
  8
0
  5
523
 10
-0.150000
 20
0.120403
 30
-1.80504e-17
  70
    32
  0
VERTEX
  8
0
  5
524
 10
-0.150000
 20
0.123798
 30
-1.88585e-17
  70
    32
  0
VERTEX
  8
0
  5
525
 10
-0.150000
 20
0.127234
 30
-1.96904e-17
  70
    32
  0
VERTEX
  8
0
  5
526
 10
-0.150000
 20
0.130712
 30
-2.05464e-17
  70
    32
  0
VERTEX
  8
0
  5
527
 10
-0.150000
 20
0.134231
 30
-2.14268e-17
  70
    32
  0
VERTEX
  8
0
  5
528
 10
-0.150000
 20
0.137792
 30
-2.23320e-17
  70
    32
  0
VERTEX
  8
0
  5
529
 10
-0.150000
 20
0.141394
 30
-2.32624e-17
  70
    32
  0
VERTEX
  8
0
  5
52A
 10
-0.150000
 20
0.145037
 30
-2.42183e-17
  70
    32
  0
VERTEX
  8
0
  5
52B
 10
-0.150000
 20
0.148720
 30
-2.52000e-17
  70
    32
  0
VERTEX
  8
0
  5
52C
 10
-0.150000
 20
0.152444
 30
-2.62079e-17
  70
    32
  0
VERTEX
  8
0
  5
52D
 10
-0.150000
 20
0.156208
 30
-2.72423e-17
  70
    32
  0
VERTEX
  8
0
  5
52E
 10
-0.150000
 20
0.160012
 30
-2.83036e-17
  70
    32
  0
VERTEX
  8
0
  5
52F
 10
-0.150000
 20
0.163856
 30
-2.93920e-17
  70
    32
  0
VERTEX
  8
0
  5
530
 10
-0.150000
 20
0.167739
 30
-3.05081e-17
  70
    32
  0
VERTEX
  8
0
  5
531
 10
-0.150000
 20
0.171662
 30
-3.16520e-17
  70
    32
  0
VERTEX
  8
0
  5
532
 10
-0.150000
 20
0.175624
 30
-3.28242e-17
  70
    32
  0
VERTEX
  8
0
  5
533
 10
-0.150000
 20
0.179625
 30
-3.40250e-17
  70
    32
  0
VERTEX
  8
0
  5
534
 10
-0.150000
 20
0.183665
 30
-3.52547e-17
  70
    32
  0
VERTEX
  8
0
  5
535
 10
-0.150000
 20
0.187743
 30
-3.65136e-17
  70
    32
  0
VERTEX
  8
0
  5
536
 10
-0.150000
 20
0.191859
 30
-3.78022e-17
  70
    32
  0
VERTEX
  8
0
  5
537
 10
-0.150000
 20
0.196013
 30
-3.91208e-17
  70
    32
  0
VERTEX
  8
0
  5
538
 10
-0.150000
 20
0.200205
 30
-4.04697e-17
  70
    32
  0
VERTEX
  8
0
  5
539
 10
-0.150000
 20
0.204435
 30
-4.18492e-17
  70
    32
  0
VERTEX
  8
0
  5
53A
 10
-0.150000
 20
0.208702
 30
-4.32597e-17
  70
    32
  0
VERTEX
  8
0
  5
53B
 10
-0.150000
 20
0.213007
 30
-4.47016e-17
  70
    32
  0
VERTEX
  8
0
  5
53C
 10
-0.150000
 20
0.217348
 30
-4.61752e-17
  70
    32
  0
VERTEX
  8
0
  5
53D
 10
-0.150000
 20
0.221726
 30
-4.76808e-17
  70
    32
  0
VERTEX
  8
0
  5
53E
 10
-0.150000
 20
0.226140
 30
-4.92187e-17
  70
    32
  0
VERTEX
  8
0
  5
53F
 10
-0.150000
 20
0.230595
 30
-5.07812e-17
  70
    32
  0
VERTEX
  8
0
  5
540
 10
-0.150000
 20
0.235115
 30
-5.23196e-17
  70
    32
  0
VERTEX
  8
0
  5
541
 10
-0.150000
 20
0.239703
 30
-5.38266e-17
  70
    32
  0
VERTEX
  8
0
  5
542
 10
-0.150000
 20
0.244359
 30
-5.53033e-17
  70
    32
  0
VERTEX
  8
0
  5
543
 10
-0.150000
 20
0.249081
 30
-5.67507e-17
  70
    32
  0
VERTEX
  8
0
  5
544
 10
-0.150000
 20
0.253870
 30
-5.81699e-17
  70
    32
  0
VERTEX
  8
0
  5
545
 10
-0.150000
 20
0.258725
 30
-5.95618e-17
  70
    32
  0
VERTEX
  8
0
  5
546
 10
-0.150000
 20
0.263645
 30
-6.09276e-17
  70
    32
  0
VERTEX
  8
0
  5
547
 10
-0.150000
 20
0.268629
 30
-6.22682e-17
  70
    32
  0
VERTEX
  8
0
  5
548
 10
-0.150000
 20
0.273677
 30
-6.35848e-17
  70
    32
  0
VERTEX
  8
0
  5
549
 10
-0.150000
 20
0.278789
 30
-6.48782e-17
  70
    32
  0
VERTEX
  8
0
  5
54A
 10
-0.150000
 20
0.283963
 30
-6.61496e-17
  70
    32
  0
VERTEX
  8
0
  5
54B
 10
-0.150000
 20
0.289199
 30
-6.74000e-17
  70
    32
  0
VERTEX
  8
0
  5
54C
 10
-0.150000
 20
0.294496
 30
-6.86304e-17
  70
    32
  0
VERTEX
  8
0
  5
54D
 10
-0.150000
 20
0.299855
 30
-6.98419e-17
  70
    32
  0
VERTEX
  8
0
  5
54E
 10
-0.150000
 20
0.305273
 30
-7.10355e-17
  70
    32
  0
VERTEX
  8
0
  5
54F
 10
-0.150000
 20
0.310751
 30
-7.22122e-17
  70
    32
  0
VERTEX
  8
0
  5
550
 10
-0.150000
 20
0.316288
 30
-7.33730e-17
  70
    32
  0
VERTEX
  8
0
  5
551
 10
-0.150000
 20
0.321884
 30
-7.45190e-17
  70
    32
  0
VERTEX
  8
0
  5
552
 10
-0.150000
 20
0.327537
 30
-7.56513e-17
  70
    32
  0
VERTEX
  8
0
  5
553
 10
-0.150000
 20
0.333247
 30
-7.67708e-17
  70
    32
  0
VERTEX
  8
0
  5
554
 10
-0.150000
 20
0.339013
 30
-7.78786e-17
  70
    32
  0
VERTEX
  8
0
  5
555
 10
-0.150000
 20
0.344836
 30
-7.89757e-17
  70
    32
  0
VERTEX
  8
0
  5
556
 10
-0.150000
 20
0.350713
 30
-8.00632e-17
  70
    32
  0
VERTEX
  8
0
  5
557
 10
-0.150000
 20
0.356645
 30
-8.11421e-17
  70
    32
  0
VERTEX
  8
0
  5
558
 10
-0.150000
 20
0.362631
 30
-8.22134e-17
  70
    32
  0
VERTEX
  8
0
  5
559
 10
-0.150000
 20
0.368671
 30
-8.32781e-17
  70
    32
  0
VERTEX
  8
0
  5
55A
 10
-0.150000
 20
0.374763
 30
-8.43373e-17
  70
    32
  0
VERTEX
  8
0
  5
55B
 10
-0.150000
 20
0.380907
 30
-8.53921e-17
  70
    32
  0
VERTEX
  8
0
  5
55C
 10
-0.150000
 20
0.387103
 30
-8.64434e-17
  70
    32
  0
VERTEX
  8
0
  5
55D
 10
-0.150000
 20
0.393349
 30
-8.74923e-17
  70
    32
  0
VERTEX
  8
0
  5
55E
 10
-0.150000
 20
0.399646
 30
-8.85398e-17
  70
    32
  0
VERTEX
  8
0
  5
55F
 10
-0.150000
 20
0.405992
 30
-8.95870e-17
  70
    32
  0
VERTEX
  8
0
  5
560
 10
-0.150000
 20
0.412387
 30
-9.06349e-17
  70
    32
  0
VERTEX
  8
0
  5
561
 10
-0.150000
 20
0.418831
 30
-9.16845e-17
  70
    32
  0
VERTEX
  8
0
  5
562
 10
-0.150000
 20
0.425323
 30
-9.27368e-17
  70
    32
  0
VERTEX
  8
0
  5
563
 10
-0.150000
 20
0.431861
 30
-9.37929e-17
  70
    32
  0
VERTEX
  8
0
  5
564
 10
-0.150000
 20
0.438446
 30
-9.48539e-17
  70
    32
  0
VERTEX
  8
0
  5
565
 10
-0.150000
 20
0.445077
 30
-9.59207e-17
  70
    32
  0
VERTEX
  8
0
  5
566
 10
-0.150000
 20
0.451753
 30
-9.69944e-17
  70
    32
  0
VERTEX
  8
0
  5
567
 10
-0.150000
 20
0.458474
 30
-9.80760e-17
  70
    32
  0
VERTEX
  8
0
  5
568
 10
-0.150000
 20
0.465239
 30
-9.91666e-17
  70
    32
  0
VERTEX
  8
0
  5
569
 10
-0.150000
 20
0.472047
 30
-1.00267e-16
  70
    32
  0
VERTEX
  8
0
  5
56A
 10
-0.150000
 20
0.478898
 30
-1.01379e-16
  70
    32
  0
VERTEX
  8
0
  5
56B
 10
-0.150000
 20
0.485791
 30
-1.02502e-16
  70
    32
  0
VERTEX
  8
0
  5
56C
 10
-0.150000
 20
0.492726
 30
-1.03639e-16
  70
    32
  0
VERTEX
  8
0
  5
56D
 10
-0.150000
 20
0.499701
 30
-1.04790e-16
  70
    32
  0
VERTEX
  8
0
  5
56E
 10
-0.150000
 20
0.506717
 30
-1.05956e-16
  70
    32
  0
VERTEX
  8
0
  5
56F
 10
-0.150000
 20
0.513773
 30
-1.07138e-16
  70
    32
  0
VERTEX
  8
0
  5
570
 10
-0.150000
 20
0.520867
 30
-1.08338e-16
  70
    32
  0
VERTEX
  8
0
  5
571
 10
-0.150000
 20
0.528000
 30
-1.09555e-16
  70
    32
  0
VERTEX
  8
0
  5
572
 10
-0.150000
 20
0.535171
 30
-1.10792e-16
  70
    32
  0
VERTEX
  8
0
  5
573
 10
-0.150000
 20
0.542379
 30
-1.12050e-16
  70
    32
  0
VERTEX
  8
0
  5
574
 10
-0.150000
 20
0.549624
 30
-1.13328e-16
  70
    32
  0
VERTEX
  8
0
  5
575
 10
-0.150000
 20
0.556904
 30
-1.14629e-16
  70
    32
  0
VERTEX
  8
0
  5
576
 10
-0.150000
 20
0.564220
 30
-1.15954e-16
  70
    32
  0
VERTEX
  8
0
  5
577
 10
-0.150000
 20
0.571570
 30
-1.17303e-16
  70
    32
  0
VERTEX
  8
0
  5
578
 10
-0.150000
 20
0.578955
 30
-1.18677e-16
  70
    32
  0
VERTEX
  8
0
  5
579
 10
-0.150000
 20
0.586373
 30
-1.20078e-16
  70
    32
  0
VERTEX
  8
0
  5
57A
 10
-0.150000
 20
0.593824
 30
-1.21506e-16
  70
    32
  0
VERTEX
  8
0
  5
57B
 10
-0.150000
 20
0.601307
 30
-1.22963e-16
  70
    32
  0
VERTEX
  8
0
  5
57C
 10
-0.150000
 20
0.608822
 30
-1.24450e-16
  70
    32
  0
VERTEX
  8
0
  5
57D
 10
-0.150000
 20
0.616367
 30
-1.25967e-16
  70
    32
  0
VERTEX
  8
0
  5
57E
 10
-0.150000
 20
0.623943
 30
-1.27516e-16
  70
    32
  0
VERTEX
  8
0
  5
57F
 10
-0.150000
 20
0.631549
 30
-1.29098e-16
  70
    32
  0
VERTEX
  8
0
  5
580
 10
-0.150000
 20
0.639184
 30
-1.30714e-16
  70
    32
  0
VERTEX
  8
0
  5
581
 10
-0.150000
 20
0.646847
 30
-1.32364e-16
  70
    32
  0
VERTEX
  8
0
  5
582
 10
-0.150000
 20
0.654538
 30
-1.34050e-16
  70
    32
  0
VERTEX
  8
0
  5
583
 10
-0.150000
 20
0.662256
 30
-1.35773e-16
  70
    32
  0
VERTEX
  8
0
  5
584
 10
-0.150000
 20
0.670001
 30
-1.37534e-16
  70
    32
  0
VERTEX
  8
0
  5
585
 10
-0.150000
 20
0.677772
 30
-1.39334e-16
  70
    32
  0
VERTEX
  8
0
  5
586
 10
-0.150000
 20
0.685569
 30
-1.41173e-16
  70
    32
  0
VERTEX
  8
0
  5
587
 10
-0.150000
 20
0.693390
 30
-1.43054e-16
  70
    32
  0
VERTEX
  8
0
  5
588
 10
-0.150000
 20
0.701235
 30
-1.44977e-16
  70
    32
  0
VERTEX
  8
0
  5
589
 10
-0.150000
 20
0.709104
 30
-1.46943e-16
  70
    32
  0
VERTEX
  8
0
  5
58A
 10
-0.150000
 20
0.716996
 30
-1.48953e-16
  70
    32
  0
VERTEX
  8
0
  5
58B
 10
-0.150000
 20
0.724910
 30
-1.51008e-16
  70
    32
  0
VERTEX
  8
0
  5
58C
 10
-0.150000
 20
0.732845
 30
-1.53109e-16
  70
    32
  0
VERTEX
  8
0
  5
58D
 10
-0.150000
 20
0.740802
 30
-1.55257e-16
  70
    32
  0
VERTEX
  8
0
  5
58E
 10
-0.150000
 20
0.748779
 30
-1.57454e-16
  70
    32
  0
VERTEX
  8
0
  5
58F
 10
-0.150000
 20
0.756776
 30
-1.59699e-16
  70
    32
  0
VERTEX
  8
0
  5
590
 10
-0.150000
 20
0.764792
 30
-1.61996e-16
  70
    32
  0
VERTEX
  8
0
  5
591
 10
-0.150000
 20
0.772826
 30
-1.64343e-16
  70
    32
  0
VERTEX
  8
0
  5
592
 10
-0.150000
 20
0.780879
 30
-1.66743e-16
  70
    32
  0
VERTEX
  8
0
  5
593
 10
-0.150000
 20
0.788948
 30
-1.69196e-16
  70
    32
  0
VERTEX
  8
0
  5
594
 10
-0.150000
 20
0.797035
 30
-1.71704e-16
  70
    32
  0
VERTEX
  8
0
  5
595
 10
-0.150000
 20
0.805137
 30
-1.74267e-16
  70
    32
  0
VERTEX
  8
0
  5
596
 10
-0.150000
 20
0.813255
 30
-1.76886e-16
  70
    32
  0
VERTEX
  8
0
  5
597
 10
-0.150000
 20
0.821388
 30
-1.79563e-16
  70
    32
  0
VERTEX
  8
0
  5
598
 10
-0.150000
 20
0.829535
 30
-1.82299e-16
  70
    32
  0
VERTEX
  8
0
  5
599
 10
-0.150000
 20
0.837695
 30
-1.85094e-16
  70
    32
  0
VERTEX
  8
0
  5
59A
 10
-0.150000
 20
0.845869
 30
-1.87950e-16
  70
    32
  0
VERTEX
  8
0
  5
59B
 10
-0.150000
 20
0.854055
 30
-1.90867e-16
  70
    32
  0
VERTEX
  8
0
  5
59C
 10
-0.150000
 20
0.862252
 30
-1.93847e-16
  70
    32
  0
VERTEX
  8
0
  5
59D
 10
-0.150000
 20
0.870461
 30
-1.96891e-16
  70
    32
  0
VERTEX
  8
0
  5
59E
 10
-0.150000
 20
0.878680
 30
-2.00000e-16
  70
    32
  0
SEQEND
  8
0
  5
59F
  0
LINE
  5
152
  8
0
  6
CONTINUOUS
 62
     3
 10
-0.150000000000027
 20
2.2928932188134339
 30
-0.0000000000000005
 11
-0.1500000000000264
 21
2.99999999999998
 31
-0.0000000000000007
210
0.0
220
1.0
230
-0.0000000000000002
  0
LINE
  5
153
  8
0
  6
CONTINUOUS
 62
     3
 10
-0.1500000000000259
 20
0.8786796564403297
 30
-0.0000000000000002
 11
-0.150000000000027
 21
2.2928932188134561
 31
-0.0000000000000005
210
0.0
220
1.0
230
-0.0000000000000002
  0
LINE
  5
154
  8
0
  6
CONTINUOUS
 62
     3
 10
-0.1500000000000057
 20
0.9999999999999948
 30
-0.0000000000000002
 11
0.149999999999995
 21
0.9999999999999948
 31
-0.0000000000000002
210
0.0
220
1.0
230
-0.0000000000000002
  0
LINE
  5
155
  8
0
  6
CONTINUOUS
 62
     3
 10
0.1500000000000057
 20
-0.0000000000000179
 30
0.0
 11
-0.1500000000000057
 21
-0.0000000000000179
 31
0.0
210
0.0
220
1.0
230
-0.0000000000000002
  0
POLYLINE
  8
0
  5
5A0
  62
3
  66
     1
 10
0.000000
 20
0.000000
 30
0.000000
  70
     8
  0
VERTEX
  8
0
  5
5A1
 10
0.150000
 20
0.878680
 30
-2.00000e-16
  70
    32
  0
VERTEX
  8
0
  5
5A2
 10
0.150000
 20
0.870461
 30
-1.96891e-16
  70
    32
  0
VERTEX
  8
0
  5
5A3
 10
0.150000
 20
0.862252
 30
-1.93847e-16
  70
    32
  0
VERTEX
  8
0
  5
5A4
 10
0.150000
 20
0.854055
 30
-1.90867e-16
  70
    32
  0
VERTEX
  8
0
  5
5A5
 10
0.150000
 20
0.845869
 30
-1.87950e-16
  70
    32
  0
VERTEX
  8
0
  5
5A6
 10
0.150000
 20
0.837695
 30
-1.85094e-16
  70
    32
  0
VERTEX
  8
0
  5
5A7
 10
0.150000
 20
0.829535
 30
-1.82299e-16
  70
    32
  0
VERTEX
  8
0
  5
5A8
 10
0.150000
 20
0.821388
 30
-1.79563e-16
  70
    32
  0
VERTEX
  8
0
  5
5A9
 10
0.150000
 20
0.813255
 30
-1.76886e-16
  70
    32
  0
VERTEX
  8
0
  5
5AA
 10
0.150000
 20
0.805137
 30
-1.74267e-16
  70
    32
  0
VERTEX
  8
0
  5
5AB
 10
0.150000
 20
0.797035
 30
-1.71704e-16
  70
    32
  0
VERTEX
  8
0
  5
5AC
 10
0.150000
 20
0.788948
 30
-1.69196e-16
  70
    32
  0
VERTEX
  8
0
  5
5AD
 10
0.150000
 20
0.780879
 30
-1.66743e-16
  70
    32
  0
VERTEX
  8
0
  5
5AE
 10
0.150000
 20
0.772826
 30
-1.64343e-16
  70
    32
  0
VERTEX
  8
0
  5
5AF
 10
0.150000
 20
0.764792
 30
-1.61996e-16
  70
    32
  0
VERTEX
  8
0
  5
5B0
 10
0.150000
 20
0.756776
 30
-1.59699e-16
  70
    32
  0
VERTEX
  8
0
  5
5B1
 10
0.150000
 20
0.748779
 30
-1.57454e-16
  70
    32
  0
VERTEX
  8
0
  5
5B2
 10
0.150000
 20
0.740802
 30
-1.55257e-16
  70
    32
  0
VERTEX
  8
0
  5
5B3
 10
0.150000
 20
0.732845
 30
-1.53109e-16
  70
    32
  0
VERTEX
  8
0
  5
5B4
 10
0.150000
 20
0.724910
 30
-1.51008e-16
  70
    32
  0
VERTEX
  8
0
  5
5B5
 10
0.150000
 20
0.716996
 30
-1.48953e-16
  70
    32
  0
VERTEX
  8
0
  5
5B6
 10
0.150000
 20
0.709104
 30
-1.46943e-16
  70
    32
  0
VERTEX
  8
0
  5
5B7
 10
0.150000
 20
0.701235
 30
-1.44977e-16
  70
    32
  0
VERTEX
  8
0
  5
5B8
 10
0.150000
 20
0.693390
 30
-1.43054e-16
  70
    32
  0
VERTEX
  8
0
  5
5B9
 10
0.150000
 20
0.685569
 30
-1.41173e-16
  70
    32
  0
VERTEX
  8
0
  5
5BA
 10
0.150000
 20
0.677772
 30
-1.39334e-16
  70
    32
  0
VERTEX
  8
0
  5
5BB
 10
0.150000
 20
0.670001
 30
-1.37534e-16
  70
    32
  0
VERTEX
  8
0
  5
5BC
 10
0.150000
 20
0.662256
 30
-1.35773e-16
  70
    32
  0
VERTEX
  8
0
  5
5BD
 10
0.150000
 20
0.654538
 30
-1.34050e-16
  70
    32
  0
VERTEX
  8
0
  5
5BE
 10
0.150000
 20
0.646847
 30
-1.32364e-16
  70
    32
  0
VERTEX
  8
0
  5
5BF
 10
0.150000
 20
0.639184
 30
-1.30714e-16
  70
    32
  0
VERTEX
  8
0
  5
5C0
 10
0.150000
 20
0.631549
 30
-1.29098e-16
  70
    32
  0
VERTEX
  8
0
  5
5C1
 10
0.150000
 20
0.623943
 30
-1.27516e-16
  70
    32
  0
VERTEX
  8
0
  5
5C2
 10
0.150000
 20
0.616367
 30
-1.25967e-16
  70
    32
  0
VERTEX
  8
0
  5
5C3
 10
0.150000
 20
0.608822
 30
-1.24450e-16
  70
    32
  0
VERTEX
  8
0
  5
5C4
 10
0.150000
 20
0.601307
 30
-1.22963e-16
  70
    32
  0
VERTEX
  8
0
  5
5C5
 10
0.150000
 20
0.593824
 30
-1.21506e-16
  70
    32
  0
VERTEX
  8
0
  5
5C6
 10
0.150000
 20
0.586373
 30
-1.20078e-16
  70
    32
  0
VERTEX
  8
0
  5
5C7
 10
0.150000
 20
0.578955
 30
-1.18677e-16
  70
    32
  0
VERTEX
  8
0
  5
5C8
 10
0.150000
 20
0.571570
 30
-1.17303e-16
  70
    32
  0
VERTEX
  8
0
  5
5C9
 10
0.150000
 20
0.564220
 30
-1.15954e-16
  70
    32
  0
VERTEX
  8
0
  5
5CA
 10
0.150000
 20
0.556904
 30
-1.14629e-16
  70
    32
  0
VERTEX
  8
0
  5
5CB
 10
0.150000
 20
0.549624
 30
-1.13328e-16
  70
    32
  0
VERTEX
  8
0
  5
5CC
 10
0.150000
 20
0.542379
 30
-1.12050e-16
  70
    32
  0
VERTEX
  8
0
  5
5CD
 10
0.150000
 20
0.535171
 30
-1.10792e-16
  70
    32
  0
VERTEX
  8
0
  5
5CE
 10
0.150000
 20
0.528000
 30
-1.09555e-16
  70
    32
  0
VERTEX
  8
0
  5
5CF
 10
0.150000
 20
0.520867
 30
-1.08338e-16
  70
    32
  0
VERTEX
  8
0
  5
5D0
 10
0.150000
 20
0.513773
 30
-1.07138e-16
  70
    32
  0
VERTEX
  8
0
  5
5D1
 10
0.150000
 20
0.506717
 30
-1.05956e-16
  70
    32
  0
VERTEX
  8
0
  5
5D2
 10
0.150000
 20
0.499701
 30
-1.04790e-16
  70
    32
  0
VERTEX
  8
0
  5
5D3
 10
0.150000
 20
0.492726
 30
-1.03639e-16
  70
    32
  0
VERTEX
  8
0
  5
5D4
 10
0.150000
 20
0.485791
 30
-1.02502e-16
  70
    32
  0
VERTEX
  8
0
  5
5D5
 10
0.150000
 20
0.478898
 30
-1.01379e-16
  70
    32
  0
VERTEX
  8
0
  5
5D6
 10
0.150000
 20
0.472047
 30
-1.00267e-16
  70
    32
  0
VERTEX
  8
0
  5
5D7
 10
0.150000
 20
0.465239
 30
-9.91666e-17
  70
    32
  0
VERTEX
  8
0
  5
5D8
 10
0.150000
 20
0.458474
 30
-9.80760e-17
  70
    32
  0
VERTEX
  8
0
  5
5D9
 10
0.150000
 20
0.451753
 30
-9.69944e-17
  70
    32
  0
VERTEX
  8
0
  5
5DA
 10
0.150000
 20
0.445077
 30
-9.59207e-17
  70
    32
  0
VERTEX
  8
0
  5
5DB
 10
0.150000
 20
0.438446
 30
-9.48539e-17
  70
    32
  0
VERTEX
  8
0
  5
5DC
 10
0.150000
 20
0.431861
 30
-9.37929e-17
  70
    32
  0
VERTEX
  8
0
  5
5DD
 10
0.150000
 20
0.425323
 30
-9.27368e-17
  70
    32
  0
VERTEX
  8
0
  5
5DE
 10
0.150000
 20
0.418831
 30
-9.16845e-17
  70
    32
  0
VERTEX
  8
0
  5
5DF
 10
0.150000
 20
0.412387
 30
-9.06349e-17
  70
    32
  0
VERTEX
  8
0
  5
5E0
 10
0.150000
 20
0.405992
 30
-8.95870e-17
  70
    32
  0
VERTEX
  8
0
  5
5E1
 10
0.150000
 20
0.399646
 30
-8.85398e-17
  70
    32
  0
VERTEX
  8
0
  5
5E2
 10
0.150000
 20
0.393349
 30
-8.74923e-17
  70
    32
  0
VERTEX
  8
0
  5
5E3
 10
0.150000
 20
0.387103
 30
-8.64434e-17
  70
    32
  0
VERTEX
  8
0
  5
5E4
 10
0.150000
 20
0.380907
 30
-8.53921e-17
  70
    32
  0
VERTEX
  8
0
  5
5E5
 10
0.150000
 20
0.374763
 30
-8.43373e-17
  70
    32
  0
VERTEX
  8
0
  5
5E6
 10
0.150000
 20
0.368671
 30
-8.32781e-17
  70
    32
  0
VERTEX
  8
0
  5
5E7
 10
0.150000
 20
0.362631
 30
-8.22134e-17
  70
    32
  0
VERTEX
  8
0
  5
5E8
 10
0.150000
 20
0.356645
 30
-8.11421e-17
  70
    32
  0
VERTEX
  8
0
  5
5E9
 10
0.150000
 20
0.350713
 30
-8.00632e-17
  70
    32
  0
VERTEX
  8
0
  5
5EA
 10
0.150000
 20
0.344836
 30
-7.89757e-17
  70
    32
  0
VERTEX
  8
0
  5
5EB
 10
0.150000
 20
0.339013
 30
-7.78786e-17
  70
    32
  0
VERTEX
  8
0
  5
5EC
 10
0.150000
 20
0.333247
 30
-7.67708e-17
  70
    32
  0
VERTEX
  8
0
  5
5ED
 10
0.150000
 20
0.327537
 30
-7.56513e-17
  70
    32
  0
VERTEX
  8
0
  5
5EE
 10
0.150000
 20
0.321884
 30
-7.45190e-17
  70
    32
  0
VERTEX
  8
0
  5
5EF
 10
0.150000
 20
0.316288
 30
-7.33730e-17
  70
    32
  0
VERTEX
  8
0
  5
5F0
 10
0.150000
 20
0.310751
 30
-7.22122e-17
  70
    32
  0
VERTEX
  8
0
  5
5F1
 10
0.150000
 20
0.305273
 30
-7.10355e-17
  70
    32
  0
VERTEX
  8
0
  5
5F2
 10
0.150000
 20
0.299855
 30
-6.98419e-17
  70
    32
  0
VERTEX
  8
0
  5
5F3
 10
0.150000
 20
0.294496
 30
-6.86304e-17
  70
    32
  0
VERTEX
  8
0
  5
5F4
 10
0.150000
 20
0.289199
 30
-6.74000e-17
  70
    32
  0
VERTEX
  8
0
  5
5F5
 10
0.150000
 20
0.283963
 30
-6.61496e-17
  70
    32
  0
VERTEX
  8
0
  5
5F6
 10
0.150000
 20
0.278789
 30
-6.48782e-17
  70
    32
  0
VERTEX
  8
0
  5
5F7
 10
0.150000
 20
0.273677
 30
-6.35848e-17
  70
    32
  0
VERTEX
  8
0
  5
5F8
 10
0.150000
 20
0.268629
 30
-6.22682e-17
  70
    32
  0
VERTEX
  8
0
  5
5F9
 10
0.150000
 20
0.263645
 30
-6.09276e-17
  70
    32
  0
VERTEX
  8
0
  5
5FA
 10
0.150000
 20
0.258725
 30
-5.95618e-17
  70
    32
  0
VERTEX
  8
0
  5
5FB
 10
0.150000
 20
0.253870
 30
-5.81699e-17
  70
    32
  0
VERTEX
  8
0
  5
5FC
 10
0.150000
 20
0.249081
 30
-5.67507e-17
  70
    32
  0
VERTEX
  8
0
  5
5FD
 10
0.150000
 20
0.244359
 30
-5.53033e-17
  70
    32
  0
VERTEX
  8
0
  5
5FE
 10
0.150000
 20
0.239703
 30
-5.38266e-17
  70
    32
  0
VERTEX
  8
0
  5
5FF
 10
0.150000
 20
0.235115
 30
-5.23196e-17
  70
    32
  0
VERTEX
  8
0
  5
600
 10
0.150000
 20
0.230595
 30
-5.07812e-17
  70
    32
  0
VERTEX
  8
0
  5
601
 10
0.150000
 20
0.226140
 30
-4.92187e-17
  70
    32
  0
VERTEX
  8
0
  5
602
 10
0.150000
 20
0.221726
 30
-4.76808e-17
  70
    32
  0
VERTEX
  8
0
  5
603
 10
0.150000
 20
0.217348
 30
-4.61752e-17
  70
    32
  0
VERTEX
  8
0
  5
604
 10
0.150000
 20
0.213007
 30
-4.47016e-17
  70
    32
  0
VERTEX
  8
0
  5
605
 10
0.150000
 20
0.208702
 30
-4.32597e-17
  70
    32
  0
VERTEX
  8
0
  5
606
 10
0.150000
 20
0.204435
 30
-4.18492e-17
  70
    32
  0
VERTEX
  8
0
  5
607
 10
0.150000
 20
0.200205
 30
-4.04697e-17
  70
    32
  0
VERTEX
  8
0
  5
608
 10
0.150000
 20
0.196013
 30
-3.91208e-17
  70
    32
  0
VERTEX
  8
0
  5
609
 10
0.150000
 20
0.191859
 30
-3.78022e-17
  70
    32
  0
VERTEX
  8
0
  5
60A
 10
0.150000
 20
0.187743
 30
-3.65136e-17
  70
    32
  0
VERTEX
  8
0
  5
60B
 10
0.150000
 20
0.183665
 30
-3.52547e-17
  70
    32
  0
VERTEX
  8
0
  5
60C
 10
0.150000
 20
0.179625
 30
-3.40250e-17
  70
    32
  0
VERTEX
  8
0
  5
60D
 10
0.150000
 20
0.175624
 30
-3.28242e-17
  70
    32
  0
VERTEX
  8
0
  5
60E
 10
0.150000
 20
0.171662
 30
-3.16520e-17
  70
    32
  0
VERTEX
  8
0
  5
60F
 10
0.150000
 20
0.167739
 30
-3.05081e-17
  70
    32
  0
VERTEX
  8
0
  5
610
 10
0.150000
 20
0.163856
 30
-2.93920e-17
  70
    32
  0
VERTEX
  8
0
  5
611
 10
0.150000
 20
0.160012
 30
-2.83036e-17
  70
    32
  0
VERTEX
  8
0
  5
612
 10
0.150000
 20
0.156208
 30
-2.72423e-17
  70
    32
  0
VERTEX
  8
0
  5
613
 10
0.150000
 20
0.152444
 30
-2.62079e-17
  70
    32
  0
VERTEX
  8
0
  5
614
 10
0.150000
 20
0.148720
 30
-2.52000e-17
  70
    32
  0
VERTEX
  8
0
  5
615
 10
0.150000
 20
0.145037
 30
-2.42183e-17
  70
    32
  0
VERTEX
  8
0
  5
616
 10
0.150000
 20
0.141394
 30
-2.32624e-17
  70
    32
  0
VERTEX
  8
0
  5
617
 10
0.150000
 20
0.137792
 30
-2.23320e-17
  70
    32
  0
VERTEX
  8
0
  5
618
 10
0.150000
 20
0.134231
 30
-2.14268e-17
  70
    32
  0
VERTEX
  8
0
  5
619
 10
0.150000
 20
0.130712
 30
-2.05464e-17
  70
    32
  0
VERTEX
  8
0
  5
61A
 10
0.150000
 20
0.127234
 30
-1.96904e-17
  70
    32
  0
VERTEX
  8
0
  5
61B
 10
0.150000
 20
0.123798
 30
-1.88585e-17
  70
    32
  0
VERTEX
  8
0
  5
61C
 10
0.150000
 20
0.120403
 30
-1.80504e-17
  70
    32
  0
VERTEX
  8
0
  5
61D
 10
0.150000
 20
0.117051
 30
-1.72657e-17
  70
    32
  0
VERTEX
  8
0
  5
61E
 10
0.150000
 20
0.113742
 30
-1.65041e-17
  70
    32
  0
VERTEX
  8
0
  5
61F
 10
0.150000
 20
0.110475
 30
-1.57652e-17
  70
    32
  0
VERTEX
  8
0
  5
620
 10
0.150000
 20
0.107251
 30
-1.50487e-17
  70
    32
  0
VERTEX
  8
0
  5
621
 10
0.150000
 20
0.104070
 30
-1.43543e-17
  70
    32
  0
VERTEX
  8
0
  5
622
 10
0.150000
 20
0.100932
 30
-1.36815e-17
  70
    32
  0
VERTEX
  8
0
  5
623
 10
0.150000
 20
0.0978374
 30
-1.30301e-17
  70
    32
  0
VERTEX
  8
0
  5
624
 10
0.150000
 20
0.0947868
 30
-1.23998e-17
  70
    32
  0
VERTEX
  8
0
  5
625
 10
0.150000
 20
0.0917802
 30
-1.17901e-17
  70
    32
  0
VERTEX
  8
0
  5
626
 10
0.150000
 20
0.0888176
 30
-1.12007e-17
  70
    32
  0
VERTEX
  8
0
  5
627
 10
0.150000
 20
0.0858995
 30
-1.06312e-17
  70
    32
  0
VERTEX
  8
0
  5
628
 10
0.150000
 20
0.0830259
 30
-1.00815e-17
  70
    32
  0
VERTEX
  8
0
  5
629
 10
0.150000
 20
0.0801972
 30
-9.55098e-18
  70
    32
  0
VERTEX
  8
0
  5
62A
 10
0.150000
 20
0.0774135
 30
-9.03943e-18
  70
    32
  0
VERTEX
  8
0
  5
62B
 10
0.150000
 20
0.0746750
 30
-8.54648e-18
  70
    32
  0
VERTEX
  8
0
  5
62C
 10
0.150000
 20
0.0719820
 30
-8.07179e-18
  70
    32
  0
VERTEX
  8
0
  5
62D
 10
0.150000
 20
0.0693346
 30
-7.61500e-18
  70
    32
  0
VERTEX
  8
0
  5
62E
 10
0.150000
 20
0.0667332
 30
-7.17579e-18
  70
    32
  0
VERTEX
  8
0
  5
62F
 10
0.150000
 20
0.0641778
 30
-6.75380e-18
  70
    32
  0
VERTEX
  8
0
  5
630
 10
0.150000
 20
0.0616688
 30
-6.34868e-18
  70
    32
  0
VERTEX
  8
0
  5
631
 10
0.150000
 20
0.0592064
 30
-5.96010e-18
  70
    32
  0
VERTEX
  8
0
  5
632
 10
0.150000
 20
0.0567907
 30
-5.58770e-18
  70
    32
  0
VERTEX
  8
0
  5
633
 10
0.150000
 20
0.0544220
 30
-5.23115e-18
  70
    32
  0
VERTEX
  8
0
  5
634
 10
0.150000
 20
0.0521005
 30
-4.89010e-18
  70
    32
  0
VERTEX
  8
0
  5
635
 10
0.150000
 20
0.0498264
 30
-4.56420e-18
  70
    32
  0
VERTEX
  8
0
  5
636
 10
0.150000
 20
0.0476000
 30
-4.25312e-18
  70
    32
  0
VERTEX
  8
0
  5
637
 10
0.150000
 20
0.0454214
 30
-3.95650e-18
  70
    32
  0
VERTEX
  8
0
  5
638
 10
0.150000
 20
0.0432910
 30
-3.67400e-18
  70
    32
  0
VERTEX
  8
0
  5
639
 10
0.150000
 20
0.0412088
 30
-3.40529e-18
  70
    32
  0
VERTEX
  8
0
  5
63A
 10
0.150000
 20
0.0391751
 30
-3.15000e-18
  70
    32
  0
VERTEX
  8
0
  5
63B
 10
0.150000
 20
0.0371902
 30
-2.90780e-18
  70
    32
  0
VERTEX
  8
0
  5
63C
 10
0.150000
 20
0.0352542
 30
-2.67835e-18
  70
    32
  0
VERTEX
  8
0
  5
63D
 10
0.150000
 20
0.0333673
 30
-2.46130e-18
  70
    32
  0
VERTEX
  8
0
  5
63E
 10
0.150000
 20
0.0315299
 30
-2.25630e-18
  70
    32
  0
VERTEX
  8
0
  5
63F
 10
0.150000
 20
0.0297421
 30
-2.06301e-18
  70
    32
  0
VERTEX
  8
0
  5
640
 10
0.150000
 20
0.0280041
 30
-1.88109e-18
  70
    32
  0
VERTEX
  8
0
  5
641
 10
0.150000
 20
0.0263161
 30
-1.71019e-18
  70
    32
  0
VERTEX
  8
0
  5
642
 10
0.150000
 20
0.0246784
 30
-1.54997e-18
  70
    32
  0
VERTEX
  8
0
  5
643
 10
0.150000
 20
0.0230912
 30
-1.40008e-18
  70
    32
  0
VERTEX
  8
0
  5
644
 10
0.150000
 20
0.0215546
 30
-1.26018e-18
  70
    32
  0
VERTEX
  8
0
  5
645
 10
0.150000
 20
0.0200690
 30
-1.12993e-18
  70
    32
  0
VERTEX
  8
0
  5
646
 10
0.150000
 20
0.0186345
 30
-1.00897e-18
  70
    32
  0
VERTEX
  8
0
  5
647
 10
0.150000
 20
0.0172514
 30
-8.96974e-19
  70
    32
  0
VERTEX
  8
0
  5
648
 10
0.150000
 20
0.0159198
 30
-7.93585e-19
  70
    32
  0
VERTEX
  8
0
  5
649
 10
0.150000
 20
0.0146400
 30
-6.98463e-19
  70
    32
  0
VERTEX
  8
0
  5
64A
 10
0.150000
 20
0.0134123
 30
-6.11262e-19
  70
    32
  0
VERTEX
  8
0
  5
64B
 10
0.150000
 20
0.0122367
 30
-5.31640e-19
  70
    32
  0
VERTEX
  8
0
  5
64C
 10
0.150000
 20
0.0111136
 30
-4.59251e-19
  70
    32
  0
VERTEX
  8
0
  5
64D
 10
0.150000
 20
0.0100432
 30
-3.93750e-19
  70
    32
  0
VERTEX
  8
0
  5
64E
 10
0.150000
 20
0.00902558
 30
-3.34794e-19
  70
    32
  0
VERTEX
  8
0
  5
64F
 10
0.150000
 20
0.00806111
 30
-2.82037e-19
  70
    32
  0
VERTEX
  8
0
  5
650
 10
0.150000
 20
0.00714994
 30
-2.35136e-19
  70
    32
  0
VERTEX
  8
0
  5
651
 10
0.150000
 20
0.00629231
 30
-1.93746e-19
  70
    32
  0
VERTEX
  8
0
  5
652
 10
0.150000
 20
0.00548843
 30
-1.57523e-19
  70
    32
  0
VERTEX
  8
0
  5
653
 10
0.150000
 20
0.00473851
 30
-1.26122e-19
  70
    32
  0
VERTEX
  8
0
  5
654
 10
0.150000
 20
0.00404278
 30
-9.91981e-20
  70
    32
  0
VERTEX
  8
0
  5
655
 10
0.150000
 20
0.00340146
 30
-7.64078e-20
  70
    32
  0
VERTEX
  8
0
  5
656
 10
0.150000
 20
0.00281476
 30
-5.74063e-20
  70
    32
  0
VERTEX
  8
0
  5
657
 10
0.150000
 20
0.00228290
 30
-4.18492e-20
  70
    32
  0
VERTEX
  8
0
  5
658
 10
0.150000
 20
0.00180610
 30
-2.93920e-20
  70
    32
  0
VERTEX
  8
0
  5
659
 10
0.150000
 20
0.00138458
 30
-1.96904e-20
  70
    32
  0
VERTEX
  8
0
  5
65A
 10
0.150000
 20
0.00101855
 30
-1.23998e-20
  70
    32
  0
VERTEX
  8
0
  5
65B
 10
0.150000
 20
0.000708235
 30
-7.17579e-21
  70
    32
  0
VERTEX
  8
0
  5
65C
 10
0.150000
 20
0.000453852
 30
-3.67400e-21
  70
    32
  0
VERTEX
  8
0
  5
65D
 10
0.150000
 20
0.000255619
 30
-1.54997e-21
  70
    32
  0
VERTEX
  8
0
  5
65E
 10
0.150000
 20
0.000113754
 30
-4.59251e-22
  70
    32
  0
VERTEX
  8
0
  5
65F
 10
0.150000
 20
2.84748e-05
 30
-5.74063e-23
  70
    32
  0
VERTEX
  8
0
  5
660
 10
0.150000
 20
2.15500e-13
 30
-3.64877e-47
  70
    32
  0
SEQEND
  8
0
  5
661
  0
LINE
  5
157
  8
0
  6
CONTINUOUS
 62
     3
 10
0.1500000000000018
 20
2.2928932188134561
 30
-0.0000000000000005
 11
0.1500000000000013
 21
0.8786796564403297
 31
-0.0000000000000002
210
0.0
220
1.0
230
-0.0000000000000002
  0
LINE
  5
158
  8
0
  6
CONTINUOUS
 62
     3
 10
0.1500000000000016
 20
2.99999999999998
 30
-0.0000000000000007
 11
0.1500000000000019
 21
2.2928932188134339
 31
-0.0000000000000005
210
0.0
220
1.0
230
-0.0000000000000002
  0
LINE
  5
159
  8
0
  6
CONTINUOUS
 62
     3
 10
-0.150000000000004
 20
2.9999999999999938
 30
-0.0000000000000007
 11
-149.2928932188133899
 21
2.9999999999999938
 31
-0.0000000000000007
210
0.0
220
1.0
230
-0.0000000000000002
  0
LINE
  5
15A
  8
0
  6
CONTINUOUS
 62
     3
 10
-0.1500000000000619
 20
2.2928932188134481
 30
-0.0000000000000005
 11
-150.0
 21
2.2928932188134481
 31
-0.0000000000000005
210
0.0
220
1.0
230
-0.0000000000000002
  0
LINE
  5
15B
  8
0
  6
CONTINUOUS
 62
     3
 10
-0.1500000000000898
 20
-0.0000000000000178
 30
0.0
 11
-146.4644660940672054
 21
-0.0000000000000179
 31
0.0
210
0.0
220
1.0
230
-0.0000000000000002
  0
LINE
  5
15C
  8
0
  6
CONTINUOUS
 62
     3
 10
146.4644660940672907
 20
-0.0000000000000177
 30
0.0
 11
0.1499999999999488
 21
-0.0000000000000178
 31
0.0
210
0.0
220
1.0
230
-0.0000000000000002
  0
LINE
  5
15D
  8
0
  6
CONTINUOUS
 62
     3
 10
150.0
 20
2.2928932188134481
 30
-0.0000000000000005
 11
0.1500000000000625
 21
2.2928932188134481
 31
-0.0000000000000005
210
0.0
220
1.0
230
-0.0000000000000002
  0
LINE
  5
15E
  8
0
  6
CONTINUOUS
 62
     3
 10
149.2928932188133899
 20
2.9999999999999938
 30
-0.0000000000000007
 11
0.1500000000000057
 21
2.9999999999999938
 31
-0.0000000000000007
210
0.0
220
1.0
230
-0.0000000000000002
  0
LINE
  5
15F
  8
0
  6
CONTINUOUS
 62
     3
 10
-149.2928932188133899
 20
2.999999999999996
 30
-0.0000000000000007
 11
-150.0
 21
2.2928932188134459
 31
-0.0000000000000005
210
0.0
220
1.0
230
-0.0000000000000002
  0
LINE
  5
160
  8
0
  6
CONTINUOUS
 62
     3
 10
-148.5857864376268935
 20
0.8786796564403359
 30
-0.0000000000000002
 11
-150.0
 21
2.2928932188134561
 31
-0.0000000000000005
210
0.0
220
1.0
230
-0.0000000000000002
  0
ARC
  5
161
  8
0
  6
CONTINUOUS
 62
     3
 10
146.4644660940672054
 20
3.0000000000000782
 30
0.0
 40
2.9999999999998632
210
0.0
220
-0.0000000000000002
230
-1.0
 50
270.0
 51
314.9999999999986926
  0
ARC
  5
162
  8
0
  6
CONTINUOUS
 62
     3
 10
-146.4644660940672054
 20
3.0000000000000728
 30
0.0
 40
2.9999999999998548
210
0.0
220
-0.0000000000000002
230
-1.0
 50
225.0000000000005969
 51
269.9999999999993747
  0
LINE
  5
163
  8
0
  6
CONTINUOUS
 62
     3
 10
148.5857864376268935
 20
0.878679656440336
 30
-0.0000000000000002
 11
150.0
 21
2.2928932188134561
 31
-0.0000000000000005
210
0.0
220
1.0
230
-0.0000000000000002
  0
LINE
  5
164
  8
0
  6
CONTINUOUS
 62
     3
 10
149.2928932188133899
 20
2.999999999999996
 30
-0.0000000000000007
 11
150.0
 21
2.2928932188134459
 31
-0.0000000000000005
210
0.0
220
1.0
230
-0.0000000000000002
  0
LINE
  5
165
  8
0
  6
VERDECKT
 62
     1
 10
-0.1500000000000898
 20
0.9999999999999731
 30
-0.0000000000000002
 11
-146.4644660940672054
 21
0.9999999999999729
 31
-0.0000000000000002
210
0.0
220
1.0
230
-0.0000000000000002
  0
LINE
  5
166
  8
0
  6
VERDECKT
 62
     1
 10
146.4644660940672907
 20
0.9999999999999731
 30
-0.0000000000000002
 11
0.1499999999999488
 21
0.9999999999999731
 31
-0.0000000000000002
210
0.0
220
1.0
230
-0.0000000000000002
  0
LINE
  5
167
  8
0
  6
VERDECKT
 62
     1
 10
-10.8000000000000007
 20
-0.0000000000000178
 30
0.0
 11
-10.8000000000000007
 21
0.9999999999999948
 31
-0.0000000000000002
210
0.0
220
1.0
230
-0.0000000000000002
  0
LINE
  5
168
  8
0
  6
VERDECKT
 62
     1
 10
-10.5
 20
-0.0000000000000178
 30
0.0
 11
-10.5
 21
0.9999999999999948
 31
-0.0000000000000002
210
0.0
220
1.0
230
-0.0000000000000002
  0
LINE
  5
169
  8
0
  6
VERDECKT
 62
     1
 10
42.5
 20
-0.0000000000000134
 30
0.0
 11
42.5
 21
0.9999999999999948
 31
-0.0000000000000002
210
0.0
220
1.0
230
-0.0000000000000002
  0
LINE
  5
16A
  8
0
  6
VERDECKT
 62
     1
 10
-42.5
 20
-0.0000000000000135
 30
0.0
 11
-42.5
 21
0.9999999999999948
 31
-0.0000000000000002
210
0.0
220
1.0
230
-0.0000000000000002
  0
ARC
  5
16B
  8
0
  6
VERDECKT
 62
     1
 10
146.4644660940672054
 20
3.0000000000000382
 30
0.0
 40
1.999999999999823
210
0.0
220
-0.0000000000000002
230
-1.0
 50
270.0000000000007958
 51
314.9999999999994884
  0
LINE
  5
16C
  8
0
  6
VERDECKT
 62
     1
 10
-147.8786796564403119
 20
1.5857864376268811
 30
-0.0000000000000004
 11
-149.2928932188133899
 21
3.0000000000000022
 31
-0.0000000000000007
210
0.0
220
1.0
230
-0.0000000000000002
  0
LINE
  5
16D
  8
0
  6
VERDECKT
 62
     1
 10
147.8786796564403119
 20
1.5857864376268811
 30
-0.0000000000000004
 11
149.2928932188133899
 21
3.0000000000000022
 31
-0.0000000000000007
210
0.0
220
1.0
230
-0.0000000000000002
  0
ARC
  5
16E
  8
0
  6
VERDECKT
 62
     1
 10
-146.4644660940672054
 20
3.0000000000000369
 30
0.0
 40
1.999999999999829
210
0.0
220
-0.0000000000000002
230
-1.0
 50
225.0000000000003979
 51
269.9999999999992042
  0
ENDBLK
  5
170
  8
0
  0
ENDSEC
  0
SECTION
  2
ENTITIES
  0
INSERT
  5
14E
  8
0
  2
A$C01004946
 10
0.0
 20
0.0
 30
0.0
  0
INSERT
  5
171
  8
0
  2
A$CDC01E167
 10
0.0
 20
200.0
 30
0.0
  0
ENDSEC
  0
EOF
