  0
SECTION
  2
HEADER
  9
$ACADVER
  1
AC1009
  9
$INSBASE
 10
509.9391017861535147
 20
-118.0350180316795985
 30
403.1361558984037856
  9
$EXTMIN
 10
-0.4203505776474259
 20
-232.7127900829491125
 30
-0.0000000000000511
  9
$EXTMAX
 10
409.9997499998245871
 20
0.7071067811865324
 30
0.0000000000000005
  9
$LIMMIN
 10
0.0
 20
0.000000000000008
  9
$LIMMAX
 10
594.0
 20
840.0
  9
$ORTHOMODE
 70
     1
  9
$REGENMODE
 70
     1
  9
$FILLMODE
 70
     1
  9
$QTEXTMODE
 70
     0
  9
$MIRRTEXT
 70
     1
  9
$DRAGMODE
 70
     2
  9
$LTSCALE
 40
20.0
  9
$OSMODE
 70
  1335
  9
$ATTMODE
 70
     1
  9
$TEXTSIZE
 40
2.0
  9
$TRACEWID
 40
1.0
  9
$TEXTSTYLE
  7
STANDARD
  9
$CLAYER
  8
STEMPEL
  9
$CELTYPE
  6
BYLAYER
  9
$CECOLOR
 62
   256
  9
$DIMSCALE
 40
0.5
  9
$DIMASZ
 40
3.5
  9
$DIMEXO
 40
1.0
  9
$DIMDLI
 40
7.0
  9
$DIMRND
 40
0.0
  9
$DIMDLE
 40
0.0
  9
$DIMEXE
 40
1.0
  9
$DIMTP
 40
0.0
  9
$DIMTM
 40
0.0
  9
$DIMTXT
 40
3.5
  9
$DIMCEN
 40
1.5
  9
$DIMTSZ
 40
0.0
  9
$DIMTOL
 70
     0
  9
$DIMLIM
 70
     0
  9
$DIMTIH
 70
     0
  9
$DIMTOH
 70
     0
  9
$DIMSE1
 70
     0
  9
$DIMSE2
 70
     0
  9
$DIMTAD
 70
     1
  9
$DIMZIN
 70
     8
  9
$DIMBLK
  1

  9
$DIMASO
 70
     1
  9
$DIMSHO
 70
     0
  9
$DIMPOST
  1

  9
$DIMAPOST
  1

  9
$DIMALT
 70
     0
  9
$DIMALTD
 70
     2
  9
$DIMALTF
 40
25.3999999999999986
  9
$DIMLFAC
 40
2.0
  9
$DIMTOFL
 70
     1
  9
$DIMTVP
 40
0.0
  9
$DIMTIX
 70
     0
  9
$DIMSOXD
 70
     0
  9
$DIMSAH
 70
     0
  9
$DIMBLK1
  1

  9
$DIMBLK2
  1

  9
$DIMSTYLE
  2
STANDARD
  9
$DIMCLRD
 70
     0
  9
$DIMCLRE
 70
     0
  9
$DIMCLRT
 70
     1
  9
$DIMTFAC
 40
0.5142857142857143
  9
$DIMGAP
 40
1.5
  9
$LUNITS
 70
     2
  9
$LUPREC
 70
     2
  9
$SKETCHINC
 40
1.0
  9
$FILLETRAD
 40
3.0
  9
$AUNITS
 70
     0
  9
$AUPREC
 70
     0
  9
$MENU
  1
ACAD
  9
$ELEVATION
 40
0.0
  9
$PELEVATION
 40
0.0
  9
$THICKNESS
 40
0.0
  9
$LIMCHECK
 70
     0
  9
$BLIPMODE
 70
     0
  9
$CHAMFERA
 40
0.0
  9
$CHAMFERB
 40
0.0
  9
$SKPOLY
 70
     0
  9
$TDCREATE
 40
2455397.867048610933125
  9
$TDUPDATE
 40
2460494.3549999999813735
  9
$TDINDWG
 40
1.4290925579
  9
$TDUSRTIMER
 40
1.4290925579
  9
$USRTIMER
 70
     1
  9
$ANGBASE
 50
0.0
  9
$ANGDIR
 70
     0
  9
$PDMODE
 70
     0
  9
$PDSIZE
 40
0.0
  9
$PLINEWID
 40
0.0
  9
$COORDS
 70
     1
  9
$SPLFRAME
 70
     0
  9
$SPLINETYPE
 70
     6
  9
$SPLINESEGS
 70
     8
  9
$ATTDIA
 70
     1
  9
$ATTREQ
 70
     0
  9
$HANDLING
 70
     1
  9
$HANDSEED
  5
AB8D
  9
$SURFTAB1
 70
     6
  9
$SURFTAB2
 70
     6
  9
$SURFTYPE
 70
     6
  9
$SURFU
 70
     6
  9
$SURFV
 70
     6
  9
$UCSNAME
  2

  9
$UCSORG
 10
0.0
 20
0.0
 30
0.0
  9
$UCSXDIR
 10
1.0
 20
0.0
 30
0.0
  9
$UCSYDIR
 10
0.0
 20
1.0
 30
0.0
  9
$PUCSNAME
  2

  9
$PUCSORG
 10
0.0
 20
0.0
 30
0.0
  9
$PUCSXDIR
 10
1.0
 20
0.0
 30
0.0
  9
$PUCSYDIR
 10
0.0
 20
1.0
 30
0.0
  9
$USERI1
 70
     0
  9
$USERI2
 70
     0
  9
$USERI3
 70
     0
  9
$USERI4
 70
     0
  9
$USERI5
 70
     0
  9
$USERR1
 40
0.0
  9
$USERR2
 40
0.0
  9
$USERR3
 40
0.0
  9
$USERR4
 40
0.0
  9
$USERR5
 40
0.0
  9
$WORLDVIEW
 70
     1
  9
$SHADEDGE
 70
     3
  9
$SHADEDIF
 70
    70
  9
$TILEMODE
 70
     1
  9
$MAXACTVP
 70
    16
  9
$PLIMCHECK
 70
     0
  9
$PEXTMIN
 10
-0.5000000000000006
 20
-0.6000000000000119
 30
-0.000000000000169
  9
$PEXTMAX
 10
196.2328322904546098
 20
286.3435759999999277
 30
0.0000000000000577
  9
$PLIMMIN
 10
-7.133583999999999
 20
-5.6282119999999951
  9
$PLIMMAX
 10
202.8664159999999868
 20
291.3717879999999809
  9
$UNITMODE
 70
     0
  9
$VISRETAIN
 70
     0
  9
$PLINEGEN
 70
     0
  9
$PSLTSCALE
 70
     0
  0
ENDSEC
  0
SECTION
  2
TABLES
  0
TABLE
  2
VPORT
 70
     1
  0
VPORT
  2
*ACTIVE
 70
     0
 10
0.0
 20
0.0
 11
1.0
 21
1.0
 12
0.0
 22
0.0
 13
0.0
 23
0.0
 14
1.0
 24
1.0
 15
10.0
 25
10.0
 16
-0.0000000000009663
 26
0.0
 36
921.0696538960196449
 17
231.5872667214202067
 27
-153.0858182991495937
 37
1.5000000000002871
 40
404.9900801177884091
 41
1.627783669141039
 42
50.0
 43
0.0
 44
0.0
 50
0.0
 51
0.0
 71
     0
 72
  1500
 73
     1
 74
     0
 75
     0
 76
     0
 77
     0
 78
     0
  0
ENDTAB
  0
TABLE
  2
LTYPE
 70
    31
  0
LTYPE
  2
CONTINUOUS
 70
     0
  3
Solid line
 72
    65
 73
     0
 40
0.0
  0
LTYPE
  2
STRICHPUNKT
 70
     0
  3
__ . __ . __ . __ . __ . __ . __ . __ . __ . __
 72
    65
 73
     4
 40
1.0
 49
0.5
 49
-0.25
 49
0.0
 49
-0.25
  0
LTYPE
  2
HIDDEN
 70
     0
  3
Hidden __ __ __ __ __ __ __ __ __ __ __ __ __ __
 72
    65
 73
     2
 40
0.375
 49
0.25
 49
-0.125
  0
LTYPE
  2
PHANTOM2
 70
     0
  3
Phantom (.5x) ___ _ _ ___ _ _ ___ _ _ ___ _ _
 72
    65
 73
     6
 40
1.25
 49
0.625
 49
-0.125
 49
0.125
 49
-0.125
 49
0.125
 49
-0.125
  0
LTYPE
  2
CENTER
 70
     0
  3
Center ____ _ ____ _ ____ _ ____ _ ____ _ ____
 72
    65
 73
     4
 40
2.0
 49
1.25
 49
-0.25
 49
0.25
 49
-0.25
  0
LTYPE
  2
AMCONSTR
 70
     0
  3
_______________________
 72
    65
 73
     2
 40
9999.0
 49
9999.0
 49
0.0
  0
LTYPE
  2
CENTER2
 70
     0
  3
Center (.5x) ___ _ ___ _ ___ _ ___ _ ___ _ ___
 72
    65
 73
     4
 40
1.125
 49
0.75
 49
-0.125
 49
0.125
 49
-0.125
  0
LTYPE
  2
HIDDEN2
 70
     0
  3
Hidden (.5x) _ _ _ _ _ _ _ _ _ _ _ _ _ _ _ _ _
 72
    65
 73
     2
 40
0.1875
 49
0.125
 49
-0.0625
  0
LTYPE
  2
AMZIGZAG2
 70
     0
  3
/\/-/\/-/\/-/\/-/\/-/\/
 72
    65
 73
     2
 40
0.4401
 49
0.0001
 49
-0.4400000000000001
  0
LTYPE
  2
ACANSTGB
 70
     0
  3
__ . . __ . .
 72
    65
 73
     6
 40
0.35433070866
 49
0.15748031496
 49
-0.03937007874
 49
0.03937007874
 49
-0.03937007874
 49
0.03937007874
 49
-0.03937007874
  0
LTYPE
  2
ACANSTGL
 70
     0
  3
_ _ _ _ _
 72
    65
 73
     2
 40
0.11811023622
 49
0.07874015748
 49
-0.03937007874
  0
LTYPE
  2
AUSGEZOGEN
 70
     0
  3
Ausgezogene Linie
 72
    65
 73
     0
 40
0.0
  0
ENDTAB
  0
TABLE
  2
LAYER
 70
    33
  0
LAYER
  2
0
 70
     0
 62
     7
  6
CONTINUOUS
  0
LAYER
  2
VOLL
 70
     0
 62
     1
  6
CONTINUOUS
  0
LAYER
  2
STEMPEL
 70
     0
 62
     3
  6
CONTINUOUS
  0
LAYER
  2
DEFPOINTS
 70
     0
 62
   255
  6
CONTINUOUS
  0
LAYER
  2
ADSK_ASSOC_ENTITY_BACKUPS
 70
     1
 62
    -7
  6
CONTINUOUS
  0
LAYER
  2
BLECH
 70
     0
 62
   254
  6
CONTINUOUS
  0
ENDTAB
  0
TABLE
  2
STYLE
 70
     9
  0
STYLE
  2
STANDARD
 70
     0
 40
0.0
 41
0.8
 50
0.0
 71
     0
 42
2.0
  3
simplex.shx
  4

  0
STYLE
  2
GREEKS
 70
     0
 40
0.0
 41
0.8
 50
0.0
 71
     0
 42
2.5
  3
SIMPLEX.shx
  4

  0
STYLE
  2

 70
     1
 40
0.0
 41
1.0
 50
0.0
 71
     0
 42
2.5
  3
genltshp.shx
  4

  0
STYLE
  2
ACANSGDT
 70
     0
 40
0.0
 41
1.0
 50
0.0
 71
     0
 42
2.5
  3
amgdt.shx
  4

  0
ENDTAB
  0
TABLE
  2
VIEW
 70
     1
  0
ENDTAB
  0
TABLE
  2
UCS
 70
     0
  0
ENDTAB
  0
TABLE
  2
APPID
 70
    47
  0
APPID
  2
ACAD
 70
     0
  0
APPID
  2
ACAD_NAV_VCDISPLAY
 70
     0
  0
APPID
  2
GRADIENTCOLOR1ACI
 70
     0
  0
APPID
  2
GRADIENTCOLOR2ACI
 70
     0
  0
APPID
  2
ACAD_DSTYLE_DIMRADIAL_EXTENSION
 70
     0
  0
APPID
  2
ACADANNOMONITORALERTICONDI
 70
     0
  0
APPID
  2
ACAD_EXEMPT_FROM_CAD_STANDARDS
 70
     0
  0
APPID
  2
ACAD_MLEADERVER
 70
     0
  0
APPID
  2
ACAD_PSEXT
 70
     0
  0
APPID
  2
ACAECLAYERSTANDARD
 70
     0
  0
APPID
  2
ACCMTRANSPARENCY
 70
     0
  0
APPID
  2
ACAD_OBJECT_CHANGE_GUID
 70
     0
  0
APPID
  2
MCAD_NO_VIS
 70
     0
  0
APPID
  2
ACAD_TEMP_GRAPHIC
 70
     0
  0
APPID
  2
ACATTRIBSERVICES
 70
     0
  0
APPID
  2
DESIGNERASSEMBLIES
 70
     0
  0
APPID
  2
ACAD_DSTYLE_DIMJAG
 70
     0
  0
APPID
  2
ACAD_DSTYLE_DIMBREAK
 70
     0
  0
APPID
  2
GENIUS_GENSCREG_15
 70
     0
  0
APPID
  2
GENIUS_GENOBJ-N-SDF_13
 70
     0
  0
APPID
  2
GENIUS_GENODEF_13
 70
     0
  0
APPID
  2
ACAD_STEPID
 70
     0
  0
APPID
  2
ACAD_DSTYLE_DIMARC_LENGTH_
 70
     0
  0
APPID
  2
ACAD_DSTYLE_DIM_LINETYPE
 70
     0
  0
APPID
  2
ACAD_DSTYLE_DIM_EXT1_LINETYPE
 70
     0
  0
APPID
  2
ACAD_DSTYLE_DIM_EXT2_LINETYPE
 70
     0
  0
APPID
  2
RAK
 70
     0
  0
APPID
  2
ACADANNOPO
 70
     0
  0
APPID
  2
ACSYNERGY
 70
     0
  0
APPID
  2
SYNERGY_BODY_TBR_ID
 70
     0
  0
APPID
  2
ACAD_VIEW_EDGE_ID
 70
     0
  0
APPID
  2
ACSYNERGYSKETCH
 70
     0
  0
APPID
  2
ACAD_MODELDOC_XFORM
 70
     0
  0
APPID
  2
GENIUS_GENDTOL_13
 70
     0
  0
APPID
  2
ACAD_DSTYLE_DIMINSPECT
 70
     0
  0
APPID
  2
ACAD_DSTYLE_DIMANGULAR_EXT
 70
     0
  0
APPID
  2
PLOTTRANSPARENCY
 70
     0
  0
APPID
  2
ACAUTHENVIRON
 70
     0
  0
APPID
  2
ACDBDYNAMICBLOCKTRUENAME
 70
     0
  0
APPID
  2
ACDBDYNAMICBLOCKGUID
 70
     0
  0
APPID
  2
PE_URL
 70
     0
  0
APPID
  2
ACADANNOAV
 70
     0
  0
APPID
  2
ACAD_DSTYLE_DIMTALN
 70
     0
  0
APPID
  2
ACAD_DIMASSOC_CALC_DIMLFAC
 70
     0
  0
APPID
  2
ACAD_DIMASSOC_DIMLFAC
 70
     0
  0
APPID
  2
ACAD_DIMASSOC_OVERRIDDEN_D
 70
     0
  0
APPID
  2
AcDbAttr
 70
     0
  0
ENDTAB
  0
TABLE
  2
DIMSTYLE
 70
    20
  0
DIMSTYLE
  2
STANDARD
 70
     0
  3

  4

  5

  6

  7

 40
1.0
 41
0.18
 42
0.0625
 43
0.38
 44
0.18
 45
0.0
 46
0.0
 47
0.0
 48
0.0
140
0.18
141
0.09
142
0.0
143
25.3999999999999986
144
1.0
145
0.0
146
1.0
147
0.09
 71
     0
 72
     0
 73
     1
 74
     1
 75
     0
 76
     0
 77
     0
 78
     0
170
     0
171
     2
172
     0
173
     0
174
     0
175
     0
176
     0
177
     0
178
     0
  0
DIMSTYLE
  2
AM_ANSI
 70
     0
  3

  4
mm
  5

  6

  7

 40
1.0
 41
0.12
 42
0.05
 43
0.5
 44
0.1
 45
0.0
 46
0.0
 47
0.1
 48
0.1
140
0.12
141
0.0
142
0.0
143
25.3999999999999986
144
1.0
145
0.0
146
0.71
147
0.06
 71
     0
 72
     0
 73
     1
 74
     1
 75
     0
 76
     0
 77
     0
 78
     7
170
     0
171
     2
172
     0
173
     0
174
     0
175
     0
176
   256
177
   256
178
   255
  0
DIMSTYLE
  2
AM_ANSI$3
 70
     0
  3

  4
mm
  5

  6

  7

 40
1.0
 41
0.12
 42
0.05
 43
0.5
 44
0.1
 45
0.0
 46
0.0
 47
0.1
 48
0.1
140
0.12
141
0.0
142
0.0
143
25.3999999999999986
144
1.0
145
0.0
146
0.71
147
0.06
 71
     0
 72
     0
 73
     1
 74
     1
 75
     0
 76
     0
 77
     0
 78
     7
170
     0
171
     2
172
     0
173
     0
174
     0
175
     0
176
   256
177
   256
178
   255
  0
DIMSTYLE
  2
AM_ANSI$4
 70
     0
  3

  4
mm
  5

  6

  7

 40
1.0
 41
0.12
 42
0.05
 43
0.5
 44
0.1
 45
0.0
 46
0.0
 47
0.1
 48
0.1
140
0.12
141
0.0
142
0.0
143
25.3999999999999986
144
1.0
145
0.0
146
0.71
147
0.06
 71
     0
 72
     0
 73
     1
 74
     1
 75
     0
 76
     0
 77
     0
 78
     7
170
     0
171
     2
172
     0
173
     0
174
     0
175
     0
176
   256
177
   256
178
   255
  0
DIMSTYLE
  2
AM_ANSI$7
 70
     0
  3

  4
mm
  5

  6

  7

 40
1.0
 41
0.12
 42
0.05
 43
0.5
 44
0.1
 45
0.0
 46
0.0
 47
0.1
 48
0.1
140
0.12
141
0.0
142
0.0
143
25.3999999999999986
144
1.0
145
0.0
146
0.71
147
0.06
 71
     0
 72
     0
 73
     1
 74
     1
 75
     0
 76
     0
 77
     0
 78
     7
170
     0
171
     2
172
     0
173
     0
174
     0
175
     0
176
   256
177
   256
178
   255
  0
DIMSTYLE
  2
AM_ANSI$SF
 70
     0
  3

  4
mm
  5

  6

  7

 40
1.0
 41
0.12
 42
0.05
 43
0.5
 44
0.1
 45
0.0
 46
0.0
 47
0.1
 48
0.1
140
0.12
141
0.0
142
0.0
143
25.3999999999999986
144
1.0
145
0.0
146
0.71
147
0.06
 71
     0
 72
     0
 73
     1
 74
     1
 75
     1
 76
     1
 77
     0
 78
     7
170
     0
171
     2
172
     0
173
     0
174
     0
175
     0
176
   256
177
   256
178
   255
  0
DIMSTYLE
  2
AM_ANSI$SH
 70
     0
  3

  4
mm
  5

  6
GENAXEH
  7

 40
1.0
 41
0.12
 42
0.05
 43
0.5
 44
0.1
 45
0.0
 46
0.0
 47
0.1
 48
0.1
140
0.12
141
0.0
142
0.0
143
25.3999999999999986
144
1.0
145
0.0
146
0.71
147
0.06
 71
     0
 72
     0
 73
     1
 74
     1
 75
     1
 76
     1
 77
     0
 78
     7
170
     0
171
     2
172
     0
173
     1
174
     0
175
     0
176
   256
177
   256
178
   255
  0
DIMSTYLE
  2
AM_ANSI$0
 70
     0
  3

  4
"
  5

  6

  7

 40
1.0
 41
3.5
 42
1.0
 43
10.0
 44
1.0
 45
0.0
 46
0.0
 47
0.1
 48
0.1
140
3.5
141
0.0
142
0.0
143
0.0393701
144
1.0
145
0.0
146
0.71
147
1.5
 71
     0
 72
     0
 73
     1
 74
     1
 75
     0
 76
     0
 77
     0
 78
     8
170
     0
171
     2
172
     0
173
     0
174
     0
175
     0
176
   256
177
   256
178
     2
  0
ENDTAB
  0
ENDSEC
  0
SECTION
  2
BLOCKS
  0
BLOCK
  8
0
  2
$MODEL_SPACE
 70
     0
 10
0.0
 20
0.0
 30
0.0
  3
$MODEL_SPACE
  1

  0
ENDBLK
  5
38
  8
0
  0
BLOCK
 67
     1
  8
0
  2
$PAPER_SPACE
 70
     2
 10
0.0
 20
0.0
 30
0.0
  3
$PAPER_SPACE
  1

  0
ENDBLK
  5
36
 67
     1
  8
0
  0
BLOCK
  8
0
  2
GENAXEH
 70
     0
 10
0.0
 20
0.0
 30
0.0
  3
GENAXEH
  1

  0
LINE
  5
1721
  8
0
 10
-1.0
 20
0.0
 30
0.0
 11
1.0
 21
0.0
 31
0.0
  0
ENDBLK
  5
1723
  8
0
  0
BLOCK
  8
0
  2
*S7
 70
     1
 10
0.0
 20
0.0
 30
0.0
  3
*S7
  1

  0
ENDBLK
  5
2101
  8
0
  0
BLOCK
  8
0
  2
*U9
 70
     1
 10
0.0
 20
0.0
 30
0.0
  3
*U9
  1

  0
ENDBLK
  5
3EBB
  8
0
  0
BLOCK
  8
0
  2
A$C107F1E0B
 70
     0
 10
0.0
 20
0.0
 30
0.0
  3
A$C107F1E0B
  1

  0
LINE
  5
9E23
  8
0
  6
CONTINUOUS
 62
     3
 10
0.1499999999999777
 20
-88.1714452830173485
 30
0.0
 11
0.1499999999999779
 21
-89.2927672288542169
 31
0.0
  0
ARC
  5
9E24
  8
0
  6
CONTINUOUS
 62
     3
 10
0.0000000000000007
 20
0.0
 30
0.0
 40
89.292893218812992
 50
270.0962492160272177
 51
89.9037507839728676
  0
LINE
  5
9E25
  8
0
  6
CONTINUOUS
 62
     3
 10
0.1499999999999779
 20
89.2927672288542169
 30
0.0
 11
0.1499999999999777
 21
88.1714452830173485
 31
0.0
  0
LINE
  5
9E26
  8
0
  6
CONTINUOUS
 62
     3
 10
-0.1499999999999766
 20
-89.2927672288542169
 30
0.0
 11
-0.1499999999999768
 21
-88.1714452830173485
 31
0.0
  0
LINE
  5
9E27
  8
0
  6
CONTINUOUS
 62
     3
 10
-0.1499999999999768
 20
88.1714452830173485
 30
0.0
 11
-0.1499999999999766
 21
89.2927672288542169
 31
0.0
  0
ARC
  5
9E28
  8
0
  6
CONTINUOUS
 62
     3
 10
0.0000000000000007
 20
0.0
 30
0.0
 40
89.292893218812992
 50
90.0962492160271182
 51
269.903750783972896
  0
POLYLINE
  8
0
  5
9EF9
  62
3
  66
     1
 10
0.00000
 20
0.00000
 30
0.00000
  70
     8
  0
VERTEX
  8
0
  5
9EFA
 10
0.150000
 20
-86.0501
 30
0.00000
  70
    32
  0
VERTEX
  8
0
  5
9EFB
 10
0.150000
 20
-86.0571
 30
0.00000
  70
    32
  0
VERTEX
  8
0
  5
9EFC
 10
0.150000
 20
-86.0641
 30
0.00000
  70
    32
  0
VERTEX
  8
0
  5
9EFD
 10
0.150000
 20
-86.0711
 30
0.00000
  70
    32
  0
VERTEX
  8
0
  5
9EFE
 10
0.150000
 20
-86.0781
 30
0.00000
  70
    32
  0
VERTEX
  8
0
  5
9EFF
 10
0.150000
 20
-86.0851
 30
0.00000
  70
    32
  0
VERTEX
  8
0
  5
9F00
 10
0.150000
 20
-86.0922
 30
0.00000
  70
    32
  0
VERTEX
  8
0
  5
9F01
 10
0.150000
 20
-86.0992
 30
0.00000
  70
    32
  0
VERTEX
  8
0
  5
9F02
 10
0.150000
 20
-86.1063
 30
0.00000
  70
    32
  0
VERTEX
  8
0
  5
9F03
 10
0.150000
 20
-86.1134
 30
0.00000
  70
    32
  0
VERTEX
  8
0
  5
9F04
 10
0.150000
 20
-86.1205
 30
0.00000
  70
    32
  0
VERTEX
  8
0
  5
9F05
 10
0.150000
 20
-86.1276
 30
0.00000
  70
    32
  0
VERTEX
  8
0
  5
9F06
 10
0.150000
 20
-86.1348
 30
0.00000
  70
    32
  0
VERTEX
  8
0
  5
9F07
 10
0.150000
 20
-86.1419
 30
0.00000
  70
    32
  0
VERTEX
  8
0
  5
9F08
 10
0.150000
 20
-86.1491
 30
0.00000
  70
    32
  0
VERTEX
  8
0
  5
9F09
 10
0.150000
 20
-86.1562
 30
0.00000
  70
    32
  0
VERTEX
  8
0
  5
9F0A
 10
0.150000
 20
-86.1634
 30
0.00000
  70
    32
  0
VERTEX
  8
0
  5
9F0B
 10
0.150000
 20
-86.1706
 30
0.00000
  70
    32
  0
VERTEX
  8
0
  5
9F0C
 10
0.150000
 20
-86.1778
 30
0.00000
  70
    32
  0
VERTEX
  8
0
  5
9F0D
 10
0.150000
 20
-86.1851
 30
0.00000
  70
    32
  0
VERTEX
  8
0
  5
9F0E
 10
0.150000
 20
-86.1923
 30
0.00000
  70
    32
  0
VERTEX
  8
0
  5
9F0F
 10
0.150000
 20
-86.1995
 30
0.00000
  70
    32
  0
VERTEX
  8
0
  5
9F10
 10
0.150000
 20
-86.2068
 30
0.00000
  70
    32
  0
VERTEX
  8
0
  5
9F11
 10
0.150000
 20
-86.2140
 30
0.00000
  70
    32
  0
VERTEX
  8
0
  5
9F12
 10
0.150000
 20
-86.2213
 30
0.00000
  70
    32
  0
VERTEX
  8
0
  5
9F13
 10
0.150000
 20
-86.2286
 30
0.00000
  70
    32
  0
VERTEX
  8
0
  5
9F14
 10
0.150000
 20
-86.2359
 30
0.00000
  70
    32
  0
VERTEX
  8
0
  5
9F15
 10
0.150000
 20
-86.2432
 30
0.00000
  70
    32
  0
VERTEX
  8
0
  5
9F16
 10
0.150000
 20
-86.2505
 30
0.00000
  70
    32
  0
VERTEX
  8
0
  5
9F17
 10
0.150000
 20
-86.2578
 30
0.00000
  70
    32
  0
VERTEX
  8
0
  5
9F18
 10
0.150000
 20
-86.2651
 30
0.00000
  70
    32
  0
VERTEX
  8
0
  5
9F19
 10
0.150000
 20
-86.2725
 30
0.00000
  70
    32
  0
VERTEX
  8
0
  5
9F1A
 10
0.150000
 20
-86.2798
 30
0.00000
  70
    32
  0
VERTEX
  8
0
  5
9F1B
 10
0.150000
 20
-86.2872
 30
0.00000
  70
    32
  0
VERTEX
  8
0
  5
9F1C
 10
0.150000
 20
-86.2945
 30
0.00000
  70
    32
  0
VERTEX
  8
0
  5
9F1D
 10
0.150000
 20
-86.3019
 30
0.00000
  70
    32
  0
VERTEX
  8
0
  5
9F1E
 10
0.150000
 20
-86.3093
 30
0.00000
  70
    32
  0
VERTEX
  8
0
  5
9F1F
 10
0.150000
 20
-86.3167
 30
0.00000
  70
    32
  0
VERTEX
  8
0
  5
9F20
 10
0.150000
 20
-86.3241
 30
0.00000
  70
    32
  0
VERTEX
  8
0
  5
9F21
 10
0.150000
 20
-86.3315
 30
0.00000
  70
    32
  0
VERTEX
  8
0
  5
9F22
 10
0.150000
 20
-86.3389
 30
0.00000
  70
    32
  0
VERTEX
  8
0
  5
9F23
 10
0.150000
 20
-86.3463
 30
0.00000
  70
    32
  0
VERTEX
  8
0
  5
9F24
 10
0.150000
 20
-86.3537
 30
0.00000
  70
    32
  0
VERTEX
  8
0
  5
9F25
 10
0.150000
 20
-86.3611
 30
0.00000
  70
    32
  0
VERTEX
  8
0
  5
9F26
 10
0.150000
 20
-86.3685
 30
0.00000
  70
    32
  0
VERTEX
  8
0
  5
9F27
 10
0.150000
 20
-86.3760
 30
0.00000
  70
    32
  0
VERTEX
  8
0
  5
9F28
 10
0.150000
 20
-86.3834
 30
0.00000
  70
    32
  0
VERTEX
  8
0
  5
9F29
 10
0.150000
 20
-86.3908
 30
0.00000
  70
    32
  0
VERTEX
  8
0
  5
9F2A
 10
0.150000
 20
-86.3983
 30
0.00000
  70
    32
  0
VERTEX
  8
0
  5
9F2B
 10
0.150000
 20
-86.4057
 30
0.00000
  70
    32
  0
VERTEX
  8
0
  5
9F2C
 10
0.150000
 20
-86.4132
 30
0.00000
  70
    32
  0
VERTEX
  8
0
  5
9F2D
 10
0.150000
 20
-86.4206
 30
0.00000
  70
    32
  0
VERTEX
  8
0
  5
9F2E
 10
0.150000
 20
-86.4281
 30
0.00000
  70
    32
  0
VERTEX
  8
0
  5
9F2F
 10
0.150000
 20
-86.4356
 30
0.00000
  70
    32
  0
VERTEX
  8
0
  5
9F30
 10
0.150000
 20
-86.4430
 30
0.00000
  70
    32
  0
VERTEX
  8
0
  5
9F31
 10
0.150000
 20
-86.4505
 30
0.00000
  70
    32
  0
VERTEX
  8
0
  5
9F32
 10
0.150000
 20
-86.4580
 30
0.00000
  70
    32
  0
VERTEX
  8
0
  5
9F33
 10
0.150000
 20
-86.4654
 30
0.00000
  70
    32
  0
VERTEX
  8
0
  5
9F34
 10
0.150000
 20
-86.4729
 30
0.00000
  70
    32
  0
VERTEX
  8
0
  5
9F35
 10
0.150000
 20
-86.4804
 30
0.00000
  70
    32
  0
VERTEX
  8
0
  5
9F36
 10
0.150000
 20
-86.4879
 30
0.00000
  70
    32
  0
VERTEX
  8
0
  5
9F37
 10
0.150000
 20
-86.4953
 30
0.00000
  70
    32
  0
VERTEX
  8
0
  5
9F38
 10
0.150000
 20
-86.5028
 30
0.00000
  70
    32
  0
VERTEX
  8
0
  5
9F39
 10
0.150000
 20
-86.5103
 30
0.00000
  70
    32
  0
VERTEX
  8
0
  5
9F3A
 10
0.150000
 20
-86.5178
 30
0.00000
  70
    32
  0
VERTEX
  8
0
  5
9F3B
 10
0.150000
 20
-86.5252
 30
0.00000
  70
    32
  0
VERTEX
  8
0
  5
9F3C
 10
0.150000
 20
-86.5327
 30
0.00000
  70
    32
  0
VERTEX
  8
0
  5
9F3D
 10
0.150000
 20
-86.5402
 30
0.00000
  70
    32
  0
VERTEX
  8
0
  5
9F3E
 10
0.150000
 20
-86.5477
 30
0.00000
  70
    32
  0
VERTEX
  8
0
  5
9F3F
 10
0.150000
 20
-86.5552
 30
0.00000
  70
    32
  0
VERTEX
  8
0
  5
9F40
 10
0.150000
 20
-86.5626
 30
0.00000
  70
    32
  0
VERTEX
  8
0
  5
9F41
 10
0.150000
 20
-86.5701
 30
0.00000
  70
    32
  0
VERTEX
  8
0
  5
9F42
 10
0.150000
 20
-86.5776
 30
0.00000
  70
    32
  0
VERTEX
  8
0
  5
9F43
 10
0.150000
 20
-86.5850
 30
0.00000
  70
    32
  0
VERTEX
  8
0
  5
9F44
 10
0.150000
 20
-86.5925
 30
0.00000
  70
    32
  0
VERTEX
  8
0
  5
9F45
 10
0.150000
 20
-86.6000
 30
0.00000
  70
    32
  0
VERTEX
  8
0
  5
9F46
 10
0.150000
 20
-86.6074
 30
0.00000
  70
    32
  0
VERTEX
  8
0
  5
9F47
 10
0.150000
 20
-86.6149
 30
0.00000
  70
    32
  0
VERTEX
  8
0
  5
9F48
 10
0.150000
 20
-86.6224
 30
0.00000
  70
    32
  0
VERTEX
  8
0
  5
9F49
 10
0.150000
 20
-86.6298
 30
0.00000
  70
    32
  0
VERTEX
  8
0
  5
9F4A
 10
0.150000
 20
-86.6373
 30
0.00000
  70
    32
  0
VERTEX
  8
0
  5
9F4B
 10
0.150000
 20
-86.6447
 30
0.00000
  70
    32
  0
VERTEX
  8
0
  5
9F4C
 10
0.150000
 20
-86.6521
 30
0.00000
  70
    32
  0
VERTEX
  8
0
  5
9F4D
 10
0.150000
 20
-86.6596
 30
0.00000
  70
    32
  0
VERTEX
  8
0
  5
9F4E
 10
0.150000
 20
-86.6670
 30
0.00000
  70
    32
  0
VERTEX
  8
0
  5
9F4F
 10
0.150000
 20
-86.6744
 30
0.00000
  70
    32
  0
VERTEX
  8
0
  5
9F50
 10
0.150000
 20
-86.6819
 30
0.00000
  70
    32
  0
VERTEX
  8
0
  5
9F51
 10
0.150000
 20
-86.6893
 30
0.00000
  70
    32
  0
VERTEX
  8
0
  5
9F52
 10
0.150000
 20
-86.6967
 30
0.00000
  70
    32
  0
VERTEX
  8
0
  5
9F53
 10
0.150000
 20
-86.7041
 30
0.00000
  70
    32
  0
VERTEX
  8
0
  5
9F54
 10
0.150000
 20
-86.7115
 30
0.00000
  70
    32
  0
VERTEX
  8
0
  5
9F55
 10
0.150000
 20
-86.7189
 30
0.00000
  70
    32
  0
VERTEX
  8
0
  5
9F56
 10
0.150000
 20
-86.7263
 30
0.00000
  70
    32
  0
VERTEX
  8
0
  5
9F57
 10
0.150000
 20
-86.7336
 30
0.00000
  70
    32
  0
VERTEX
  8
0
  5
9F58
 10
0.150000
 20
-86.7410
 30
0.00000
  70
    32
  0
VERTEX
  8
0
  5
9F59
 10
0.150000
 20
-86.7484
 30
0.00000
  70
    32
  0
VERTEX
  8
0
  5
9F5A
 10
0.150000
 20
-86.7557
 30
0.00000
  70
    32
  0
VERTEX
  8
0
  5
9F5B
 10
0.150000
 20
-86.7631
 30
0.00000
  70
    32
  0
VERTEX
  8
0
  5
9F5C
 10
0.150000
 20
-86.7704
 30
0.00000
  70
    32
  0
VERTEX
  8
0
  5
9F5D
 10
0.150000
 20
-86.7778
 30
0.00000
  70
    32
  0
VERTEX
  8
0
  5
9F5E
 10
0.150000
 20
-86.7851
 30
0.00000
  70
    32
  0
VERTEX
  8
0
  5
9F5F
 10
0.150000
 20
-86.7924
 30
0.00000
  70
    32
  0
VERTEX
  8
0
  5
9F60
 10
0.150000
 20
-86.7997
 30
0.00000
  70
    32
  0
VERTEX
  8
0
  5
9F61
 10
0.150000
 20
-86.8070
 30
0.00000
  70
    32
  0
VERTEX
  8
0
  5
9F62
 10
0.150000
 20
-86.8143
 30
0.00000
  70
    32
  0
VERTEX
  8
0
  5
9F63
 10
0.150000
 20
-86.8216
 30
0.00000
  70
    32
  0
VERTEX
  8
0
  5
9F64
 10
0.150000
 20
-86.8289
 30
0.00000
  70
    32
  0
VERTEX
  8
0
  5
9F65
 10
0.150000
 20
-86.8361
 30
0.00000
  70
    32
  0
VERTEX
  8
0
  5
9F66
 10
0.150000
 20
-86.8434
 30
0.00000
  70
    32
  0
VERTEX
  8
0
  5
9F67
 10
0.150000
 20
-86.8506
 30
0.00000
  70
    32
  0
VERTEX
  8
0
  5
9F68
 10
0.150000
 20
-86.8579
 30
0.00000
  70
    32
  0
VERTEX
  8
0
  5
9F69
 10
0.150000
 20
-86.8651
 30
0.00000
  70
    32
  0
VERTEX
  8
0
  5
9F6A
 10
0.150000
 20
-86.8723
 30
0.00000
  70
    32
  0
VERTEX
  8
0
  5
9F6B
 10
0.150000
 20
-86.8795
 30
0.00000
  70
    32
  0
VERTEX
  8
0
  5
9F6C
 10
0.150000
 20
-86.8867
 30
0.00000
  70
    32
  0
VERTEX
  8
0
  5
9F6D
 10
0.150000
 20
-86.8938
 30
0.00000
  70
    32
  0
VERTEX
  8
0
  5
9F6E
 10
0.150000
 20
-86.9010
 30
0.00000
  70
    32
  0
VERTEX
  8
0
  5
9F6F
 10
0.150000
 20
-86.9082
 30
0.00000
  70
    32
  0
VERTEX
  8
0
  5
9F70
 10
0.150000
 20
-86.9153
 30
0.00000
  70
    32
  0
VERTEX
  8
0
  5
9F71
 10
0.150000
 20
-86.9224
 30
0.00000
  70
    32
  0
VERTEX
  8
0
  5
9F72
 10
0.150000
 20
-86.9296
 30
0.00000
  70
    32
  0
VERTEX
  8
0
  5
9F73
 10
0.150000
 20
-86.9367
 30
0.00000
  70
    32
  0
VERTEX
  8
0
  5
9F74
 10
0.150000
 20
-86.9438
 30
0.00000
  70
    32
  0
VERTEX
  8
0
  5
9F75
 10
0.150000
 20
-86.9508
 30
0.00000
  70
    32
  0
VERTEX
  8
0
  5
9F76
 10
0.150000
 20
-86.9579
 30
0.00000
  70
    32
  0
VERTEX
  8
0
  5
9F77
 10
0.150000
 20
-86.9649
 30
0.00000
  70
    32
  0
VERTEX
  8
0
  5
9F78
 10
0.150000
 20
-86.9720
 30
0.00000
  70
    32
  0
VERTEX
  8
0
  5
9F79
 10
0.150000
 20
-86.9790
 30
0.00000
  70
    32
  0
VERTEX
  8
0
  5
9F7A
 10
0.150000
 20
-86.9860
 30
0.00000
  70
    32
  0
VERTEX
  8
0
  5
9F7B
 10
0.150000
 20
-86.9930
 30
0.00000
  70
    32
  0
VERTEX
  8
0
  5
9F7C
 10
0.150000
 20
-87.0000
 30
0.00000
  70
    32
  0
VERTEX
  8
0
  5
9F7D
 10
0.150000
 20
-87.0069
 30
0.00000
  70
    32
  0
VERTEX
  8
0
  5
9F7E
 10
0.150000
 20
-87.0139
 30
0.00000
  70
    32
  0
VERTEX
  8
0
  5
9F7F
 10
0.150000
 20
-87.0208
 30
0.00000
  70
    32
  0
VERTEX
  8
0
  5
9F80
 10
0.150000
 20
-87.0277
 30
0.00000
  70
    32
  0
VERTEX
  8
0
  5
9F81
 10
0.150000
 20
-87.0346
 30
0.00000
  70
    32
  0
VERTEX
  8
0
  5
9F82
 10
0.150000
 20
-87.0415
 30
0.00000
  70
    32
  0
VERTEX
  8
0
  5
9F83
 10
0.150000
 20
-87.0484
 30
0.00000
  70
    32
  0
VERTEX
  8
0
  5
9F84
 10
0.150000
 20
-87.0553
 30
0.00000
  70
    32
  0
VERTEX
  8
0
  5
9F85
 10
0.150000
 20
-87.0621
 30
0.00000
  70
    32
  0
VERTEX
  8
0
  5
9F86
 10
0.150000
 20
-87.0689
 30
0.00000
  70
    32
  0
VERTEX
  8
0
  5
9F87
 10
0.150000
 20
-87.0757
 30
0.00000
  70
    32
  0
VERTEX
  8
0
  5
9F88
 10
0.150000
 20
-87.0825
 30
0.00000
  70
    32
  0
VERTEX
  8
0
  5
9F89
 10
0.150000
 20
-87.0893
 30
0.00000
  70
    32
  0
VERTEX
  8
0
  5
9F8A
 10
0.150000
 20
-87.0960
 30
0.00000
  70
    32
  0
VERTEX
  8
0
  5
9F8B
 10
0.150000
 20
-87.1027
 30
0.00000
  70
    32
  0
VERTEX
  8
0
  5
9F8C
 10
0.150000
 20
-87.1095
 30
0.00000
  70
    32
  0
VERTEX
  8
0
  5
9F8D
 10
0.150000
 20
-87.1161
 30
0.00000
  70
    32
  0
VERTEX
  8
0
  5
9F8E
 10
0.150000
 20
-87.1228
 30
0.00000
  70
    32
  0
VERTEX
  8
0
  5
9F8F
 10
0.150000
 20
-87.1295
 30
0.00000
  70
    32
  0
VERTEX
  8
0
  5
9F90
 10
0.150000
 20
-87.1361
 30
0.00000
  70
    32
  0
VERTEX
  8
0
  5
9F91
 10
0.150000
 20
-87.1427
 30
0.00000
  70
    32
  0
VERTEX
  8
0
  5
9F92
 10
0.150000
 20
-87.1493
 30
0.00000
  70
    32
  0
VERTEX
  8
0
  5
9F93
 10
0.150000
 20
-87.1559
 30
0.00000
  70
    32
  0
VERTEX
  8
0
  5
9F94
 10
0.150000
 20
-87.1625
 30
0.00000
  70
    32
  0
VERTEX
  8
0
  5
9F95
 10
0.150000
 20
-87.1690
 30
0.00000
  70
    32
  0
VERTEX
  8
0
  5
9F96
 10
0.150000
 20
-87.1755
 30
0.00000
  70
    32
  0
VERTEX
  8
0
  5
9F97
 10
0.150000
 20
-87.1820
 30
0.00000
  70
    32
  0
VERTEX
  8
0
  5
9F98
 10
0.150000
 20
-87.1885
 30
0.00000
  70
    32
  0
VERTEX
  8
0
  5
9F99
 10
0.150000
 20
-87.1950
 30
0.00000
  70
    32
  0
VERTEX
  8
0
  5
9F9A
 10
0.150000
 20
-87.2014
 30
0.00000
  70
    32
  0
VERTEX
  8
0
  5
9F9B
 10
0.150000
 20
-87.2078
 30
0.00000
  70
    32
  0
VERTEX
  8
0
  5
9F9C
 10
0.150000
 20
-87.2143
 30
0.00000
  70
    32
  0
VERTEX
  8
0
  5
9F9D
 10
0.150000
 20
-87.2207
 30
0.00000
  70
    32
  0
VERTEX
  8
0
  5
9F9E
 10
0.150000
 20
-87.2272
 30
0.00000
  70
    32
  0
VERTEX
  8
0
  5
9F9F
 10
0.150000
 20
-87.2337
 30
0.00000
  70
    32
  0
VERTEX
  8
0
  5
9FA0
 10
0.150000
 20
-87.2402
 30
0.00000
  70
    32
  0
VERTEX
  8
0
  5
9FA1
 10
0.150000
 20
-87.2466
 30
0.00000
  70
    32
  0
VERTEX
  8
0
  5
9FA2
 10
0.150000
 20
-87.2531
 30
0.00000
  70
    32
  0
VERTEX
  8
0
  5
9FA3
 10
0.150000
 20
-87.2596
 30
0.00000
  70
    32
  0
VERTEX
  8
0
  5
9FA4
 10
0.150000
 20
-87.2661
 30
0.00000
  70
    32
  0
VERTEX
  8
0
  5
9FA5
 10
0.150000
 20
-87.2726
 30
0.00000
  70
    32
  0
VERTEX
  8
0
  5
9FA6
 10
0.150000
 20
-87.2792
 30
0.00000
  70
    32
  0
VERTEX
  8
0
  5
9FA7
 10
0.150000
 20
-87.2857
 30
0.00000
  70
    32
  0
VERTEX
  8
0
  5
9FA8
 10
0.150000
 20
-87.2922
 30
0.00000
  70
    32
  0
VERTEX
  8
0
  5
9FA9
 10
0.150000
 20
-87.2987
 30
0.00000
  70
    32
  0
VERTEX
  8
0
  5
9FAA
 10
0.150000
 20
-87.3053
 30
0.00000
  70
    32
  0
VERTEX
  8
0
  5
9FAB
 10
0.150000
 20
-87.3118
 30
0.00000
  70
    32
  0
VERTEX
  8
0
  5
9FAC
 10
0.150000
 20
-87.3184
 30
0.00000
  70
    32
  0
VERTEX
  8
0
  5
9FAD
 10
0.150000
 20
-87.3249
 30
0.00000
  70
    32
  0
VERTEX
  8
0
  5
9FAE
 10
0.150000
 20
-87.3315
 30
0.00000
  70
    32
  0
VERTEX
  8
0
  5
9FAF
 10
0.150000
 20
-87.3380
 30
0.00000
  70
    32
  0
VERTEX
  8
0
  5
9FB0
 10
0.150000
 20
-87.3446
 30
0.00000
  70
    32
  0
VERTEX
  8
0
  5
9FB1
 10
0.150000
 20
-87.3511
 30
0.00000
  70
    32
  0
VERTEX
  8
0
  5
9FB2
 10
0.150000
 20
-87.3577
 30
0.00000
  70
    32
  0
VERTEX
  8
0
  5
9FB3
 10
0.150000
 20
-87.3642
 30
0.00000
  70
    32
  0
VERTEX
  8
0
  5
9FB4
 10
0.150000
 20
-87.3708
 30
0.00000
  70
    32
  0
VERTEX
  8
0
  5
9FB5
 10
0.150000
 20
-87.3774
 30
0.00000
  70
    32
  0
VERTEX
  8
0
  5
9FB6
 10
0.150000
 20
-87.3839
 30
0.00000
  70
    32
  0
VERTEX
  8
0
  5
9FB7
 10
0.150000
 20
-87.3905
 30
0.00000
  70
    32
  0
VERTEX
  8
0
  5
9FB8
 10
0.150000
 20
-87.3971
 30
0.00000
  70
    32
  0
VERTEX
  8
0
  5
9FB9
 10
0.150000
 20
-87.4037
 30
0.00000
  70
    32
  0
VERTEX
  8
0
  5
9FBA
 10
0.150000
 20
-87.4102
 30
0.00000
  70
    32
  0
VERTEX
  8
0
  5
9FBB
 10
0.150000
 20
-87.4168
 30
0.00000
  70
    32
  0
VERTEX
  8
0
  5
9FBC
 10
0.150000
 20
-87.4234
 30
0.00000
  70
    32
  0
VERTEX
  8
0
  5
9FBD
 10
0.150000
 20
-87.4300
 30
0.00000
  70
    32
  0
VERTEX
  8
0
  5
9FBE
 10
0.150000
 20
-87.4365
 30
0.00000
  70
    32
  0
VERTEX
  8
0
  5
9FBF
 10
0.150000
 20
-87.4431
 30
0.00000
  70
    32
  0
VERTEX
  8
0
  5
9FC0
 10
0.150000
 20
-87.4497
 30
0.00000
  70
    32
  0
VERTEX
  8
0
  5
9FC1
 10
0.150000
 20
-87.4562
 30
0.00000
  70
    32
  0
VERTEX
  8
0
  5
9FC2
 10
0.150000
 20
-87.4628
 30
0.00000
  70
    32
  0
VERTEX
  8
0
  5
9FC3
 10
0.150000
 20
-87.4694
 30
0.00000
  70
    32
  0
VERTEX
  8
0
  5
9FC4
 10
0.150000
 20
-87.4759
 30
0.00000
  70
    32
  0
VERTEX
  8
0
  5
9FC5
 10
0.150000
 20
-87.4825
 30
0.00000
  70
    32
  0
VERTEX
  8
0
  5
9FC6
 10
0.150000
 20
-87.4891
 30
0.00000
  70
    32
  0
VERTEX
  8
0
  5
9FC7
 10
0.150000
 20
-87.4956
 30
0.00000
  70
    32
  0
VERTEX
  8
0
  5
9FC8
 10
0.150000
 20
-87.5022
 30
0.00000
  70
    32
  0
VERTEX
  8
0
  5
9FC9
 10
0.150000
 20
-87.5087
 30
0.00000
  70
    32
  0
VERTEX
  8
0
  5
9FCA
 10
0.150000
 20
-87.5153
 30
0.00000
  70
    32
  0
VERTEX
  8
0
  5
9FCB
 10
0.150000
 20
-87.5218
 30
0.00000
  70
    32
  0
VERTEX
  8
0
  5
9FCC
 10
0.150000
 20
-87.5284
 30
0.00000
  70
    32
  0
VERTEX
  8
0
  5
9FCD
 10
0.150000
 20
-87.5349
 30
0.00000
  70
    32
  0
VERTEX
  8
0
  5
9FCE
 10
0.150000
 20
-87.5414
 30
0.00000
  70
    32
  0
VERTEX
  8
0
  5
9FCF
 10
0.150000
 20
-87.5480
 30
0.00000
  70
    32
  0
VERTEX
  8
0
  5
9FD0
 10
0.150000
 20
-87.5545
 30
0.00000
  70
    32
  0
VERTEX
  8
0
  5
9FD1
 10
0.150000
 20
-87.5610
 30
0.00000
  70
    32
  0
VERTEX
  8
0
  5
9FD2
 10
0.150000
 20
-87.5675
 30
0.00000
  70
    32
  0
VERTEX
  8
0
  5
9FD3
 10
0.150000
 20
-87.5740
 30
0.00000
  70
    32
  0
VERTEX
  8
0
  5
9FD4
 10
0.150000
 20
-87.5805
 30
0.00000
  70
    32
  0
VERTEX
  8
0
  5
9FD5
 10
0.150000
 20
-87.5870
 30
0.00000
  70
    32
  0
VERTEX
  8
0
  5
9FD6
 10
0.150000
 20
-87.5935
 30
0.00000
  70
    32
  0
VERTEX
  8
0
  5
9FD7
 10
0.150000
 20
-87.6000
 30
0.00000
  70
    32
  0
VERTEX
  8
0
  5
9FD8
 10
0.150000
 20
-87.6065
 30
0.00000
  70
    32
  0
VERTEX
  8
0
  5
9FD9
 10
0.150000
 20
-87.6129
 30
0.00000
  70
    32
  0
VERTEX
  8
0
  5
9FDA
 10
0.150000
 20
-87.6194
 30
0.00000
  70
    32
  0
VERTEX
  8
0
  5
9FDB
 10
0.150000
 20
-87.6258
 30
0.00000
  70
    32
  0
VERTEX
  8
0
  5
9FDC
 10
0.150000
 20
-87.6323
 30
0.00000
  70
    32
  0
VERTEX
  8
0
  5
9FDD
 10
0.150000
 20
-87.6387
 30
0.00000
  70
    32
  0
VERTEX
  8
0
  5
9FDE
 10
0.150000
 20
-87.6452
 30
0.00000
  70
    32
  0
VERTEX
  8
0
  5
9FDF
 10
0.150000
 20
-87.6516
 30
0.00000
  70
    32
  0
VERTEX
  8
0
  5
9FE0
 10
0.150000
 20
-87.6580
 30
0.00000
  70
    32
  0
VERTEX
  8
0
  5
9FE1
 10
0.150000
 20
-87.6644
 30
0.00000
  70
    32
  0
VERTEX
  8
0
  5
9FE2
 10
0.150000
 20
-87.6708
 30
0.00000
  70
    32
  0
VERTEX
  8
0
  5
9FE3
 10
0.150000
 20
-87.6772
 30
0.00000
  70
    32
  0
VERTEX
  8
0
  5
9FE4
 10
0.150000
 20
-87.6835
 30
0.00000
  70
    32
  0
VERTEX
  8
0
  5
9FE5
 10
0.150000
 20
-87.6899
 30
0.00000
  70
    32
  0
VERTEX
  8
0
  5
9FE6
 10
0.150000
 20
-87.6963
 30
0.00000
  70
    32
  0
VERTEX
  8
0
  5
9FE7
 10
0.150000
 20
-87.7026
 30
0.00000
  70
    32
  0
VERTEX
  8
0
  5
9FE8
 10
0.150000
 20
-87.7089
 30
0.00000
  70
    32
  0
VERTEX
  8
0
  5
9FE9
 10
0.150000
 20
-87.7153
 30
0.00000
  70
    32
  0
VERTEX
  8
0
  5
9FEA
 10
0.150000
 20
-87.7216
 30
0.00000
  70
    32
  0
VERTEX
  8
0
  5
9FEB
 10
0.150000
 20
-87.7279
 30
0.00000
  70
    32
  0
VERTEX
  8
0
  5
9FEC
 10
0.150000
 20
-87.7342
 30
0.00000
  70
    32
  0
VERTEX
  8
0
  5
9FED
 10
0.150000
 20
-87.7404
 30
0.00000
  70
    32
  0
VERTEX
  8
0
  5
9FEE
 10
0.150000
 20
-87.7467
 30
0.00000
  70
    32
  0
VERTEX
  8
0
  5
9FEF
 10
0.150000
 20
-87.7529
 30
0.00000
  70
    32
  0
VERTEX
  8
0
  5
9FF0
 10
0.150000
 20
-87.7592
 30
0.00000
  70
    32
  0
VERTEX
  8
0
  5
9FF1
 10
0.150000
 20
-87.7654
 30
0.00000
  70
    32
  0
VERTEX
  8
0
  5
9FF2
 10
0.150000
 20
-87.7716
 30
0.00000
  70
    32
  0
VERTEX
  8
0
  5
9FF3
 10
0.150000
 20
-87.7778
 30
0.00000
  70
    32
  0
VERTEX
  8
0
  5
9FF4
 10
0.150000
 20
-87.7840
 30
0.00000
  70
    32
  0
VERTEX
  8
0
  5
9FF5
 10
0.150000
 20
-87.7902
 30
0.00000
  70
    32
  0
VERTEX
  8
0
  5
9FF6
 10
0.150000
 20
-87.7964
 30
0.00000
  70
    32
  0
VERTEX
  8
0
  5
9FF7
 10
0.150000
 20
-87.8025
 30
0.00000
  70
    32
  0
VERTEX
  8
0
  5
9FF8
 10
0.150000
 20
-87.8087
 30
0.00000
  70
    32
  0
VERTEX
  8
0
  5
9FF9
 10
0.150000
 20
-87.8148
 30
0.00000
  70
    32
  0
VERTEX
  8
0
  5
9FFA
 10
0.150000
 20
-87.8209
 30
0.00000
  70
    32
  0
VERTEX
  8
0
  5
9FFB
 10
0.150000
 20
-87.8270
 30
0.00000
  70
    32
  0
VERTEX
  8
0
  5
9FFC
 10
0.150000
 20
-87.8331
 30
0.00000
  70
    32
  0
VERTEX
  8
0
  5
9FFD
 10
0.150000
 20
-87.8391
 30
0.00000
  70
    32
  0
VERTEX
  8
0
  5
9FFE
 10
0.150000
 20
-87.8452
 30
0.00000
  70
    32
  0
VERTEX
  8
0
  5
9FFF
 10
0.150000
 20
-87.8512
 30
0.00000
  70
    32
  0
VERTEX
  8
0
  5
A000
 10
0.150000
 20
-87.8572
 30
0.00000
  70
    32
  0
VERTEX
  8
0
  5
A001
 10
0.150000
 20
-87.8633
 30
0.00000
  70
    32
  0
VERTEX
  8
0
  5
A002
 10
0.150000
 20
-87.8693
 30
0.00000
  70
    32
  0
VERTEX
  8
0
  5
A003
 10
0.150000
 20
-87.8752
 30
0.00000
  70
    32
  0
VERTEX
  8
0
  5
A004
 10
0.150000
 20
-87.8812
 30
0.00000
  70
    32
  0
VERTEX
  8
0
  5
A005
 10
0.150000
 20
-87.8871
 30
0.00000
  70
    32
  0
VERTEX
  8
0
  5
A006
 10
0.150000
 20
-87.8931
 30
0.00000
  70
    32
  0
VERTEX
  8
0
  5
A007
 10
0.150000
 20
-87.8990
 30
0.00000
  70
    32
  0
VERTEX
  8
0
  5
A008
 10
0.150000
 20
-87.9049
 30
0.00000
  70
    32
  0
VERTEX
  8
0
  5
A009
 10
0.150000
 20
-87.9108
 30
0.00000
  70
    32
  0
VERTEX
  8
0
  5
A00A
 10
0.150000
 20
-87.9167
 30
0.00000
  70
    32
  0
VERTEX
  8
0
  5
A00B
 10
0.150000
 20
-87.9225
 30
0.00000
  70
    32
  0
VERTEX
  8
0
  5
A00C
 10
0.150000
 20
-87.9283
 30
0.00000
  70
    32
  0
VERTEX
  8
0
  5
A00D
 10
0.150000
 20
-87.9342
 30
0.00000
  70
    32
  0
VERTEX
  8
0
  5
A00E
 10
0.150000
 20
-87.9400
 30
0.00000
  70
    32
  0
VERTEX
  8
0
  5
A00F
 10
0.150000
 20
-87.9458
 30
0.00000
  70
    32
  0
VERTEX
  8
0
  5
A010
 10
0.150000
 20
-87.9515
 30
0.00000
  70
    32
  0
VERTEX
  8
0
  5
A011
 10
0.150000
 20
-87.9573
 30
0.00000
  70
    32
  0
VERTEX
  8
0
  5
A012
 10
0.150000
 20
-87.9630
 30
0.00000
  70
    32
  0
VERTEX
  8
0
  5
A013
 10
0.150000
 20
-87.9687
 30
0.00000
  70
    32
  0
VERTEX
  8
0
  5
A014
 10
0.150000
 20
-87.9744
 30
0.00000
  70
    32
  0
VERTEX
  8
0
  5
A015
 10
0.150000
 20
-87.9801
 30
0.00000
  70
    32
  0
VERTEX
  8
0
  5
A016
 10
0.150000
 20
-87.9858
 30
0.00000
  70
    32
  0
VERTEX
  8
0
  5
A017
 10
0.150000
 20
-87.9914
 30
0.00000
  70
    32
  0
VERTEX
  8
0
  5
A018
 10
0.150000
 20
-87.9970
 30
0.00000
  70
    32
  0
VERTEX
  8
0
  5
A019
 10
0.150000
 20
-88.0027
 30
0.00000
  70
    32
  0
VERTEX
  8
0
  5
A01A
 10
0.150000
 20
-88.0082
 30
0.00000
  70
    32
  0
VERTEX
  8
0
  5
A01B
 10
0.150000
 20
-88.0138
 30
0.00000
  70
    32
  0
VERTEX
  8
0
  5
A01C
 10
0.150000
 20
-88.0194
 30
0.00000
  70
    32
  0
VERTEX
  8
0
  5
A01D
 10
0.150000
 20
-88.0249
 30
0.00000
  70
    32
  0
VERTEX
  8
0
  5
A01E
 10
0.150000
 20
-88.0304
 30
0.00000
  70
    32
  0
VERTEX
  8
0
  5
A01F
 10
0.150000
 20
-88.0359
 30
0.00000
  70
    32
  0
VERTEX
  8
0
  5
A020
 10
0.150000
 20
-88.0414
 30
0.00000
  70
    32
  0
VERTEX
  8
0
  5
A021
 10
0.150000
 20
-88.0468
 30
0.00000
  70
    32
  0
VERTEX
  8
0
  5
A022
 10
0.150000
 20
-88.0523
 30
0.00000
  70
    32
  0
VERTEX
  8
0
  5
A023
 10
0.150000
 20
-88.0577
 30
0.00000
  70
    32
  0
VERTEX
  8
0
  5
A024
 10
0.150000
 20
-88.0631
 30
0.00000
  70
    32
  0
VERTEX
  8
0
  5
A025
 10
0.150000
 20
-88.0685
 30
0.00000
  70
    32
  0
VERTEX
  8
0
  5
A026
 10
0.150000
 20
-88.0738
 30
0.00000
  70
    32
  0
VERTEX
  8
0
  5
A027
 10
0.150000
 20
-88.0791
 30
0.00000
  70
    32
  0
VERTEX
  8
0
  5
A028
 10
0.150000
 20
-88.0845
 30
0.00000
  70
    32
  0
VERTEX
  8
0
  5
A029
 10
0.150000
 20
-88.0897
 30
0.00000
  70
    32
  0
VERTEX
  8
0
  5
A02A
 10
0.150000
 20
-88.0950
 30
0.00000
  70
    32
  0
VERTEX
  8
0
  5
A02B
 10
0.150000
 20
-88.1003
 30
0.00000
  70
    32
  0
VERTEX
  8
0
  5
A02C
 10
0.150000
 20
-88.1055
 30
0.00000
  70
    32
  0
VERTEX
  8
0
  5
A02D
 10
0.150000
 20
-88.1107
 30
0.00000
  70
    32
  0
VERTEX
  8
0
  5
A02E
 10
0.150000
 20
-88.1159
 30
0.00000
  70
    32
  0
VERTEX
  8
0
  5
A02F
 10
0.150000
 20
-88.1211
 30
0.00000
  70
    32
  0
VERTEX
  8
0
  5
A030
 10
0.150000
 20
-88.1262
 30
0.00000
  70
    32
  0
VERTEX
  8
0
  5
A031
 10
0.150000
 20
-88.1313
 30
0.00000
  70
    32
  0
VERTEX
  8
0
  5
A032
 10
0.150000
 20
-88.1364
 30
0.00000
  70
    32
  0
VERTEX
  8
0
  5
A033
 10
0.150000
 20
-88.1415
 30
0.00000
  70
    32
  0
VERTEX
  8
0
  5
A034
 10
0.150000
 20
-88.1465
 30
0.00000
  70
    32
  0
VERTEX
  8
0
  5
A035
 10
0.150000
 20
-88.1516
 30
0.00000
  70
    32
  0
VERTEX
  8
0
  5
A036
 10
0.150000
 20
-88.1566
 30
0.00000
  70
    32
  0
VERTEX
  8
0
  5
A037
 10
0.150000
 20
-88.1616
 30
0.00000
  70
    32
  0
VERTEX
  8
0
  5
A038
 10
0.150000
 20
-88.1665
 30
0.00000
  70
    32
  0
VERTEX
  8
0
  5
A039
 10
0.150000
 20
-88.1714
 30
0.00000
  70
    32
  0
SEQEND
  8
0
  5
A03A
  0
POLYLINE
  8
0
  5
A03B
  62
3
  66
     1
 10
0.00000
 20
0.00000
 30
0.00000
  70
     8
  0
VERTEX
  8
0
  5
A03C
 10
0.150000
 20
88.1714
 30
0.00000
  70
    32
  0
VERTEX
  8
0
  5
A03D
 10
0.150000
 20
88.1665
 30
0.00000
  70
    32
  0
VERTEX
  8
0
  5
A03E
 10
0.150000
 20
88.1616
 30
0.00000
  70
    32
  0
VERTEX
  8
0
  5
A03F
 10
0.150000
 20
88.1566
 30
0.00000
  70
    32
  0
VERTEX
  8
0
  5
A040
 10
0.150000
 20
88.1516
 30
0.00000
  70
    32
  0
VERTEX
  8
0
  5
A041
 10
0.150000
 20
88.1465
 30
0.00000
  70
    32
  0
VERTEX
  8
0
  5
A042
 10
0.150000
 20
88.1415
 30
0.00000
  70
    32
  0
VERTEX
  8
0
  5
A043
 10
0.150000
 20
88.1364
 30
0.00000
  70
    32
  0
VERTEX
  8
0
  5
A044
 10
0.150000
 20
88.1313
 30
0.00000
  70
    32
  0
VERTEX
  8
0
  5
A045
 10
0.150000
 20
88.1262
 30
0.00000
  70
    32
  0
VERTEX
  8
0
  5
A046
 10
0.150000
 20
88.1211
 30
0.00000
  70
    32
  0
VERTEX
  8
0
  5
A047
 10
0.150000
 20
88.1159
 30
0.00000
  70
    32
  0
VERTEX
  8
0
  5
A048
 10
0.150000
 20
88.1107
 30
0.00000
  70
    32
  0
VERTEX
  8
0
  5
A049
 10
0.150000
 20
88.1055
 30
0.00000
  70
    32
  0
VERTEX
  8
0
  5
A04A
 10
0.150000
 20
88.1003
 30
0.00000
  70
    32
  0
VERTEX
  8
0
  5
A04B
 10
0.150000
 20
88.0950
 30
0.00000
  70
    32
  0
VERTEX
  8
0
  5
A04C
 10
0.150000
 20
88.0897
 30
0.00000
  70
    32
  0
VERTEX
  8
0
  5
A04D
 10
0.150000
 20
88.0845
 30
0.00000
  70
    32
  0
VERTEX
  8
0
  5
A04E
 10
0.150000
 20
88.0791
 30
0.00000
  70
    32
  0
VERTEX
  8
0
  5
A04F
 10
0.150000
 20
88.0738
 30
0.00000
  70
    32
  0
VERTEX
  8
0
  5
A050
 10
0.150000
 20
88.0685
 30
0.00000
  70
    32
  0
VERTEX
  8
0
  5
A051
 10
0.150000
 20
88.0631
 30
0.00000
  70
    32
  0
VERTEX
  8
0
  5
A052
 10
0.150000
 20
88.0577
 30
0.00000
  70
    32
  0
VERTEX
  8
0
  5
A053
 10
0.150000
 20
88.0523
 30
0.00000
  70
    32
  0
VERTEX
  8
0
  5
A054
 10
0.150000
 20
88.0468
 30
0.00000
  70
    32
  0
VERTEX
  8
0
  5
A055
 10
0.150000
 20
88.0414
 30
0.00000
  70
    32
  0
VERTEX
  8
0
  5
A056
 10
0.150000
 20
88.0359
 30
0.00000
  70
    32
  0
VERTEX
  8
0
  5
A057
 10
0.150000
 20
88.0304
 30
0.00000
  70
    32
  0
VERTEX
  8
0
  5
A058
 10
0.150000
 20
88.0249
 30
0.00000
  70
    32
  0
VERTEX
  8
0
  5
A059
 10
0.150000
 20
88.0194
 30
0.00000
  70
    32
  0
VERTEX
  8
0
  5
A05A
 10
0.150000
 20
88.0138
 30
0.00000
  70
    32
  0
VERTEX
  8
0
  5
A05B
 10
0.150000
 20
88.0082
 30
0.00000
  70
    32
  0
VERTEX
  8
0
  5
A05C
 10
0.150000
 20
88.0027
 30
0.00000
  70
    32
  0
VERTEX
  8
0
  5
A05D
 10
0.150000
 20
87.9970
 30
0.00000
  70
    32
  0
VERTEX
  8
0
  5
A05E
 10
0.150000
 20
87.9914
 30
0.00000
  70
    32
  0
VERTEX
  8
0
  5
A05F
 10
0.150000
 20
87.9858
 30
0.00000
  70
    32
  0
VERTEX
  8
0
  5
A060
 10
0.150000
 20
87.9801
 30
0.00000
  70
    32
  0
VERTEX
  8
0
  5
A061
 10
0.150000
 20
87.9744
 30
0.00000
  70
    32
  0
VERTEX
  8
0
  5
A062
 10
0.150000
 20
87.9687
 30
0.00000
  70
    32
  0
VERTEX
  8
0
  5
A063
 10
0.150000
 20
87.9630
 30
0.00000
  70
    32
  0
VERTEX
  8
0
  5
A064
 10
0.150000
 20
87.9573
 30
0.00000
  70
    32
  0
VERTEX
  8
0
  5
A065
 10
0.150000
 20
87.9515
 30
0.00000
  70
    32
  0
VERTEX
  8
0
  5
A066
 10
0.150000
 20
87.9458
 30
0.00000
  70
    32
  0
VERTEX
  8
0
  5
A067
 10
0.150000
 20
87.9400
 30
0.00000
  70
    32
  0
VERTEX
  8
0
  5
A068
 10
0.150000
 20
87.9342
 30
0.00000
  70
    32
  0
VERTEX
  8
0
  5
A069
 10
0.150000
 20
87.9283
 30
0.00000
  70
    32
  0
VERTEX
  8
0
  5
A06A
 10
0.150000
 20
87.9225
 30
0.00000
  70
    32
  0
VERTEX
  8
0
  5
A06B
 10
0.150000
 20
87.9167
 30
0.00000
  70
    32
  0
VERTEX
  8
0
  5
A06C
 10
0.150000
 20
87.9108
 30
0.00000
  70
    32
  0
VERTEX
  8
0
  5
A06D
 10
0.150000
 20
87.9049
 30
0.00000
  70
    32
  0
VERTEX
  8
0
  5
A06E
 10
0.150000
 20
87.8990
 30
0.00000
  70
    32
  0
VERTEX
  8
0
  5
A06F
 10
0.150000
 20
87.8931
 30
0.00000
  70
    32
  0
VERTEX
  8
0
  5
A070
 10
0.150000
 20
87.8871
 30
0.00000
  70
    32
  0
VERTEX
  8
0
  5
A071
 10
0.150000
 20
87.8812
 30
0.00000
  70
    32
  0
VERTEX
  8
0
  5
A072
 10
0.150000
 20
87.8752
 30
0.00000
  70
    32
  0
VERTEX
  8
0
  5
A073
 10
0.150000
 20
87.8693
 30
0.00000
  70
    32
  0
VERTEX
  8
0
  5
A074
 10
0.150000
 20
87.8633
 30
0.00000
  70
    32
  0
VERTEX
  8
0
  5
A075
 10
0.150000
 20
87.8572
 30
0.00000
  70
    32
  0
VERTEX
  8
0
  5
A076
 10
0.150000
 20
87.8512
 30
0.00000
  70
    32
  0
VERTEX
  8
0
  5
A077
 10
0.150000
 20
87.8452
 30
0.00000
  70
    32
  0
VERTEX
  8
0
  5
A078
 10
0.150000
 20
87.8391
 30
0.00000
  70
    32
  0
VERTEX
  8
0
  5
A079
 10
0.150000
 20
87.8331
 30
0.00000
  70
    32
  0
VERTEX
  8
0
  5
A07A
 10
0.150000
 20
87.8270
 30
0.00000
  70
    32
  0
VERTEX
  8
0
  5
A07B
 10
0.150000
 20
87.8209
 30
0.00000
  70
    32
  0
VERTEX
  8
0
  5
A07C
 10
0.150000
 20
87.8148
 30
0.00000
  70
    32
  0
VERTEX
  8
0
  5
A07D
 10
0.150000
 20
87.8087
 30
0.00000
  70
    32
  0
VERTEX
  8
0
  5
A07E
 10
0.150000
 20
87.8025
 30
0.00000
  70
    32
  0
VERTEX
  8
0
  5
A07F
 10
0.150000
 20
87.7964
 30
0.00000
  70
    32
  0
VERTEX
  8
0
  5
A080
 10
0.150000
 20
87.7902
 30
0.00000
  70
    32
  0
VERTEX
  8
0
  5
A081
 10
0.150000
 20
87.7840
 30
0.00000
  70
    32
  0
VERTEX
  8
0
  5
A082
 10
0.150000
 20
87.7778
 30
0.00000
  70
    32
  0
VERTEX
  8
0
  5
A083
 10
0.150000
 20
87.7716
 30
0.00000
  70
    32
  0
VERTEX
  8
0
  5
A084
 10
0.150000
 20
87.7654
 30
0.00000
  70
    32
  0
VERTEX
  8
0
  5
A085
 10
0.150000
 20
87.7592
 30
0.00000
  70
    32
  0
VERTEX
  8
0
  5
A086
 10
0.150000
 20
87.7529
 30
0.00000
  70
    32
  0
VERTEX
  8
0
  5
A087
 10
0.150000
 20
87.7467
 30
0.00000
  70
    32
  0
VERTEX
  8
0
  5
A088
 10
0.150000
 20
87.7404
 30
0.00000
  70
    32
  0
VERTEX
  8
0
  5
A089
 10
0.150000
 20
87.7342
 30
0.00000
  70
    32
  0
VERTEX
  8
0
  5
A08A
 10
0.150000
 20
87.7279
 30
0.00000
  70
    32
  0
VERTEX
  8
0
  5
A08B
 10
0.150000
 20
87.7216
 30
0.00000
  70
    32
  0
VERTEX
  8
0
  5
A08C
 10
0.150000
 20
87.7153
 30
0.00000
  70
    32
  0
VERTEX
  8
0
  5
A08D
 10
0.150000
 20
87.7089
 30
0.00000
  70
    32
  0
VERTEX
  8
0
  5
A08E
 10
0.150000
 20
87.7026
 30
0.00000
  70
    32
  0
VERTEX
  8
0
  5
A08F
 10
0.150000
 20
87.6963
 30
0.00000
  70
    32
  0
VERTEX
  8
0
  5
A090
 10
0.150000
 20
87.6899
 30
0.00000
  70
    32
  0
VERTEX
  8
0
  5
A091
 10
0.150000
 20
87.6835
 30
0.00000
  70
    32
  0
VERTEX
  8
0
  5
A092
 10
0.150000
 20
87.6772
 30
0.00000
  70
    32
  0
VERTEX
  8
0
  5
A093
 10
0.150000
 20
87.6708
 30
0.00000
  70
    32
  0
VERTEX
  8
0
  5
A094
 10
0.150000
 20
87.6644
 30
0.00000
  70
    32
  0
VERTEX
  8
0
  5
A095
 10
0.150000
 20
87.6580
 30
0.00000
  70
    32
  0
VERTEX
  8
0
  5
A096
 10
0.150000
 20
87.6516
 30
0.00000
  70
    32
  0
VERTEX
  8
0
  5
A097
 10
0.150000
 20
87.6452
 30
0.00000
  70
    32
  0
VERTEX
  8
0
  5
A098
 10
0.150000
 20
87.6387
 30
0.00000
  70
    32
  0
VERTEX
  8
0
  5
A099
 10
0.150000
 20
87.6323
 30
0.00000
  70
    32
  0
VERTEX
  8
0
  5
A09A
 10
0.150000
 20
87.6258
 30
0.00000
  70
    32
  0
VERTEX
  8
0
  5
A09B
 10
0.150000
 20
87.6194
 30
0.00000
  70
    32
  0
VERTEX
  8
0
  5
A09C
 10
0.150000
 20
87.6129
 30
0.00000
  70
    32
  0
VERTEX
  8
0
  5
A09D
 10
0.150000
 20
87.6065
 30
0.00000
  70
    32
  0
VERTEX
  8
0
  5
A09E
 10
0.150000
 20
87.6000
 30
0.00000
  70
    32
  0
VERTEX
  8
0
  5
A09F
 10
0.150000
 20
87.5935
 30
0.00000
  70
    32
  0
VERTEX
  8
0
  5
A0A0
 10
0.150000
 20
87.5870
 30
0.00000
  70
    32
  0
VERTEX
  8
0
  5
A0A1
 10
0.150000
 20
87.5805
 30
0.00000
  70
    32
  0
VERTEX
  8
0
  5
A0A2
 10
0.150000
 20
87.5740
 30
0.00000
  70
    32
  0
VERTEX
  8
0
  5
A0A3
 10
0.150000
 20
87.5675
 30
0.00000
  70
    32
  0
VERTEX
  8
0
  5
A0A4
 10
0.150000
 20
87.5610
 30
0.00000
  70
    32
  0
VERTEX
  8
0
  5
A0A5
 10
0.150000
 20
87.5545
 30
0.00000
  70
    32
  0
VERTEX
  8
0
  5
A0A6
 10
0.150000
 20
87.5480
 30
0.00000
  70
    32
  0
VERTEX
  8
0
  5
A0A7
 10
0.150000
 20
87.5414
 30
0.00000
  70
    32
  0
VERTEX
  8
0
  5
A0A8
 10
0.150000
 20
87.5349
 30
0.00000
  70
    32
  0
VERTEX
  8
0
  5
A0A9
 10
0.150000
 20
87.5284
 30
0.00000
  70
    32
  0
VERTEX
  8
0
  5
A0AA
 10
0.150000
 20
87.5218
 30
0.00000
  70
    32
  0
VERTEX
  8
0
  5
A0AB
 10
0.150000
 20
87.5153
 30
0.00000
  70
    32
  0
VERTEX
  8
0
  5
A0AC
 10
0.150000
 20
87.5087
 30
0.00000
  70
    32
  0
VERTEX
  8
0
  5
A0AD
 10
0.150000
 20
87.5022
 30
0.00000
  70
    32
  0
VERTEX
  8
0
  5
A0AE
 10
0.150000
 20
87.4956
 30
0.00000
  70
    32
  0
VERTEX
  8
0
  5
A0AF
 10
0.150000
 20
87.4891
 30
0.00000
  70
    32
  0
VERTEX
  8
0
  5
A0B0
 10
0.150000
 20
87.4825
 30
0.00000
  70
    32
  0
VERTEX
  8
0
  5
A0B1
 10
0.150000
 20
87.4759
 30
0.00000
  70
    32
  0
VERTEX
  8
0
  5
A0B2
 10
0.150000
 20
87.4694
 30
0.00000
  70
    32
  0
VERTEX
  8
0
  5
A0B3
 10
0.150000
 20
87.4628
 30
0.00000
  70
    32
  0
VERTEX
  8
0
  5
A0B4
 10
0.150000
 20
87.4562
 30
0.00000
  70
    32
  0
VERTEX
  8
0
  5
A0B5
 10
0.150000
 20
87.4497
 30
0.00000
  70
    32
  0
VERTEX
  8
0
  5
A0B6
 10
0.150000
 20
87.4431
 30
0.00000
  70
    32
  0
VERTEX
  8
0
  5
A0B7
 10
0.150000
 20
87.4365
 30
0.00000
  70
    32
  0
VERTEX
  8
0
  5
A0B8
 10
0.150000
 20
87.4300
 30
0.00000
  70
    32
  0
VERTEX
  8
0
  5
A0B9
 10
0.150000
 20
87.4234
 30
0.00000
  70
    32
  0
VERTEX
  8
0
  5
A0BA
 10
0.150000
 20
87.4168
 30
0.00000
  70
    32
  0
VERTEX
  8
0
  5
A0BB
 10
0.150000
 20
87.4102
 30
0.00000
  70
    32
  0
VERTEX
  8
0
  5
A0BC
 10
0.150000
 20
87.4037
 30
0.00000
  70
    32
  0
VERTEX
  8
0
  5
A0BD
 10
0.150000
 20
87.3971
 30
0.00000
  70
    32
  0
VERTEX
  8
0
  5
A0BE
 10
0.150000
 20
87.3905
 30
0.00000
  70
    32
  0
VERTEX
  8
0
  5
A0BF
 10
0.150000
 20
87.3839
 30
0.00000
  70
    32
  0
VERTEX
  8
0
  5
A0C0
 10
0.150000
 20
87.3774
 30
0.00000
  70
    32
  0
VERTEX
  8
0
  5
A0C1
 10
0.150000
 20
87.3708
 30
0.00000
  70
    32
  0
VERTEX
  8
0
  5
A0C2
 10
0.150000
 20
87.3642
 30
0.00000
  70
    32
  0
VERTEX
  8
0
  5
A0C3
 10
0.150000
 20
87.3577
 30
0.00000
  70
    32
  0
VERTEX
  8
0
  5
A0C4
 10
0.150000
 20
87.3511
 30
0.00000
  70
    32
  0
VERTEX
  8
0
  5
A0C5
 10
0.150000
 20
87.3446
 30
0.00000
  70
    32
  0
VERTEX
  8
0
  5
A0C6
 10
0.150000
 20
87.3380
 30
0.00000
  70
    32
  0
VERTEX
  8
0
  5
A0C7
 10
0.150000
 20
87.3315
 30
0.00000
  70
    32
  0
VERTEX
  8
0
  5
A0C8
 10
0.150000
 20
87.3249
 30
0.00000
  70
    32
  0
VERTEX
  8
0
  5
A0C9
 10
0.150000
 20
87.3184
 30
0.00000
  70
    32
  0
VERTEX
  8
0
  5
A0CA
 10
0.150000
 20
87.3118
 30
0.00000
  70
    32
  0
VERTEX
  8
0
  5
A0CB
 10
0.150000
 20
87.3053
 30
0.00000
  70
    32
  0
VERTEX
  8
0
  5
A0CC
 10
0.150000
 20
87.2987
 30
0.00000
  70
    32
  0
VERTEX
  8
0
  5
A0CD
 10
0.150000
 20
87.2922
 30
0.00000
  70
    32
  0
VERTEX
  8
0
  5
A0CE
 10
0.150000
 20
87.2857
 30
0.00000
  70
    32
  0
VERTEX
  8
0
  5
A0CF
 10
0.150000
 20
87.2792
 30
0.00000
  70
    32
  0
VERTEX
  8
0
  5
A0D0
 10
0.150000
 20
87.2726
 30
0.00000
  70
    32
  0
VERTEX
  8
0
  5
A0D1
 10
0.150000
 20
87.2661
 30
0.00000
  70
    32
  0
VERTEX
  8
0
  5
A0D2
 10
0.150000
 20
87.2596
 30
0.00000
  70
    32
  0
VERTEX
  8
0
  5
A0D3
 10
0.150000
 20
87.2531
 30
0.00000
  70
    32
  0
VERTEX
  8
0
  5
A0D4
 10
0.150000
 20
87.2466
 30
0.00000
  70
    32
  0
VERTEX
  8
0
  5
A0D5
 10
0.150000
 20
87.2402
 30
0.00000
  70
    32
  0
VERTEX
  8
0
  5
A0D6
 10
0.150000
 20
87.2337
 30
0.00000
  70
    32
  0
VERTEX
  8
0
  5
A0D7
 10
0.150000
 20
87.2272
 30
0.00000
  70
    32
  0
VERTEX
  8
0
  5
A0D8
 10
0.150000
 20
87.2207
 30
0.00000
  70
    32
  0
VERTEX
  8
0
  5
A0D9
 10
0.150000
 20
87.2143
 30
0.00000
  70
    32
  0
VERTEX
  8
0
  5
A0DA
 10
0.150000
 20
87.2078
 30
0.00000
  70
    32
  0
VERTEX
  8
0
  5
A0DB
 10
0.150000
 20
87.2014
 30
0.00000
  70
    32
  0
VERTEX
  8
0
  5
A0DC
 10
0.150000
 20
87.1950
 30
0.00000
  70
    32
  0
VERTEX
  8
0
  5
A0DD
 10
0.150000
 20
87.1885
 30
0.00000
  70
    32
  0
VERTEX
  8
0
  5
A0DE
 10
0.150000
 20
87.1820
 30
0.00000
  70
    32
  0
VERTEX
  8
0
  5
A0DF
 10
0.150000
 20
87.1755
 30
0.00000
  70
    32
  0
VERTEX
  8
0
  5
A0E0
 10
0.150000
 20
87.1690
 30
0.00000
  70
    32
  0
VERTEX
  8
0
  5
A0E1
 10
0.150000
 20
87.1625
 30
0.00000
  70
    32
  0
VERTEX
  8
0
  5
A0E2
 10
0.150000
 20
87.1559
 30
0.00000
  70
    32
  0
VERTEX
  8
0
  5
A0E3
 10
0.150000
 20
87.1493
 30
0.00000
  70
    32
  0
VERTEX
  8
0
  5
A0E4
 10
0.150000
 20
87.1427
 30
0.00000
  70
    32
  0
VERTEX
  8
0
  5
A0E5
 10
0.150000
 20
87.1361
 30
0.00000
  70
    32
  0
VERTEX
  8
0
  5
A0E6
 10
0.150000
 20
87.1295
 30
0.00000
  70
    32
  0
VERTEX
  8
0
  5
A0E7
 10
0.150000
 20
87.1228
 30
0.00000
  70
    32
  0
VERTEX
  8
0
  5
A0E8
 10
0.150000
 20
87.1161
 30
0.00000
  70
    32
  0
VERTEX
  8
0
  5
A0E9
 10
0.150000
 20
87.1095
 30
0.00000
  70
    32
  0
VERTEX
  8
0
  5
A0EA
 10
0.150000
 20
87.1027
 30
0.00000
  70
    32
  0
VERTEX
  8
0
  5
A0EB
 10
0.150000
 20
87.0960
 30
0.00000
  70
    32
  0
VERTEX
  8
0
  5
A0EC
 10
0.150000
 20
87.0893
 30
0.00000
  70
    32
  0
VERTEX
  8
0
  5
A0ED
 10
0.150000
 20
87.0825
 30
0.00000
  70
    32
  0
VERTEX
  8
0
  5
A0EE
 10
0.150000
 20
87.0757
 30
0.00000
  70
    32
  0
VERTEX
  8
0
  5
A0EF
 10
0.150000
 20
87.0689
 30
0.00000
  70
    32
  0
VERTEX
  8
0
  5
A0F0
 10
0.150000
 20
87.0621
 30
0.00000
  70
    32
  0
VERTEX
  8
0
  5
A0F1
 10
0.150000
 20
87.0553
 30
0.00000
  70
    32
  0
VERTEX
  8
0
  5
A0F2
 10
0.150000
 20
87.0484
 30
0.00000
  70
    32
  0
VERTEX
  8
0
  5
A0F3
 10
0.150000
 20
87.0415
 30
0.00000
  70
    32
  0
VERTEX
  8
0
  5
A0F4
 10
0.150000
 20
87.0346
 30
0.00000
  70
    32
  0
VERTEX
  8
0
  5
A0F5
 10
0.150000
 20
87.0277
 30
0.00000
  70
    32
  0
VERTEX
  8
0
  5
A0F6
 10
0.150000
 20
87.0208
 30
0.00000
  70
    32
  0
VERTEX
  8
0
  5
A0F7
 10
0.150000
 20
87.0139
 30
0.00000
  70
    32
  0
VERTEX
  8
0
  5
A0F8
 10
0.150000
 20
87.0069
 30
0.00000
  70
    32
  0
VERTEX
  8
0
  5
A0F9
 10
0.150000
 20
87.0000
 30
0.00000
  70
    32
  0
VERTEX
  8
0
  5
A0FA
 10
0.150000
 20
86.9930
 30
0.00000
  70
    32
  0
VERTEX
  8
0
  5
A0FB
 10
0.150000
 20
86.9860
 30
0.00000
  70
    32
  0
VERTEX
  8
0
  5
A0FC
 10
0.150000
 20
86.9790
 30
0.00000
  70
    32
  0
VERTEX
  8
0
  5
A0FD
 10
0.150000
 20
86.9720
 30
0.00000
  70
    32
  0
VERTEX
  8
0
  5
A0FE
 10
0.150000
 20
86.9649
 30
0.00000
  70
    32
  0
VERTEX
  8
0
  5
A0FF
 10
0.150000
 20
86.9579
 30
0.00000
  70
    32
  0
VERTEX
  8
0
  5
A100
 10
0.150000
 20
86.9508
 30
0.00000
  70
    32
  0
VERTEX
  8
0
  5
A101
 10
0.150000
 20
86.9438
 30
0.00000
  70
    32
  0
VERTEX
  8
0
  5
A102
 10
0.150000
 20
86.9367
 30
0.00000
  70
    32
  0
VERTEX
  8
0
  5
A103
 10
0.150000
 20
86.9296
 30
0.00000
  70
    32
  0
VERTEX
  8
0
  5
A104
 10
0.150000
 20
86.9224
 30
0.00000
  70
    32
  0
VERTEX
  8
0
  5
A105
 10
0.150000
 20
86.9153
 30
0.00000
  70
    32
  0
VERTEX
  8
0
  5
A106
 10
0.150000
 20
86.9082
 30
0.00000
  70
    32
  0
VERTEX
  8
0
  5
A107
 10
0.150000
 20
86.9010
 30
0.00000
  70
    32
  0
VERTEX
  8
0
  5
A108
 10
0.150000
 20
86.8938
 30
0.00000
  70
    32
  0
VERTEX
  8
0
  5
A109
 10
0.150000
 20
86.8867
 30
0.00000
  70
    32
  0
VERTEX
  8
0
  5
A10A
 10
0.150000
 20
86.8795
 30
0.00000
  70
    32
  0
VERTEX
  8
0
  5
A10B
 10
0.150000
 20
86.8723
 30
0.00000
  70
    32
  0
VERTEX
  8
0
  5
A10C
 10
0.150000
 20
86.8651
 30
0.00000
  70
    32
  0
VERTEX
  8
0
  5
A10D
 10
0.150000
 20
86.8579
 30
0.00000
  70
    32
  0
VERTEX
  8
0
  5
A10E
 10
0.150000
 20
86.8506
 30
0.00000
  70
    32
  0
VERTEX
  8
0
  5
A10F
 10
0.150000
 20
86.8434
 30
0.00000
  70
    32
  0
VERTEX
  8
0
  5
A110
 10
0.150000
 20
86.8361
 30
0.00000
  70
    32
  0
VERTEX
  8
0
  5
A111
 10
0.150000
 20
86.8289
 30
0.00000
  70
    32
  0
VERTEX
  8
0
  5
A112
 10
0.150000
 20
86.8216
 30
0.00000
  70
    32
  0
VERTEX
  8
0
  5
A113
 10
0.150000
 20
86.8143
 30
0.00000
  70
    32
  0
VERTEX
  8
0
  5
A114
 10
0.150000
 20
86.8070
 30
0.00000
  70
    32
  0
VERTEX
  8
0
  5
A115
 10
0.150000
 20
86.7997
 30
0.00000
  70
    32
  0
VERTEX
  8
0
  5
A116
 10
0.150000
 20
86.7924
 30
0.00000
  70
    32
  0
VERTEX
  8
0
  5
A117
 10
0.150000
 20
86.7851
 30
0.00000
  70
    32
  0
VERTEX
  8
0
  5
A118
 10
0.150000
 20
86.7778
 30
0.00000
  70
    32
  0
VERTEX
  8
0
  5
A119
 10
0.150000
 20
86.7704
 30
0.00000
  70
    32
  0
VERTEX
  8
0
  5
A11A
 10
0.150000
 20
86.7631
 30
0.00000
  70
    32
  0
VERTEX
  8
0
  5
A11B
 10
0.150000
 20
86.7557
 30
0.00000
  70
    32
  0
VERTEX
  8
0
  5
A11C
 10
0.150000
 20
86.7484
 30
0.00000
  70
    32
  0
VERTEX
  8
0
  5
A11D
 10
0.150000
 20
86.7410
 30
0.00000
  70
    32
  0
VERTEX
  8
0
  5
A11E
 10
0.150000
 20
86.7336
 30
0.00000
  70
    32
  0
VERTEX
  8
0
  5
A11F
 10
0.150000
 20
86.7263
 30
0.00000
  70
    32
  0
VERTEX
  8
0
  5
A120
 10
0.150000
 20
86.7189
 30
0.00000
  70
    32
  0
VERTEX
  8
0
  5
A121
 10
0.150000
 20
86.7115
 30
0.00000
  70
    32
  0
VERTEX
  8
0
  5
A122
 10
0.150000
 20
86.7041
 30
0.00000
  70
    32
  0
VERTEX
  8
0
  5
A123
 10
0.150000
 20
86.6967
 30
0.00000
  70
    32
  0
VERTEX
  8
0
  5
A124
 10
0.150000
 20
86.6893
 30
0.00000
  70
    32
  0
VERTEX
  8
0
  5
A125
 10
0.150000
 20
86.6819
 30
0.00000
  70
    32
  0
VERTEX
  8
0
  5
A126
 10
0.150000
 20
86.6744
 30
0.00000
  70
    32
  0
VERTEX
  8
0
  5
A127
 10
0.150000
 20
86.6670
 30
0.00000
  70
    32
  0
VERTEX
  8
0
  5
A128
 10
0.150000
 20
86.6596
 30
0.00000
  70
    32
  0
VERTEX
  8
0
  5
A129
 10
0.150000
 20
86.6521
 30
0.00000
  70
    32
  0
VERTEX
  8
0
  5
A12A
 10
0.150000
 20
86.6447
 30
0.00000
  70
    32
  0
VERTEX
  8
0
  5
A12B
 10
0.150000
 20
86.6373
 30
0.00000
  70
    32
  0
VERTEX
  8
0
  5
A12C
 10
0.150000
 20
86.6298
 30
0.00000
  70
    32
  0
VERTEX
  8
0
  5
A12D
 10
0.150000
 20
86.6224
 30
0.00000
  70
    32
  0
VERTEX
  8
0
  5
A12E
 10
0.150000
 20
86.6149
 30
0.00000
  70
    32
  0
VERTEX
  8
0
  5
A12F
 10
0.150000
 20
86.6074
 30
0.00000
  70
    32
  0
VERTEX
  8
0
  5
A130
 10
0.150000
 20
86.6000
 30
0.00000
  70
    32
  0
VERTEX
  8
0
  5
A131
 10
0.150000
 20
86.5925
 30
0.00000
  70
    32
  0
VERTEX
  8
0
  5
A132
 10
0.150000
 20
86.5850
 30
0.00000
  70
    32
  0
VERTEX
  8
0
  5
A133
 10
0.150000
 20
86.5776
 30
0.00000
  70
    32
  0
VERTEX
  8
0
  5
A134
 10
0.150000
 20
86.5701
 30
0.00000
  70
    32
  0
VERTEX
  8
0
  5
A135
 10
0.150000
 20
86.5626
 30
0.00000
  70
    32
  0
VERTEX
  8
0
  5
A136
 10
0.150000
 20
86.5552
 30
0.00000
  70
    32
  0
VERTEX
  8
0
  5
A137
 10
0.150000
 20
86.5477
 30
0.00000
  70
    32
  0
VERTEX
  8
0
  5
A138
 10
0.150000
 20
86.5402
 30
0.00000
  70
    32
  0
VERTEX
  8
0
  5
A139
 10
0.150000
 20
86.5327
 30
0.00000
  70
    32
  0
VERTEX
  8
0
  5
A13A
 10
0.150000
 20
86.5252
 30
0.00000
  70
    32
  0
VERTEX
  8
0
  5
A13B
 10
0.150000
 20
86.5178
 30
0.00000
  70
    32
  0
VERTEX
  8
0
  5
A13C
 10
0.150000
 20
86.5103
 30
0.00000
  70
    32
  0
VERTEX
  8
0
  5
A13D
 10
0.150000
 20
86.5028
 30
0.00000
  70
    32
  0
VERTEX
  8
0
  5
A13E
 10
0.150000
 20
86.4953
 30
0.00000
  70
    32
  0
VERTEX
  8
0
  5
A13F
 10
0.150000
 20
86.4879
 30
0.00000
  70
    32
  0
VERTEX
  8
0
  5
A140
 10
0.150000
 20
86.4804
 30
0.00000
  70
    32
  0
VERTEX
  8
0
  5
A141
 10
0.150000
 20
86.4729
 30
0.00000
  70
    32
  0
VERTEX
  8
0
  5
A142
 10
0.150000
 20
86.4654
 30
0.00000
  70
    32
  0
VERTEX
  8
0
  5
A143
 10
0.150000
 20
86.4580
 30
0.00000
  70
    32
  0
VERTEX
  8
0
  5
A144
 10
0.150000
 20
86.4505
 30
0.00000
  70
    32
  0
VERTEX
  8
0
  5
A145
 10
0.150000
 20
86.4430
 30
0.00000
  70
    32
  0
VERTEX
  8
0
  5
A146
 10
0.150000
 20
86.4356
 30
0.00000
  70
    32
  0
VERTEX
  8
0
  5
A147
 10
0.150000
 20
86.4281
 30
0.00000
  70
    32
  0
VERTEX
  8
0
  5
A148
 10
0.150000
 20
86.4206
 30
0.00000
  70
    32
  0
VERTEX
  8
0
  5
A149
 10
0.150000
 20
86.4132
 30
0.00000
  70
    32
  0
VERTEX
  8
0
  5
A14A
 10
0.150000
 20
86.4057
 30
0.00000
  70
    32
  0
VERTEX
  8
0
  5
A14B
 10
0.150000
 20
86.3983
 30
0.00000
  70
    32
  0
VERTEX
  8
0
  5
A14C
 10
0.150000
 20
86.3908
 30
0.00000
  70
    32
  0
VERTEX
  8
0
  5
A14D
 10
0.150000
 20
86.3834
 30
0.00000
  70
    32
  0
VERTEX
  8
0
  5
A14E
 10
0.150000
 20
86.3760
 30
0.00000
  70
    32
  0
VERTEX
  8
0
  5
A14F
 10
0.150000
 20
86.3685
 30
0.00000
  70
    32
  0
VERTEX
  8
0
  5
A150
 10
0.150000
 20
86.3611
 30
0.00000
  70
    32
  0
VERTEX
  8
0
  5
A151
 10
0.150000
 20
86.3537
 30
0.00000
  70
    32
  0
VERTEX
  8
0
  5
A152
 10
0.150000
 20
86.3463
 30
0.00000
  70
    32
  0
VERTEX
  8
0
  5
A153
 10
0.150000
 20
86.3389
 30
0.00000
  70
    32
  0
VERTEX
  8
0
  5
A154
 10
0.150000
 20
86.3315
 30
0.00000
  70
    32
  0
VERTEX
  8
0
  5
A155
 10
0.150000
 20
86.3241
 30
0.00000
  70
    32
  0
VERTEX
  8
0
  5
A156
 10
0.150000
 20
86.3167
 30
0.00000
  70
    32
  0
VERTEX
  8
0
  5
A157
 10
0.150000
 20
86.3093
 30
0.00000
  70
    32
  0
VERTEX
  8
0
  5
A158
 10
0.150000
 20
86.3019
 30
0.00000
  70
    32
  0
VERTEX
  8
0
  5
A159
 10
0.150000
 20
86.2945
 30
0.00000
  70
    32
  0
VERTEX
  8
0
  5
A15A
 10
0.150000
 20
86.2872
 30
0.00000
  70
    32
  0
VERTEX
  8
0
  5
A15B
 10
0.150000
 20
86.2798
 30
0.00000
  70
    32
  0
VERTEX
  8
0
  5
A15C
 10
0.150000
 20
86.2725
 30
0.00000
  70
    32
  0
VERTEX
  8
0
  5
A15D
 10
0.150000
 20
86.2651
 30
0.00000
  70
    32
  0
VERTEX
  8
0
  5
A15E
 10
0.150000
 20
86.2578
 30
0.00000
  70
    32
  0
VERTEX
  8
0
  5
A15F
 10
0.150000
 20
86.2505
 30
0.00000
  70
    32
  0
VERTEX
  8
0
  5
A160
 10
0.150000
 20
86.2432
 30
0.00000
  70
    32
  0
VERTEX
  8
0
  5
A161
 10
0.150000
 20
86.2359
 30
0.00000
  70
    32
  0
VERTEX
  8
0
  5
A162
 10
0.150000
 20
86.2286
 30
0.00000
  70
    32
  0
VERTEX
  8
0
  5
A163
 10
0.150000
 20
86.2213
 30
0.00000
  70
    32
  0
VERTEX
  8
0
  5
A164
 10
0.150000
 20
86.2140
 30
0.00000
  70
    32
  0
VERTEX
  8
0
  5
A165
 10
0.150000
 20
86.2068
 30
0.00000
  70
    32
  0
VERTEX
  8
0
  5
A166
 10
0.150000
 20
86.1995
 30
0.00000
  70
    32
  0
VERTEX
  8
0
  5
A167
 10
0.150000
 20
86.1923
 30
0.00000
  70
    32
  0
VERTEX
  8
0
  5
A168
 10
0.150000
 20
86.1851
 30
0.00000
  70
    32
  0
VERTEX
  8
0
  5
A169
 10
0.150000
 20
86.1778
 30
0.00000
  70
    32
  0
VERTEX
  8
0
  5
A16A
 10
0.150000
 20
86.1706
 30
0.00000
  70
    32
  0
VERTEX
  8
0
  5
A16B
 10
0.150000
 20
86.1634
 30
0.00000
  70
    32
  0
VERTEX
  8
0
  5
A16C
 10
0.150000
 20
86.1562
 30
0.00000
  70
    32
  0
VERTEX
  8
0
  5
A16D
 10
0.150000
 20
86.1491
 30
0.00000
  70
    32
  0
VERTEX
  8
0
  5
A16E
 10
0.150000
 20
86.1419
 30
0.00000
  70
    32
  0
VERTEX
  8
0
  5
A16F
 10
0.150000
 20
86.1348
 30
0.00000
  70
    32
  0
VERTEX
  8
0
  5
A170
 10
0.150000
 20
86.1276
 30
0.00000
  70
    32
  0
VERTEX
  8
0
  5
A171
 10
0.150000
 20
86.1205
 30
0.00000
  70
    32
  0
VERTEX
  8
0
  5
A172
 10
0.150000
 20
86.1134
 30
0.00000
  70
    32
  0
VERTEX
  8
0
  5
A173
 10
0.150000
 20
86.1063
 30
0.00000
  70
    32
  0
VERTEX
  8
0
  5
A174
 10
0.150000
 20
86.0992
 30
0.00000
  70
    32
  0
VERTEX
  8
0
  5
A175
 10
0.150000
 20
86.0922
 30
0.00000
  70
    32
  0
VERTEX
  8
0
  5
A176
 10
0.150000
 20
86.0851
 30
0.00000
  70
    32
  0
VERTEX
  8
0
  5
A177
 10
0.150000
 20
86.0781
 30
0.00000
  70
    32
  0
VERTEX
  8
0
  5
A178
 10
0.150000
 20
86.0711
 30
0.00000
  70
    32
  0
VERTEX
  8
0
  5
A179
 10
0.150000
 20
86.0641
 30
0.00000
  70
    32
  0
VERTEX
  8
0
  5
A17A
 10
0.150000
 20
86.0571
 30
0.00000
  70
    32
  0
VERTEX
  8
0
  5
A17B
 10
0.150000
 20
86.0501
 30
0.00000
  70
    32
  0
SEQEND
  8
0
  5
A17C
  0
POLYLINE
  8
0
  5
A17D
  62
3
  66
     1
 10
0.00000
 20
0.00000
 30
0.00000
  70
     8
  0
VERTEX
  8
0
  5
A17E
 10
-0.150000
 20
-88.1714
 30
0.00000
  70
    32
  0
VERTEX
  8
0
  5
A17F
 10
-0.150000
 20
-88.1665
 30
0.00000
  70
    32
  0
VERTEX
  8
0
  5
A180
 10
-0.150000
 20
-88.1616
 30
0.00000
  70
    32
  0
VERTEX
  8
0
  5
A181
 10
-0.150000
 20
-88.1566
 30
0.00000
  70
    32
  0
VERTEX
  8
0
  5
A182
 10
-0.150000
 20
-88.1516
 30
0.00000
  70
    32
  0
VERTEX
  8
0
  5
A183
 10
-0.150000
 20
-88.1465
 30
0.00000
  70
    32
  0
VERTEX
  8
0
  5
A184
 10
-0.150000
 20
-88.1415
 30
0.00000
  70
    32
  0
VERTEX
  8
0
  5
A185
 10
-0.150000
 20
-88.1364
 30
0.00000
  70
    32
  0
VERTEX
  8
0
  5
A186
 10
-0.150000
 20
-88.1313
 30
0.00000
  70
    32
  0
VERTEX
  8
0
  5
A187
 10
-0.150000
 20
-88.1262
 30
0.00000
  70
    32
  0
VERTEX
  8
0
  5
A188
 10
-0.150000
 20
-88.1211
 30
0.00000
  70
    32
  0
VERTEX
  8
0
  5
A189
 10
-0.150000
 20
-88.1159
 30
0.00000
  70
    32
  0
VERTEX
  8
0
  5
A18A
 10
-0.150000
 20
-88.1107
 30
0.00000
  70
    32
  0
VERTEX
  8
0
  5
A18B
 10
-0.150000
 20
-88.1055
 30
0.00000
  70
    32
  0
VERTEX
  8
0
  5
A18C
 10
-0.150000
 20
-88.1003
 30
0.00000
  70
    32
  0
VERTEX
  8
0
  5
A18D
 10
-0.150000
 20
-88.0950
 30
0.00000
  70
    32
  0
VERTEX
  8
0
  5
A18E
 10
-0.150000
 20
-88.0897
 30
0.00000
  70
    32
  0
VERTEX
  8
0
  5
A18F
 10
-0.150000
 20
-88.0845
 30
0.00000
  70
    32
  0
VERTEX
  8
0
  5
A190
 10
-0.150000
 20
-88.0791
 30
0.00000
  70
    32
  0
VERTEX
  8
0
  5
A191
 10
-0.150000
 20
-88.0738
 30
0.00000
  70
    32
  0
VERTEX
  8
0
  5
A192
 10
-0.150000
 20
-88.0685
 30
0.00000
  70
    32
  0
VERTEX
  8
0
  5
A193
 10
-0.150000
 20
-88.0631
 30
0.00000
  70
    32
  0
VERTEX
  8
0
  5
A194
 10
-0.150000
 20
-88.0577
 30
0.00000
  70
    32
  0
VERTEX
  8
0
  5
A195
 10
-0.150000
 20
-88.0523
 30
0.00000
  70
    32
  0
VERTEX
  8
0
  5
A196
 10
-0.150000
 20
-88.0468
 30
0.00000
  70
    32
  0
VERTEX
  8
0
  5
A197
 10
-0.150000
 20
-88.0414
 30
0.00000
  70
    32
  0
VERTEX
  8
0
  5
A198
 10
-0.150000
 20
-88.0359
 30
0.00000
  70
    32
  0
VERTEX
  8
0
  5
A199
 10
-0.150000
 20
-88.0304
 30
0.00000
  70
    32
  0
VERTEX
  8
0
  5
A19A
 10
-0.150000
 20
-88.0249
 30
0.00000
  70
    32
  0
VERTEX
  8
0
  5
A19B
 10
-0.150000
 20
-88.0194
 30
0.00000
  70
    32
  0
VERTEX
  8
0
  5
A19C
 10
-0.150000
 20
-88.0138
 30
0.00000
  70
    32
  0
VERTEX
  8
0
  5
A19D
 10
-0.150000
 20
-88.0082
 30
0.00000
  70
    32
  0
VERTEX
  8
0
  5
A19E
 10
-0.150000
 20
-88.0027
 30
0.00000
  70
    32
  0
VERTEX
  8
0
  5
A19F
 10
-0.150000
 20
-87.9970
 30
0.00000
  70
    32
  0
VERTEX
  8
0
  5
A1A0
 10
-0.150000
 20
-87.9914
 30
0.00000
  70
    32
  0
VERTEX
  8
0
  5
A1A1
 10
-0.150000
 20
-87.9858
 30
0.00000
  70
    32
  0
VERTEX
  8
0
  5
A1A2
 10
-0.150000
 20
-87.9801
 30
0.00000
  70
    32
  0
VERTEX
  8
0
  5
A1A3
 10
-0.150000
 20
-87.9744
 30
0.00000
  70
    32
  0
VERTEX
  8
0
  5
A1A4
 10
-0.150000
 20
-87.9687
 30
0.00000
  70
    32
  0
VERTEX
  8
0
  5
A1A5
 10
-0.150000
 20
-87.9630
 30
0.00000
  70
    32
  0
VERTEX
  8
0
  5
A1A6
 10
-0.150000
 20
-87.9573
 30
0.00000
  70
    32
  0
VERTEX
  8
0
  5
A1A7
 10
-0.150000
 20
-87.9515
 30
0.00000
  70
    32
  0
VERTEX
  8
0
  5
A1A8
 10
-0.150000
 20
-87.9458
 30
0.00000
  70
    32
  0
VERTEX
  8
0
  5
A1A9
 10
-0.150000
 20
-87.9400
 30
0.00000
  70
    32
  0
VERTEX
  8
0
  5
A1AA
 10
-0.150000
 20
-87.9342
 30
0.00000
  70
    32
  0
VERTEX
  8
0
  5
A1AB
 10
-0.150000
 20
-87.9283
 30
0.00000
  70
    32
  0
VERTEX
  8
0
  5
A1AC
 10
-0.150000
 20
-87.9225
 30
0.00000
  70
    32
  0
VERTEX
  8
0
  5
A1AD
 10
-0.150000
 20
-87.9167
 30
0.00000
  70
    32
  0
VERTEX
  8
0
  5
A1AE
 10
-0.150000
 20
-87.9108
 30
0.00000
  70
    32
  0
VERTEX
  8
0
  5
A1AF
 10
-0.150000
 20
-87.9049
 30
0.00000
  70
    32
  0
VERTEX
  8
0
  5
A1B0
 10
-0.150000
 20
-87.8990
 30
0.00000
  70
    32
  0
VERTEX
  8
0
  5
A1B1
 10
-0.150000
 20
-87.8931
 30
0.00000
  70
    32
  0
VERTEX
  8
0
  5
A1B2
 10
-0.150000
 20
-87.8871
 30
0.00000
  70
    32
  0
VERTEX
  8
0
  5
A1B3
 10
-0.150000
 20
-87.8812
 30
0.00000
  70
    32
  0
VERTEX
  8
0
  5
A1B4
 10
-0.150000
 20
-87.8752
 30
0.00000
  70
    32
  0
VERTEX
  8
0
  5
A1B5
 10
-0.150000
 20
-87.8693
 30
0.00000
  70
    32
  0
VERTEX
  8
0
  5
A1B6
 10
-0.150000
 20
-87.8633
 30
0.00000
  70
    32
  0
VERTEX
  8
0
  5
A1B7
 10
-0.150000
 20
-87.8572
 30
0.00000
  70
    32
  0
VERTEX
  8
0
  5
A1B8
 10
-0.150000
 20
-87.8512
 30
0.00000
  70
    32
  0
VERTEX
  8
0
  5
A1B9
 10
-0.150000
 20
-87.8452
 30
0.00000
  70
    32
  0
VERTEX
  8
0
  5
A1BA
 10
-0.150000
 20
-87.8391
 30
0.00000
  70
    32
  0
VERTEX
  8
0
  5
A1BB
 10
-0.150000
 20
-87.8331
 30
0.00000
  70
    32
  0
VERTEX
  8
0
  5
A1BC
 10
-0.150000
 20
-87.8270
 30
0.00000
  70
    32
  0
VERTEX
  8
0
  5
A1BD
 10
-0.150000
 20
-87.8209
 30
0.00000
  70
    32
  0
VERTEX
  8
0
  5
A1BE
 10
-0.150000
 20
-87.8148
 30
0.00000
  70
    32
  0
VERTEX
  8
0
  5
A1BF
 10
-0.150000
 20
-87.8087
 30
0.00000
  70
    32
  0
VERTEX
  8
0
  5
A1C0
 10
-0.150000
 20
-87.8025
 30
0.00000
  70
    32
  0
VERTEX
  8
0
  5
A1C1
 10
-0.150000
 20
-87.7964
 30
0.00000
  70
    32
  0
VERTEX
  8
0
  5
A1C2
 10
-0.150000
 20
-87.7902
 30
0.00000
  70
    32
  0
VERTEX
  8
0
  5
A1C3
 10
-0.150000
 20
-87.7840
 30
0.00000
  70
    32
  0
VERTEX
  8
0
  5
A1C4
 10
-0.150000
 20
-87.7778
 30
0.00000
  70
    32
  0
VERTEX
  8
0
  5
A1C5
 10
-0.150000
 20
-87.7716
 30
0.00000
  70
    32
  0
VERTEX
  8
0
  5
A1C6
 10
-0.150000
 20
-87.7654
 30
0.00000
  70
    32
  0
VERTEX
  8
0
  5
A1C7
 10
-0.150000
 20
-87.7592
 30
0.00000
  70
    32
  0
VERTEX
  8
0
  5
A1C8
 10
-0.150000
 20
-87.7529
 30
0.00000
  70
    32
  0
VERTEX
  8
0
  5
A1C9
 10
-0.150000
 20
-87.7467
 30
0.00000
  70
    32
  0
VERTEX
  8
0
  5
A1CA
 10
-0.150000
 20
-87.7404
 30
0.00000
  70
    32
  0
VERTEX
  8
0
  5
A1CB
 10
-0.150000
 20
-87.7342
 30
0.00000
  70
    32
  0
VERTEX
  8
0
  5
A1CC
 10
-0.150000
 20
-87.7279
 30
0.00000
  70
    32
  0
VERTEX
  8
0
  5
A1CD
 10
-0.150000
 20
-87.7216
 30
0.00000
  70
    32
  0
VERTEX
  8
0
  5
A1CE
 10
-0.150000
 20
-87.7153
 30
0.00000
  70
    32
  0
VERTEX
  8
0
  5
A1CF
 10
-0.150000
 20
-87.7089
 30
0.00000
  70
    32
  0
VERTEX
  8
0
  5
A1D0
 10
-0.150000
 20
-87.7026
 30
0.00000
  70
    32
  0
VERTEX
  8
0
  5
A1D1
 10
-0.150000
 20
-87.6963
 30
0.00000
  70
    32
  0
VERTEX
  8
0
  5
A1D2
 10
-0.150000
 20
-87.6899
 30
0.00000
  70
    32
  0
VERTEX
  8
0
  5
A1D3
 10
-0.150000
 20
-87.6835
 30
0.00000
  70
    32
  0
VERTEX
  8
0
  5
A1D4
 10
-0.150000
 20
-87.6772
 30
0.00000
  70
    32
  0
VERTEX
  8
0
  5
A1D5
 10
-0.150000
 20
-87.6708
 30
0.00000
  70
    32
  0
VERTEX
  8
0
  5
A1D6
 10
-0.150000
 20
-87.6644
 30
0.00000
  70
    32
  0
VERTEX
  8
0
  5
A1D7
 10
-0.150000
 20
-87.6580
 30
0.00000
  70
    32
  0
VERTEX
  8
0
  5
A1D8
 10
-0.150000
 20
-87.6516
 30
0.00000
  70
    32
  0
VERTEX
  8
0
  5
A1D9
 10
-0.150000
 20
-87.6452
 30
0.00000
  70
    32
  0
VERTEX
  8
0
  5
A1DA
 10
-0.150000
 20
-87.6387
 30
0.00000
  70
    32
  0
VERTEX
  8
0
  5
A1DB
 10
-0.150000
 20
-87.6323
 30
0.00000
  70
    32
  0
VERTEX
  8
0
  5
A1DC
 10
-0.150000
 20
-87.6258
 30
0.00000
  70
    32
  0
VERTEX
  8
0
  5
A1DD
 10
-0.150000
 20
-87.6194
 30
0.00000
  70
    32
  0
VERTEX
  8
0
  5
A1DE
 10
-0.150000
 20
-87.6129
 30
0.00000
  70
    32
  0
VERTEX
  8
0
  5
A1DF
 10
-0.150000
 20
-87.6065
 30
0.00000
  70
    32
  0
VERTEX
  8
0
  5
A1E0
 10
-0.150000
 20
-87.6000
 30
0.00000
  70
    32
  0
VERTEX
  8
0
  5
A1E1
 10
-0.150000
 20
-87.5935
 30
0.00000
  70
    32
  0
VERTEX
  8
0
  5
A1E2
 10
-0.150000
 20
-87.5870
 30
0.00000
  70
    32
  0
VERTEX
  8
0
  5
A1E3
 10
-0.150000
 20
-87.5805
 30
0.00000
  70
    32
  0
VERTEX
  8
0
  5
A1E4
 10
-0.150000
 20
-87.5740
 30
0.00000
  70
    32
  0
VERTEX
  8
0
  5
A1E5
 10
-0.150000
 20
-87.5675
 30
0.00000
  70
    32
  0
VERTEX
  8
0
  5
A1E6
 10
-0.150000
 20
-87.5610
 30
0.00000
  70
    32
  0
VERTEX
  8
0
  5
A1E7
 10
-0.150000
 20
-87.5545
 30
0.00000
  70
    32
  0
VERTEX
  8
0
  5
A1E8
 10
-0.150000
 20
-87.5480
 30
0.00000
  70
    32
  0
VERTEX
  8
0
  5
A1E9
 10
-0.150000
 20
-87.5414
 30
0.00000
  70
    32
  0
VERTEX
  8
0
  5
A1EA
 10
-0.150000
 20
-87.5349
 30
0.00000
  70
    32
  0
VERTEX
  8
0
  5
A1EB
 10
-0.150000
 20
-87.5284
 30
0.00000
  70
    32
  0
VERTEX
  8
0
  5
A1EC
 10
-0.150000
 20
-87.5218
 30
0.00000
  70
    32
  0
VERTEX
  8
0
  5
A1ED
 10
-0.150000
 20
-87.5153
 30
0.00000
  70
    32
  0
VERTEX
  8
0
  5
A1EE
 10
-0.150000
 20
-87.5087
 30
0.00000
  70
    32
  0
VERTEX
  8
0
  5
A1EF
 10
-0.150000
 20
-87.5022
 30
0.00000
  70
    32
  0
VERTEX
  8
0
  5
A1F0
 10
-0.150000
 20
-87.4956
 30
0.00000
  70
    32
  0
VERTEX
  8
0
  5
A1F1
 10
-0.150000
 20
-87.4891
 30
0.00000
  70
    32
  0
VERTEX
  8
0
  5
A1F2
 10
-0.150000
 20
-87.4825
 30
0.00000
  70
    32
  0
VERTEX
  8
0
  5
A1F3
 10
-0.150000
 20
-87.4759
 30
0.00000
  70
    32
  0
VERTEX
  8
0
  5
A1F4
 10
-0.150000
 20
-87.4694
 30
0.00000
  70
    32
  0
VERTEX
  8
0
  5
A1F5
 10
-0.150000
 20
-87.4628
 30
0.00000
  70
    32
  0
VERTEX
  8
0
  5
A1F6
 10
-0.150000
 20
-87.4562
 30
0.00000
  70
    32
  0
VERTEX
  8
0
  5
A1F7
 10
-0.150000
 20
-87.4497
 30
0.00000
  70
    32
  0
VERTEX
  8
0
  5
A1F8
 10
-0.150000
 20
-87.4431
 30
0.00000
  70
    32
  0
VERTEX
  8
0
  5
A1F9
 10
-0.150000
 20
-87.4365
 30
0.00000
  70
    32
  0
VERTEX
  8
0
  5
A1FA
 10
-0.150000
 20
-87.4300
 30
0.00000
  70
    32
  0
VERTEX
  8
0
  5
A1FB
 10
-0.150000
 20
-87.4234
 30
0.00000
  70
    32
  0
VERTEX
  8
0
  5
A1FC
 10
-0.150000
 20
-87.4168
 30
0.00000
  70
    32
  0
VERTEX
  8
0
  5
A1FD
 10
-0.150000
 20
-87.4102
 30
0.00000
  70
    32
  0
VERTEX
  8
0
  5
A1FE
 10
-0.150000
 20
-87.4037
 30
0.00000
  70
    32
  0
VERTEX
  8
0
  5
A1FF
 10
-0.150000
 20
-87.3971
 30
0.00000
  70
    32
  0
VERTEX
  8
0
  5
A200
 10
-0.150000
 20
-87.3905
 30
0.00000
  70
    32
  0
VERTEX
  8
0
  5
A201
 10
-0.150000
 20
-87.3839
 30
0.00000
  70
    32
  0
VERTEX
  8
0
  5
A202
 10
-0.150000
 20
-87.3774
 30
0.00000
  70
    32
  0
VERTEX
  8
0
  5
A203
 10
-0.150000
 20
-87.3708
 30
0.00000
  70
    32
  0
VERTEX
  8
0
  5
A204
 10
-0.150000
 20
-87.3642
 30
0.00000
  70
    32
  0
VERTEX
  8
0
  5
A205
 10
-0.150000
 20
-87.3577
 30
0.00000
  70
    32
  0
VERTEX
  8
0
  5
A206
 10
-0.150000
 20
-87.3511
 30
0.00000
  70
    32
  0
VERTEX
  8
0
  5
A207
 10
-0.150000
 20
-87.3446
 30
0.00000
  70
    32
  0
VERTEX
  8
0
  5
A208
 10
-0.150000
 20
-87.3380
 30
0.00000
  70
    32
  0
VERTEX
  8
0
  5
A209
 10
-0.150000
 20
-87.3315
 30
0.00000
  70
    32
  0
VERTEX
  8
0
  5
A20A
 10
-0.150000
 20
-87.3249
 30
0.00000
  70
    32
  0
VERTEX
  8
0
  5
A20B
 10
-0.150000
 20
-87.3184
 30
0.00000
  70
    32
  0
VERTEX
  8
0
  5
A20C
 10
-0.150000
 20
-87.3118
 30
0.00000
  70
    32
  0
VERTEX
  8
0
  5
A20D
 10
-0.150000
 20
-87.3053
 30
0.00000
  70
    32
  0
VERTEX
  8
0
  5
A20E
 10
-0.150000
 20
-87.2987
 30
0.00000
  70
    32
  0
VERTEX
  8
0
  5
A20F
 10
-0.150000
 20
-87.2922
 30
0.00000
  70
    32
  0
VERTEX
  8
0
  5
A210
 10
-0.150000
 20
-87.2857
 30
0.00000
  70
    32
  0
VERTEX
  8
0
  5
A211
 10
-0.150000
 20
-87.2792
 30
0.00000
  70
    32
  0
VERTEX
  8
0
  5
A212
 10
-0.150000
 20
-87.2726
 30
0.00000
  70
    32
  0
VERTEX
  8
0
  5
A213
 10
-0.150000
 20
-87.2661
 30
0.00000
  70
    32
  0
VERTEX
  8
0
  5
A214
 10
-0.150000
 20
-87.2596
 30
0.00000
  70
    32
  0
VERTEX
  8
0
  5
A215
 10
-0.150000
 20
-87.2531
 30
0.00000
  70
    32
  0
VERTEX
  8
0
  5
A216
 10
-0.150000
 20
-87.2466
 30
0.00000
  70
    32
  0
VERTEX
  8
0
  5
A217
 10
-0.150000
 20
-87.2402
 30
0.00000
  70
    32
  0
VERTEX
  8
0
  5
A218
 10
-0.150000
 20
-87.2337
 30
0.00000
  70
    32
  0
VERTEX
  8
0
  5
A219
 10
-0.150000
 20
-87.2272
 30
0.00000
  70
    32
  0
VERTEX
  8
0
  5
A21A
 10
-0.150000
 20
-87.2207
 30
0.00000
  70
    32
  0
VERTEX
  8
0
  5
A21B
 10
-0.150000
 20
-87.2143
 30
0.00000
  70
    32
  0
VERTEX
  8
0
  5
A21C
 10
-0.150000
 20
-87.2078
 30
0.00000
  70
    32
  0
VERTEX
  8
0
  5
A21D
 10
-0.150000
 20
-87.2014
 30
0.00000
  70
    32
  0
VERTEX
  8
0
  5
A21E
 10
-0.150000
 20
-87.1950
 30
0.00000
  70
    32
  0
VERTEX
  8
0
  5
A21F
 10
-0.150000
 20
-87.1885
 30
0.00000
  70
    32
  0
VERTEX
  8
0
  5
A220
 10
-0.150000
 20
-87.1820
 30
0.00000
  70
    32
  0
VERTEX
  8
0
  5
A221
 10
-0.150000
 20
-87.1755
 30
0.00000
  70
    32
  0
VERTEX
  8
0
  5
A222
 10
-0.150000
 20
-87.1690
 30
0.00000
  70
    32
  0
VERTEX
  8
0
  5
A223
 10
-0.150000
 20
-87.1625
 30
0.00000
  70
    32
  0
VERTEX
  8
0
  5
A224
 10
-0.150000
 20
-87.1559
 30
0.00000
  70
    32
  0
VERTEX
  8
0
  5
A225
 10
-0.150000
 20
-87.1493
 30
0.00000
  70
    32
  0
VERTEX
  8
0
  5
A226
 10
-0.150000
 20
-87.1427
 30
0.00000
  70
    32
  0
VERTEX
  8
0
  5
A227
 10
-0.150000
 20
-87.1361
 30
0.00000
  70
    32
  0
VERTEX
  8
0
  5
A228
 10
-0.150000
 20
-87.1295
 30
0.00000
  70
    32
  0
VERTEX
  8
0
  5
A229
 10
-0.150000
 20
-87.1228
 30
0.00000
  70
    32
  0
VERTEX
  8
0
  5
A22A
 10
-0.150000
 20
-87.1161
 30
0.00000
  70
    32
  0
VERTEX
  8
0
  5
A22B
 10
-0.150000
 20
-87.1095
 30
0.00000
  70
    32
  0
VERTEX
  8
0
  5
A22C
 10
-0.150000
 20
-87.1027
 30
0.00000
  70
    32
  0
VERTEX
  8
0
  5
A22D
 10
-0.150000
 20
-87.0960
 30
0.00000
  70
    32
  0
VERTEX
  8
0
  5
A22E
 10
-0.150000
 20
-87.0893
 30
0.00000
  70
    32
  0
VERTEX
  8
0
  5
A22F
 10
-0.150000
 20
-87.0825
 30
0.00000
  70
    32
  0
VERTEX
  8
0
  5
A230
 10
-0.150000
 20
-87.0757
 30
0.00000
  70
    32
  0
VERTEX
  8
0
  5
A231
 10
-0.150000
 20
-87.0689
 30
0.00000
  70
    32
  0
VERTEX
  8
0
  5
A232
 10
-0.150000
 20
-87.0621
 30
0.00000
  70
    32
  0
VERTEX
  8
0
  5
A233
 10
-0.150000
 20
-87.0553
 30
0.00000
  70
    32
  0
VERTEX
  8
0
  5
A234
 10
-0.150000
 20
-87.0484
 30
0.00000
  70
    32
  0
VERTEX
  8
0
  5
A235
 10
-0.150000
 20
-87.0415
 30
0.00000
  70
    32
  0
VERTEX
  8
0
  5
A236
 10
-0.150000
 20
-87.0346
 30
0.00000
  70
    32
  0
VERTEX
  8
0
  5
A237
 10
-0.150000
 20
-87.0277
 30
0.00000
  70
    32
  0
VERTEX
  8
0
  5
A238
 10
-0.150000
 20
-87.0208
 30
0.00000
  70
    32
  0
VERTEX
  8
0
  5
A239
 10
-0.150000
 20
-87.0139
 30
0.00000
  70
    32
  0
VERTEX
  8
0
  5
A23A
 10
-0.150000
 20
-87.0069
 30
0.00000
  70
    32
  0
VERTEX
  8
0
  5
A23B
 10
-0.150000
 20
-87.0000
 30
0.00000
  70
    32
  0
VERTEX
  8
0
  5
A23C
 10
-0.150000
 20
-86.9930
 30
0.00000
  70
    32
  0
VERTEX
  8
0
  5
A23D
 10
-0.150000
 20
-86.9860
 30
0.00000
  70
    32
  0
VERTEX
  8
0
  5
A23E
 10
-0.150000
 20
-86.9790
 30
0.00000
  70
    32
  0
VERTEX
  8
0
  5
A23F
 10
-0.150000
 20
-86.9720
 30
0.00000
  70
    32
  0
VERTEX
  8
0
  5
A240
 10
-0.150000
 20
-86.9649
 30
0.00000
  70
    32
  0
VERTEX
  8
0
  5
A241
 10
-0.150000
 20
-86.9579
 30
0.00000
  70
    32
  0
VERTEX
  8
0
  5
A242
 10
-0.150000
 20
-86.9508
 30
0.00000
  70
    32
  0
VERTEX
  8
0
  5
A243
 10
-0.150000
 20
-86.9438
 30
0.00000
  70
    32
  0
VERTEX
  8
0
  5
A244
 10
-0.150000
 20
-86.9367
 30
0.00000
  70
    32
  0
VERTEX
  8
0
  5
A245
 10
-0.150000
 20
-86.9296
 30
0.00000
  70
    32
  0
VERTEX
  8
0
  5
A246
 10
-0.150000
 20
-86.9224
 30
0.00000
  70
    32
  0
VERTEX
  8
0
  5
A247
 10
-0.150000
 20
-86.9153
 30
0.00000
  70
    32
  0
VERTEX
  8
0
  5
A248
 10
-0.150000
 20
-86.9082
 30
0.00000
  70
    32
  0
VERTEX
  8
0
  5
A249
 10
-0.150000
 20
-86.9010
 30
0.00000
  70
    32
  0
VERTEX
  8
0
  5
A24A
 10
-0.150000
 20
-86.8938
 30
0.00000
  70
    32
  0
VERTEX
  8
0
  5
A24B
 10
-0.150000
 20
-86.8867
 30
0.00000
  70
    32
  0
VERTEX
  8
0
  5
A24C
 10
-0.150000
 20
-86.8795
 30
0.00000
  70
    32
  0
VERTEX
  8
0
  5
A24D
 10
-0.150000
 20
-86.8723
 30
0.00000
  70
    32
  0
VERTEX
  8
0
  5
A24E
 10
-0.150000
 20
-86.8651
 30
0.00000
  70
    32
  0
VERTEX
  8
0
  5
A24F
 10
-0.150000
 20
-86.8579
 30
0.00000
  70
    32
  0
VERTEX
  8
0
  5
A250
 10
-0.150000
 20
-86.8506
 30
0.00000
  70
    32
  0
VERTEX
  8
0
  5
A251
 10
-0.150000
 20
-86.8434
 30
0.00000
  70
    32
  0
VERTEX
  8
0
  5
A252
 10
-0.150000
 20
-86.8361
 30
0.00000
  70
    32
  0
VERTEX
  8
0
  5
A253
 10
-0.150000
 20
-86.8289
 30
0.00000
  70
    32
  0
VERTEX
  8
0
  5
A254
 10
-0.150000
 20
-86.8216
 30
0.00000
  70
    32
  0
VERTEX
  8
0
  5
A255
 10
-0.150000
 20
-86.8143
 30
0.00000
  70
    32
  0
VERTEX
  8
0
  5
A256
 10
-0.150000
 20
-86.8070
 30
0.00000
  70
    32
  0
VERTEX
  8
0
  5
A257
 10
-0.150000
 20
-86.7997
 30
0.00000
  70
    32
  0
VERTEX
  8
0
  5
A258
 10
-0.150000
 20
-86.7924
 30
0.00000
  70
    32
  0
VERTEX
  8
0
  5
A259
 10
-0.150000
 20
-86.7851
 30
0.00000
  70
    32
  0
VERTEX
  8
0
  5
A25A
 10
-0.150000
 20
-86.7778
 30
0.00000
  70
    32
  0
VERTEX
  8
0
  5
A25B
 10
-0.150000
 20
-86.7704
 30
0.00000
  70
    32
  0
VERTEX
  8
0
  5
A25C
 10
-0.150000
 20
-86.7631
 30
0.00000
  70
    32
  0
VERTEX
  8
0
  5
A25D
 10
-0.150000
 20
-86.7557
 30
0.00000
  70
    32
  0
VERTEX
  8
0
  5
A25E
 10
-0.150000
 20
-86.7484
 30
0.00000
  70
    32
  0
VERTEX
  8
0
  5
A25F
 10
-0.150000
 20
-86.7410
 30
0.00000
  70
    32
  0
VERTEX
  8
0
  5
A260
 10
-0.150000
 20
-86.7336
 30
0.00000
  70
    32
  0
VERTEX
  8
0
  5
A261
 10
-0.150000
 20
-86.7263
 30
0.00000
  70
    32
  0
VERTEX
  8
0
  5
A262
 10
-0.150000
 20
-86.7189
 30
0.00000
  70
    32
  0
VERTEX
  8
0
  5
A263
 10
-0.150000
 20
-86.7115
 30
0.00000
  70
    32
  0
VERTEX
  8
0
  5
A264
 10
-0.150000
 20
-86.7041
 30
0.00000
  70
    32
  0
VERTEX
  8
0
  5
A265
 10
-0.150000
 20
-86.6967
 30
0.00000
  70
    32
  0
VERTEX
  8
0
  5
A266
 10
-0.150000
 20
-86.6893
 30
0.00000
  70
    32
  0
VERTEX
  8
0
  5
A267
 10
-0.150000
 20
-86.6819
 30
0.00000
  70
    32
  0
VERTEX
  8
0
  5
A268
 10
-0.150000
 20
-86.6744
 30
0.00000
  70
    32
  0
VERTEX
  8
0
  5
A269
 10
-0.150000
 20
-86.6670
 30
0.00000
  70
    32
  0
VERTEX
  8
0
  5
A26A
 10
-0.150000
 20
-86.6596
 30
0.00000
  70
    32
  0
VERTEX
  8
0
  5
A26B
 10
-0.150000
 20
-86.6521
 30
0.00000
  70
    32
  0
VERTEX
  8
0
  5
A26C
 10
-0.150000
 20
-86.6447
 30
0.00000
  70
    32
  0
VERTEX
  8
0
  5
A26D
 10
-0.150000
 20
-86.6373
 30
0.00000
  70
    32
  0
VERTEX
  8
0
  5
A26E
 10
-0.150000
 20
-86.6298
 30
0.00000
  70
    32
  0
VERTEX
  8
0
  5
A26F
 10
-0.150000
 20
-86.6224
 30
0.00000
  70
    32
  0
VERTEX
  8
0
  5
A270
 10
-0.150000
 20
-86.6149
 30
0.00000
  70
    32
  0
VERTEX
  8
0
  5
A271
 10
-0.150000
 20
-86.6074
 30
0.00000
  70
    32
  0
VERTEX
  8
0
  5
A272
 10
-0.150000
 20
-86.6000
 30
0.00000
  70
    32
  0
VERTEX
  8
0
  5
A273
 10
-0.150000
 20
-86.5925
 30
0.00000
  70
    32
  0
VERTEX
  8
0
  5
A274
 10
-0.150000
 20
-86.5850
 30
0.00000
  70
    32
  0
VERTEX
  8
0
  5
A275
 10
-0.150000
 20
-86.5776
 30
0.00000
  70
    32
  0
VERTEX
  8
0
  5
A276
 10
-0.150000
 20
-86.5701
 30
0.00000
  70
    32
  0
VERTEX
  8
0
  5
A277
 10
-0.150000
 20
-86.5626
 30
0.00000
  70
    32
  0
VERTEX
  8
0
  5
A278
 10
-0.150000
 20
-86.5552
 30
0.00000
  70
    32
  0
VERTEX
  8
0
  5
A279
 10
-0.150000
 20
-86.5477
 30
0.00000
  70
    32
  0
VERTEX
  8
0
  5
A27A
 10
-0.150000
 20
-86.5402
 30
0.00000
  70
    32
  0
VERTEX
  8
0
  5
A27B
 10
-0.150000
 20
-86.5327
 30
0.00000
  70
    32
  0
VERTEX
  8
0
  5
A27C
 10
-0.150000
 20
-86.5252
 30
0.00000
  70
    32
  0
VERTEX
  8
0
  5
A27D
 10
-0.150000
 20
-86.5178
 30
0.00000
  70
    32
  0
VERTEX
  8
0
  5
A27E
 10
-0.150000
 20
-86.5103
 30
0.00000
  70
    32
  0
VERTEX
  8
0
  5
A27F
 10
-0.150000
 20
-86.5028
 30
0.00000
  70
    32
  0
VERTEX
  8
0
  5
A280
 10
-0.150000
 20
-86.4953
 30
0.00000
  70
    32
  0
VERTEX
  8
0
  5
A281
 10
-0.150000
 20
-86.4879
 30
0.00000
  70
    32
  0
VERTEX
  8
0
  5
A282
 10
-0.150000
 20
-86.4804
 30
0.00000
  70
    32
  0
VERTEX
  8
0
  5
A283
 10
-0.150000
 20
-86.4729
 30
0.00000
  70
    32
  0
VERTEX
  8
0
  5
A284
 10
-0.150000
 20
-86.4654
 30
0.00000
  70
    32
  0
VERTEX
  8
0
  5
A285
 10
-0.150000
 20
-86.4580
 30
0.00000
  70
    32
  0
VERTEX
  8
0
  5
A286
 10
-0.150000
 20
-86.4505
 30
0.00000
  70
    32
  0
VERTEX
  8
0
  5
A287
 10
-0.150000
 20
-86.4430
 30
0.00000
  70
    32
  0
VERTEX
  8
0
  5
A288
 10
-0.150000
 20
-86.4356
 30
0.00000
  70
    32
  0
VERTEX
  8
0
  5
A289
 10
-0.150000
 20
-86.4281
 30
0.00000
  70
    32
  0
VERTEX
  8
0
  5
A28A
 10
-0.150000
 20
-86.4206
 30
0.00000
  70
    32
  0
VERTEX
  8
0
  5
A28B
 10
-0.150000
 20
-86.4132
 30
0.00000
  70
    32
  0
VERTEX
  8
0
  5
A28C
 10
-0.150000
 20
-86.4057
 30
0.00000
  70
    32
  0
VERTEX
  8
0
  5
A28D
 10
-0.150000
 20
-86.3983
 30
0.00000
  70
    32
  0
VERTEX
  8
0
  5
A28E
 10
-0.150000
 20
-86.3908
 30
0.00000
  70
    32
  0
VERTEX
  8
0
  5
A28F
 10
-0.150000
 20
-86.3834
 30
0.00000
  70
    32
  0
VERTEX
  8
0
  5
A290
 10
-0.150000
 20
-86.3760
 30
0.00000
  70
    32
  0
VERTEX
  8
0
  5
A291
 10
-0.150000
 20
-86.3685
 30
0.00000
  70
    32
  0
VERTEX
  8
0
  5
A292
 10
-0.150000
 20
-86.3611
 30
0.00000
  70
    32
  0
VERTEX
  8
0
  5
A293
 10
-0.150000
 20
-86.3537
 30
0.00000
  70
    32
  0
VERTEX
  8
0
  5
A294
 10
-0.150000
 20
-86.3463
 30
0.00000
  70
    32
  0
VERTEX
  8
0
  5
A295
 10
-0.150000
 20
-86.3389
 30
0.00000
  70
    32
  0
VERTEX
  8
0
  5
A296
 10
-0.150000
 20
-86.3315
 30
0.00000
  70
    32
  0
VERTEX
  8
0
  5
A297
 10
-0.150000
 20
-86.3241
 30
0.00000
  70
    32
  0
VERTEX
  8
0
  5
A298
 10
-0.150000
 20
-86.3167
 30
0.00000
  70
    32
  0
VERTEX
  8
0
  5
A299
 10
-0.150000
 20
-86.3093
 30
0.00000
  70
    32
  0
VERTEX
  8
0
  5
A29A
 10
-0.150000
 20
-86.3019
 30
0.00000
  70
    32
  0
VERTEX
  8
0
  5
A29B
 10
-0.150000
 20
-86.2945
 30
0.00000
  70
    32
  0
VERTEX
  8
0
  5
A29C
 10
-0.150000
 20
-86.2872
 30
0.00000
  70
    32
  0
VERTEX
  8
0
  5
A29D
 10
-0.150000
 20
-86.2798
 30
0.00000
  70
    32
  0
VERTEX
  8
0
  5
A29E
 10
-0.150000
 20
-86.2725
 30
0.00000
  70
    32
  0
VERTEX
  8
0
  5
A29F
 10
-0.150000
 20
-86.2651
 30
0.00000
  70
    32
  0
VERTEX
  8
0
  5
A2A0
 10
-0.150000
 20
-86.2578
 30
0.00000
  70
    32
  0
VERTEX
  8
0
  5
A2A1
 10
-0.150000
 20
-86.2505
 30
0.00000
  70
    32
  0
VERTEX
  8
0
  5
A2A2
 10
-0.150000
 20
-86.2432
 30
0.00000
  70
    32
  0
VERTEX
  8
0
  5
A2A3
 10
-0.150000
 20
-86.2359
 30
0.00000
  70
    32
  0
VERTEX
  8
0
  5
A2A4
 10
-0.150000
 20
-86.2286
 30
0.00000
  70
    32
  0
VERTEX
  8
0
  5
A2A5
 10
-0.150000
 20
-86.2213
 30
0.00000
  70
    32
  0
VERTEX
  8
0
  5
A2A6
 10
-0.150000
 20
-86.2140
 30
0.00000
  70
    32
  0
VERTEX
  8
0
  5
A2A7
 10
-0.150000
 20
-86.2068
 30
0.00000
  70
    32
  0
VERTEX
  8
0
  5
A2A8
 10
-0.150000
 20
-86.1995
 30
0.00000
  70
    32
  0
VERTEX
  8
0
  5
A2A9
 10
-0.150000
 20
-86.1923
 30
0.00000
  70
    32
  0
VERTEX
  8
0
  5
A2AA
 10
-0.150000
 20
-86.1851
 30
0.00000
  70
    32
  0
VERTEX
  8
0
  5
A2AB
 10
-0.150000
 20
-86.1778
 30
0.00000
  70
    32
  0
VERTEX
  8
0
  5
A2AC
 10
-0.150000
 20
-86.1706
 30
0.00000
  70
    32
  0
VERTEX
  8
0
  5
A2AD
 10
-0.150000
 20
-86.1634
 30
0.00000
  70
    32
  0
VERTEX
  8
0
  5
A2AE
 10
-0.150000
 20
-86.1562
 30
0.00000
  70
    32
  0
VERTEX
  8
0
  5
A2AF
 10
-0.150000
 20
-86.1491
 30
0.00000
  70
    32
  0
VERTEX
  8
0
  5
A2B0
 10
-0.150000
 20
-86.1419
 30
0.00000
  70
    32
  0
VERTEX
  8
0
  5
A2B1
 10
-0.150000
 20
-86.1348
 30
0.00000
  70
    32
  0
VERTEX
  8
0
  5
A2B2
 10
-0.150000
 20
-86.1276
 30
0.00000
  70
    32
  0
VERTEX
  8
0
  5
A2B3
 10
-0.150000
 20
-86.1205
 30
0.00000
  70
    32
  0
VERTEX
  8
0
  5
A2B4
 10
-0.150000
 20
-86.1134
 30
0.00000
  70
    32
  0
VERTEX
  8
0
  5
A2B5
 10
-0.150000
 20
-86.1063
 30
0.00000
  70
    32
  0
VERTEX
  8
0
  5
A2B6
 10
-0.150000
 20
-86.0992
 30
0.00000
  70
    32
  0
VERTEX
  8
0
  5
A2B7
 10
-0.150000
 20
-86.0922
 30
0.00000
  70
    32
  0
VERTEX
  8
0
  5
A2B8
 10
-0.150000
 20
-86.0851
 30
0.00000
  70
    32
  0
VERTEX
  8
0
  5
A2B9
 10
-0.150000
 20
-86.0781
 30
0.00000
  70
    32
  0
VERTEX
  8
0
  5
A2BA
 10
-0.150000
 20
-86.0711
 30
0.00000
  70
    32
  0
VERTEX
  8
0
  5
A2BB
 10
-0.150000
 20
-86.0641
 30
0.00000
  70
    32
  0
VERTEX
  8
0
  5
A2BC
 10
-0.150000
 20
-86.0571
 30
0.00000
  70
    32
  0
VERTEX
  8
0
  5
A2BD
 10
-0.150000
 20
-86.0501
 30
0.00000
  70
    32
  0
SEQEND
  8
0
  5
A2BE
  0
POLYLINE
  8
0
  5
A2BF
  62
3
  66
     1
 10
0.00000
 20
0.00000
 30
0.00000
  70
     8
  0
VERTEX
  8
0
  5
A2C0
 10
-0.150000
 20
86.0501
 30
0.00000
  70
    32
  0
VERTEX
  8
0
  5
A2C1
 10
-0.150000
 20
86.0571
 30
0.00000
  70
    32
  0
VERTEX
  8
0
  5
A2C2
 10
-0.150000
 20
86.0641
 30
0.00000
  70
    32
  0
VERTEX
  8
0
  5
A2C3
 10
-0.150000
 20
86.0711
 30
0.00000
  70
    32
  0
VERTEX
  8
0
  5
A2C4
 10
-0.150000
 20
86.0781
 30
0.00000
  70
    32
  0
VERTEX
  8
0
  5
A2C5
 10
-0.150000
 20
86.0851
 30
0.00000
  70
    32
  0
VERTEX
  8
0
  5
A2C6
 10
-0.150000
 20
86.0922
 30
0.00000
  70
    32
  0
VERTEX
  8
0
  5
A2C7
 10
-0.150000
 20
86.0992
 30
0.00000
  70
    32
  0
VERTEX
  8
0
  5
A2C8
 10
-0.150000
 20
86.1063
 30
0.00000
  70
    32
  0
VERTEX
  8
0
  5
A2C9
 10
-0.150000
 20
86.1134
 30
0.00000
  70
    32
  0
VERTEX
  8
0
  5
A2CA
 10
-0.150000
 20
86.1205
 30
0.00000
  70
    32
  0
VERTEX
  8
0
  5
A2CB
 10
-0.150000
 20
86.1276
 30
0.00000
  70
    32
  0
VERTEX
  8
0
  5
A2CC
 10
-0.150000
 20
86.1348
 30
0.00000
  70
    32
  0
VERTEX
  8
0
  5
A2CD
 10
-0.150000
 20
86.1419
 30
0.00000
  70
    32
  0
VERTEX
  8
0
  5
A2CE
 10
-0.150000
 20
86.1491
 30
0.00000
  70
    32
  0
VERTEX
  8
0
  5
A2CF
 10
-0.150000
 20
86.1562
 30
0.00000
  70
    32
  0
VERTEX
  8
0
  5
A2D0
 10
-0.150000
 20
86.1634
 30
0.00000
  70
    32
  0
VERTEX
  8
0
  5
A2D1
 10
-0.150000
 20
86.1706
 30
0.00000
  70
    32
  0
VERTEX
  8
0
  5
A2D2
 10
-0.150000
 20
86.1778
 30
0.00000
  70
    32
  0
VERTEX
  8
0
  5
A2D3
 10
-0.150000
 20
86.1851
 30
0.00000
  70
    32
  0
VERTEX
  8
0
  5
A2D4
 10
-0.150000
 20
86.1923
 30
0.00000
  70
    32
  0
VERTEX
  8
0
  5
A2D5
 10
-0.150000
 20
86.1995
 30
0.00000
  70
    32
  0
VERTEX
  8
0
  5
A2D6
 10
-0.150000
 20
86.2068
 30
0.00000
  70
    32
  0
VERTEX
  8
0
  5
A2D7
 10
-0.150000
 20
86.2140
 30
0.00000
  70
    32
  0
VERTEX
  8
0
  5
A2D8
 10
-0.150000
 20
86.2213
 30
0.00000
  70
    32
  0
VERTEX
  8
0
  5
A2D9
 10
-0.150000
 20
86.2286
 30
0.00000
  70
    32
  0
VERTEX
  8
0
  5
A2DA
 10
-0.150000
 20
86.2359
 30
0.00000
  70
    32
  0
VERTEX
  8
0
  5
A2DB
 10
-0.150000
 20
86.2432
 30
0.00000
  70
    32
  0
VERTEX
  8
0
  5
A2DC
 10
-0.150000
 20
86.2505
 30
0.00000
  70
    32
  0
VERTEX
  8
0
  5
A2DD
 10
-0.150000
 20
86.2578
 30
0.00000
  70
    32
  0
VERTEX
  8
0
  5
A2DE
 10
-0.150000
 20
86.2651
 30
0.00000
  70
    32
  0
VERTEX
  8
0
  5
A2DF
 10
-0.150000
 20
86.2725
 30
0.00000
  70
    32
  0
VERTEX
  8
0
  5
A2E0
 10
-0.150000
 20
86.2798
 30
0.00000
  70
    32
  0
VERTEX
  8
0
  5
A2E1
 10
-0.150000
 20
86.2872
 30
0.00000
  70
    32
  0
VERTEX
  8
0
  5
A2E2
 10
-0.150000
 20
86.2945
 30
0.00000
  70
    32
  0
VERTEX
  8
0
  5
A2E3
 10
-0.150000
 20
86.3019
 30
0.00000
  70
    32
  0
VERTEX
  8
0
  5
A2E4
 10
-0.150000
 20
86.3093
 30
0.00000
  70
    32
  0
VERTEX
  8
0
  5
A2E5
 10
-0.150000
 20
86.3167
 30
0.00000
  70
    32
  0
VERTEX
  8
0
  5
A2E6
 10
-0.150000
 20
86.3241
 30
0.00000
  70
    32
  0
VERTEX
  8
0
  5
A2E7
 10
-0.150000
 20
86.3315
 30
0.00000
  70
    32
  0
VERTEX
  8
0
  5
A2E8
 10
-0.150000
 20
86.3389
 30
0.00000
  70
    32
  0
VERTEX
  8
0
  5
A2E9
 10
-0.150000
 20
86.3463
 30
0.00000
  70
    32
  0
VERTEX
  8
0
  5
A2EA
 10
-0.150000
 20
86.3537
 30
0.00000
  70
    32
  0
VERTEX
  8
0
  5
A2EB
 10
-0.150000
 20
86.3611
 30
0.00000
  70
    32
  0
VERTEX
  8
0
  5
A2EC
 10
-0.150000
 20
86.3685
 30
0.00000
  70
    32
  0
VERTEX
  8
0
  5
A2ED
 10
-0.150000
 20
86.3760
 30
0.00000
  70
    32
  0
VERTEX
  8
0
  5
A2EE
 10
-0.150000
 20
86.3834
 30
0.00000
  70
    32
  0
VERTEX
  8
0
  5
A2EF
 10
-0.150000
 20
86.3908
 30
0.00000
  70
    32
  0
VERTEX
  8
0
  5
A2F0
 10
-0.150000
 20
86.3983
 30
0.00000
  70
    32
  0
VERTEX
  8
0
  5
A2F1
 10
-0.150000
 20
86.4057
 30
0.00000
  70
    32
  0
VERTEX
  8
0
  5
A2F2
 10
-0.150000
 20
86.4132
 30
0.00000
  70
    32
  0
VERTEX
  8
0
  5
A2F3
 10
-0.150000
 20
86.4206
 30
0.00000
  70
    32
  0
VERTEX
  8
0
  5
A2F4
 10
-0.150000
 20
86.4281
 30
0.00000
  70
    32
  0
VERTEX
  8
0
  5
A2F5
 10
-0.150000
 20
86.4356
 30
0.00000
  70
    32
  0
VERTEX
  8
0
  5
A2F6
 10
-0.150000
 20
86.4430
 30
0.00000
  70
    32
  0
VERTEX
  8
0
  5
A2F7
 10
-0.150000
 20
86.4505
 30
0.00000
  70
    32
  0
VERTEX
  8
0
  5
A2F8
 10
-0.150000
 20
86.4580
 30
0.00000
  70
    32
  0
VERTEX
  8
0
  5
A2F9
 10
-0.150000
 20
86.4654
 30
0.00000
  70
    32
  0
VERTEX
  8
0
  5
A2FA
 10
-0.150000
 20
86.4729
 30
0.00000
  70
    32
  0
VERTEX
  8
0
  5
A2FB
 10
-0.150000
 20
86.4804
 30
0.00000
  70
    32
  0
VERTEX
  8
0
  5
A2FC
 10
-0.150000
 20
86.4879
 30
0.00000
  70
    32
  0
VERTEX
  8
0
  5
A2FD
 10
-0.150000
 20
86.4953
 30
0.00000
  70
    32
  0
VERTEX
  8
0
  5
A2FE
 10
-0.150000
 20
86.5028
 30
0.00000
  70
    32
  0
VERTEX
  8
0
  5
A2FF
 10
-0.150000
 20
86.5103
 30
0.00000
  70
    32
  0
VERTEX
  8
0
  5
A300
 10
-0.150000
 20
86.5178
 30
0.00000
  70
    32
  0
VERTEX
  8
0
  5
A301
 10
-0.150000
 20
86.5252
 30
0.00000
  70
    32
  0
VERTEX
  8
0
  5
A302
 10
-0.150000
 20
86.5327
 30
0.00000
  70
    32
  0
VERTEX
  8
0
  5
A303
 10
-0.150000
 20
86.5402
 30
0.00000
  70
    32
  0
VERTEX
  8
0
  5
A304
 10
-0.150000
 20
86.5477
 30
0.00000
  70
    32
  0
VERTEX
  8
0
  5
A305
 10
-0.150000
 20
86.5552
 30
0.00000
  70
    32
  0
VERTEX
  8
0
  5
A306
 10
-0.150000
 20
86.5626
 30
0.00000
  70
    32
  0
VERTEX
  8
0
  5
A307
 10
-0.150000
 20
86.5701
 30
0.00000
  70
    32
  0
VERTEX
  8
0
  5
A308
 10
-0.150000
 20
86.5776
 30
0.00000
  70
    32
  0
VERTEX
  8
0
  5
A309
 10
-0.150000
 20
86.5850
 30
0.00000
  70
    32
  0
VERTEX
  8
0
  5
A30A
 10
-0.150000
 20
86.5925
 30
0.00000
  70
    32
  0
VERTEX
  8
0
  5
A30B
 10
-0.150000
 20
86.6000
 30
0.00000
  70
    32
  0
VERTEX
  8
0
  5
A30C
 10
-0.150000
 20
86.6074
 30
0.00000
  70
    32
  0
VERTEX
  8
0
  5
A30D
 10
-0.150000
 20
86.6149
 30
0.00000
  70
    32
  0
VERTEX
  8
0
  5
A30E
 10
-0.150000
 20
86.6224
 30
0.00000
  70
    32
  0
VERTEX
  8
0
  5
A30F
 10
-0.150000
 20
86.6298
 30
0.00000
  70
    32
  0
VERTEX
  8
0
  5
A310
 10
-0.150000
 20
86.6373
 30
0.00000
  70
    32
  0
VERTEX
  8
0
  5
A311
 10
-0.150000
 20
86.6447
 30
0.00000
  70
    32
  0
VERTEX
  8
0
  5
A312
 10
-0.150000
 20
86.6521
 30
0.00000
  70
    32
  0
VERTEX
  8
0
  5
A313
 10
-0.150000
 20
86.6596
 30
0.00000
  70
    32
  0
VERTEX
  8
0
  5
A314
 10
-0.150000
 20
86.6670
 30
0.00000
  70
    32
  0
VERTEX
  8
0
  5
A315
 10
-0.150000
 20
86.6744
 30
0.00000
  70
    32
  0
VERTEX
  8
0
  5
A316
 10
-0.150000
 20
86.6819
 30
0.00000
  70
    32
  0
VERTEX
  8
0
  5
A317
 10
-0.150000
 20
86.6893
 30
0.00000
  70
    32
  0
VERTEX
  8
0
  5
A318
 10
-0.150000
 20
86.6967
 30
0.00000
  70
    32
  0
VERTEX
  8
0
  5
A319
 10
-0.150000
 20
86.7041
 30
0.00000
  70
    32
  0
VERTEX
  8
0
  5
A31A
 10
-0.150000
 20
86.7115
 30
0.00000
  70
    32
  0
VERTEX
  8
0
  5
A31B
 10
-0.150000
 20
86.7189
 30
0.00000
  70
    32
  0
VERTEX
  8
0
  5
A31C
 10
-0.150000
 20
86.7263
 30
0.00000
  70
    32
  0
VERTEX
  8
0
  5
A31D
 10
-0.150000
 20
86.7336
 30
0.00000
  70
    32
  0
VERTEX
  8
0
  5
A31E
 10
-0.150000
 20
86.7410
 30
0.00000
  70
    32
  0
VERTEX
  8
0
  5
A31F
 10
-0.150000
 20
86.7484
 30
0.00000
  70
    32
  0
VERTEX
  8
0
  5
A320
 10
-0.150000
 20
86.7557
 30
0.00000
  70
    32
  0
VERTEX
  8
0
  5
A321
 10
-0.150000
 20
86.7631
 30
0.00000
  70
    32
  0
VERTEX
  8
0
  5
A322
 10
-0.150000
 20
86.7704
 30
0.00000
  70
    32
  0
VERTEX
  8
0
  5
A323
 10
-0.150000
 20
86.7778
 30
0.00000
  70
    32
  0
VERTEX
  8
0
  5
A324
 10
-0.150000
 20
86.7851
 30
0.00000
  70
    32
  0
VERTEX
  8
0
  5
A325
 10
-0.150000
 20
86.7924
 30
0.00000
  70
    32
  0
VERTEX
  8
0
  5
A326
 10
-0.150000
 20
86.7997
 30
0.00000
  70
    32
  0
VERTEX
  8
0
  5
A327
 10
-0.150000
 20
86.8070
 30
0.00000
  70
    32
  0
VERTEX
  8
0
  5
A328
 10
-0.150000
 20
86.8143
 30
0.00000
  70
    32
  0
VERTEX
  8
0
  5
A329
 10
-0.150000
 20
86.8216
 30
0.00000
  70
    32
  0
VERTEX
  8
0
  5
A32A
 10
-0.150000
 20
86.8289
 30
0.00000
  70
    32
  0
VERTEX
  8
0
  5
A32B
 10
-0.150000
 20
86.8361
 30
0.00000
  70
    32
  0
VERTEX
  8
0
  5
A32C
 10
-0.150000
 20
86.8434
 30
0.00000
  70
    32
  0
VERTEX
  8
0
  5
A32D
 10
-0.150000
 20
86.8506
 30
0.00000
  70
    32
  0
VERTEX
  8
0
  5
A32E
 10
-0.150000
 20
86.8579
 30
0.00000
  70
    32
  0
VERTEX
  8
0
  5
A32F
 10
-0.150000
 20
86.8651
 30
0.00000
  70
    32
  0
VERTEX
  8
0
  5
A330
 10
-0.150000
 20
86.8723
 30
0.00000
  70
    32
  0
VERTEX
  8
0
  5
A331
 10
-0.150000
 20
86.8795
 30
0.00000
  70
    32
  0
VERTEX
  8
0
  5
A332
 10
-0.150000
 20
86.8867
 30
0.00000
  70
    32
  0
VERTEX
  8
0
  5
A333
 10
-0.150000
 20
86.8938
 30
0.00000
  70
    32
  0
VERTEX
  8
0
  5
A334
 10
-0.150000
 20
86.9010
 30
0.00000
  70
    32
  0
VERTEX
  8
0
  5
A335
 10
-0.150000
 20
86.9082
 30
0.00000
  70
    32
  0
VERTEX
  8
0
  5
A336
 10
-0.150000
 20
86.9153
 30
0.00000
  70
    32
  0
VERTEX
  8
0
  5
A337
 10
-0.150000
 20
86.9224
 30
0.00000
  70
    32
  0
VERTEX
  8
0
  5
A338
 10
-0.150000
 20
86.9296
 30
0.00000
  70
    32
  0
VERTEX
  8
0
  5
A339
 10
-0.150000
 20
86.9367
 30
0.00000
  70
    32
  0
VERTEX
  8
0
  5
A33A
 10
-0.150000
 20
86.9438
 30
0.00000
  70
    32
  0
VERTEX
  8
0
  5
A33B
 10
-0.150000
 20
86.9508
 30
0.00000
  70
    32
  0
VERTEX
  8
0
  5
A33C
 10
-0.150000
 20
86.9579
 30
0.00000
  70
    32
  0
VERTEX
  8
0
  5
A33D
 10
-0.150000
 20
86.9649
 30
0.00000
  70
    32
  0
VERTEX
  8
0
  5
A33E
 10
-0.150000
 20
86.9720
 30
0.00000
  70
    32
  0
VERTEX
  8
0
  5
A33F
 10
-0.150000
 20
86.9790
 30
0.00000
  70
    32
  0
VERTEX
  8
0
  5
A340
 10
-0.150000
 20
86.9860
 30
0.00000
  70
    32
  0
VERTEX
  8
0
  5
A341
 10
-0.150000
 20
86.9930
 30
0.00000
  70
    32
  0
VERTEX
  8
0
  5
A342
 10
-0.150000
 20
87.0000
 30
0.00000
  70
    32
  0
VERTEX
  8
0
  5
A343
 10
-0.150000
 20
87.0069
 30
0.00000
  70
    32
  0
VERTEX
  8
0
  5
A344
 10
-0.150000
 20
87.0139
 30
0.00000
  70
    32
  0
VERTEX
  8
0
  5
A345
 10
-0.150000
 20
87.0208
 30
0.00000
  70
    32
  0
VERTEX
  8
0
  5
A346
 10
-0.150000
 20
87.0277
 30
0.00000
  70
    32
  0
VERTEX
  8
0
  5
A347
 10
-0.150000
 20
87.0346
 30
0.00000
  70
    32
  0
VERTEX
  8
0
  5
A348
 10
-0.150000
 20
87.0415
 30
0.00000
  70
    32
  0
VERTEX
  8
0
  5
A349
 10
-0.150000
 20
87.0484
 30
0.00000
  70
    32
  0
VERTEX
  8
0
  5
A34A
 10
-0.150000
 20
87.0553
 30
0.00000
  70
    32
  0
VERTEX
  8
0
  5
A34B
 10
-0.150000
 20
87.0621
 30
0.00000
  70
    32
  0
VERTEX
  8
0
  5
A34C
 10
-0.150000
 20
87.0689
 30
0.00000
  70
    32
  0
VERTEX
  8
0
  5
A34D
 10
-0.150000
 20
87.0757
 30
0.00000
  70
    32
  0
VERTEX
  8
0
  5
A34E
 10
-0.150000
 20
87.0825
 30
0.00000
  70
    32
  0
VERTEX
  8
0
  5
A34F
 10
-0.150000
 20
87.0893
 30
0.00000
  70
    32
  0
VERTEX
  8
0
  5
A350
 10
-0.150000
 20
87.0960
 30
0.00000
  70
    32
  0
VERTEX
  8
0
  5
A351
 10
-0.150000
 20
87.1027
 30
0.00000
  70
    32
  0
VERTEX
  8
0
  5
A352
 10
-0.150000
 20
87.1095
 30
0.00000
  70
    32
  0
VERTEX
  8
0
  5
A353
 10
-0.150000
 20
87.1161
 30
0.00000
  70
    32
  0
VERTEX
  8
0
  5
A354
 10
-0.150000
 20
87.1228
 30
0.00000
  70
    32
  0
VERTEX
  8
0
  5
A355
 10
-0.150000
 20
87.1295
 30
0.00000
  70
    32
  0
VERTEX
  8
0
  5
A356
 10
-0.150000
 20
87.1361
 30
0.00000
  70
    32
  0
VERTEX
  8
0
  5
A357
 10
-0.150000
 20
87.1427
 30
0.00000
  70
    32
  0
VERTEX
  8
0
  5
A358
 10
-0.150000
 20
87.1493
 30
0.00000
  70
    32
  0
VERTEX
  8
0
  5
A359
 10
-0.150000
 20
87.1559
 30
0.00000
  70
    32
  0
VERTEX
  8
0
  5
A35A
 10
-0.150000
 20
87.1625
 30
0.00000
  70
    32
  0
VERTEX
  8
0
  5
A35B
 10
-0.150000
 20
87.1690
 30
0.00000
  70
    32
  0
VERTEX
  8
0
  5
A35C
 10
-0.150000
 20
87.1755
 30
0.00000
  70
    32
  0
VERTEX
  8
0
  5
A35D
 10
-0.150000
 20
87.1820
 30
0.00000
  70
    32
  0
VERTEX
  8
0
  5
A35E
 10
-0.150000
 20
87.1885
 30
0.00000
  70
    32
  0
VERTEX
  8
0
  5
A35F
 10
-0.150000
 20
87.1950
 30
0.00000
  70
    32
  0
VERTEX
  8
0
  5
A360
 10
-0.150000
 20
87.2014
 30
0.00000
  70
    32
  0
VERTEX
  8
0
  5
A361
 10
-0.150000
 20
87.2078
 30
0.00000
  70
    32
  0
VERTEX
  8
0
  5
A362
 10
-0.150000
 20
87.2143
 30
0.00000
  70
    32
  0
VERTEX
  8
0
  5
A363
 10
-0.150000
 20
87.2207
 30
0.00000
  70
    32
  0
VERTEX
  8
0
  5
A364
 10
-0.150000
 20
87.2272
 30
0.00000
  70
    32
  0
VERTEX
  8
0
  5
A365
 10
-0.150000
 20
87.2337
 30
0.00000
  70
    32
  0
VERTEX
  8
0
  5
A366
 10
-0.150000
 20
87.2402
 30
0.00000
  70
    32
  0
VERTEX
  8
0
  5
A367
 10
-0.150000
 20
87.2466
 30
0.00000
  70
    32
  0
VERTEX
  8
0
  5
A368
 10
-0.150000
 20
87.2531
 30
0.00000
  70
    32
  0
VERTEX
  8
0
  5
A369
 10
-0.150000
 20
87.2596
 30
0.00000
  70
    32
  0
VERTEX
  8
0
  5
A36A
 10
-0.150000
 20
87.2661
 30
0.00000
  70
    32
  0
VERTEX
  8
0
  5
A36B
 10
-0.150000
 20
87.2726
 30
0.00000
  70
    32
  0
VERTEX
  8
0
  5
A36C
 10
-0.150000
 20
87.2792
 30
0.00000
  70
    32
  0
VERTEX
  8
0
  5
A36D
 10
-0.150000
 20
87.2857
 30
0.00000
  70
    32
  0
VERTEX
  8
0
  5
A36E
 10
-0.150000
 20
87.2922
 30
0.00000
  70
    32
  0
VERTEX
  8
0
  5
A36F
 10
-0.150000
 20
87.2987
 30
0.00000
  70
    32
  0
VERTEX
  8
0
  5
A370
 10
-0.150000
 20
87.3053
 30
0.00000
  70
    32
  0
VERTEX
  8
0
  5
A371
 10
-0.150000
 20
87.3118
 30
0.00000
  70
    32
  0
VERTEX
  8
0
  5
A372
 10
-0.150000
 20
87.3184
 30
0.00000
  70
    32
  0
VERTEX
  8
0
  5
A373
 10
-0.150000
 20
87.3249
 30
0.00000
  70
    32
  0
VERTEX
  8
0
  5
A374
 10
-0.150000
 20
87.3315
 30
0.00000
  70
    32
  0
VERTEX
  8
0
  5
A375
 10
-0.150000
 20
87.3380
 30
0.00000
  70
    32
  0
VERTEX
  8
0
  5
A376
 10
-0.150000
 20
87.3446
 30
0.00000
  70
    32
  0
VERTEX
  8
0
  5
A377
 10
-0.150000
 20
87.3511
 30
0.00000
  70
    32
  0
VERTEX
  8
0
  5
A378
 10
-0.150000
 20
87.3577
 30
0.00000
  70
    32
  0
VERTEX
  8
0
  5
A379
 10
-0.150000
 20
87.3642
 30
0.00000
  70
    32
  0
VERTEX
  8
0
  5
A37A
 10
-0.150000
 20
87.3708
 30
0.00000
  70
    32
  0
VERTEX
  8
0
  5
A37B
 10
-0.150000
 20
87.3774
 30
0.00000
  70
    32
  0
VERTEX
  8
0
  5
A37C
 10
-0.150000
 20
87.3839
 30
0.00000
  70
    32
  0
VERTEX
  8
0
  5
A37D
 10
-0.150000
 20
87.3905
 30
0.00000
  70
    32
  0
VERTEX
  8
0
  5
A37E
 10
-0.150000
 20
87.3971
 30
0.00000
  70
    32
  0
VERTEX
  8
0
  5
A37F
 10
-0.150000
 20
87.4037
 30
0.00000
  70
    32
  0
VERTEX
  8
0
  5
A380
 10
-0.150000
 20
87.4102
 30
0.00000
  70
    32
  0
VERTEX
  8
0
  5
A381
 10
-0.150000
 20
87.4168
 30
0.00000
  70
    32
  0
VERTEX
  8
0
  5
A382
 10
-0.150000
 20
87.4234
 30
0.00000
  70
    32
  0
VERTEX
  8
0
  5
A383
 10
-0.150000
 20
87.4300
 30
0.00000
  70
    32
  0
VERTEX
  8
0
  5
A384
 10
-0.150000
 20
87.4365
 30
0.00000
  70
    32
  0
VERTEX
  8
0
  5
A385
 10
-0.150000
 20
87.4431
 30
0.00000
  70
    32
  0
VERTEX
  8
0
  5
A386
 10
-0.150000
 20
87.4497
 30
0.00000
  70
    32
  0
VERTEX
  8
0
  5
A387
 10
-0.150000
 20
87.4562
 30
0.00000
  70
    32
  0
VERTEX
  8
0
  5
A388
 10
-0.150000
 20
87.4628
 30
0.00000
  70
    32
  0
VERTEX
  8
0
  5
A389
 10
-0.150000
 20
87.4694
 30
0.00000
  70
    32
  0
VERTEX
  8
0
  5
A38A
 10
-0.150000
 20
87.4759
 30
0.00000
  70
    32
  0
VERTEX
  8
0
  5
A38B
 10
-0.150000
 20
87.4825
 30
0.00000
  70
    32
  0
VERTEX
  8
0
  5
A38C
 10
-0.150000
 20
87.4891
 30
0.00000
  70
    32
  0
VERTEX
  8
0
  5
A38D
 10
-0.150000
 20
87.4956
 30
0.00000
  70
    32
  0
VERTEX
  8
0
  5
A38E
 10
-0.150000
 20
87.5022
 30
0.00000
  70
    32
  0
VERTEX
  8
0
  5
A38F
 10
-0.150000
 20
87.5087
 30
0.00000
  70
    32
  0
VERTEX
  8
0
  5
A390
 10
-0.150000
 20
87.5153
 30
0.00000
  70
    32
  0
VERTEX
  8
0
  5
A391
 10
-0.150000
 20
87.5218
 30
0.00000
  70
    32
  0
VERTEX
  8
0
  5
A392
 10
-0.150000
 20
87.5284
 30
0.00000
  70
    32
  0
VERTEX
  8
0
  5
A393
 10
-0.150000
 20
87.5349
 30
0.00000
  70
    32
  0
VERTEX
  8
0
  5
A394
 10
-0.150000
 20
87.5414
 30
0.00000
  70
    32
  0
VERTEX
  8
0
  5
A395
 10
-0.150000
 20
87.5480
 30
0.00000
  70
    32
  0
VERTEX
  8
0
  5
A396
 10
-0.150000
 20
87.5545
 30
0.00000
  70
    32
  0
VERTEX
  8
0
  5
A397
 10
-0.150000
 20
87.5610
 30
0.00000
  70
    32
  0
VERTEX
  8
0
  5
A398
 10
-0.150000
 20
87.5675
 30
0.00000
  70
    32
  0
VERTEX
  8
0
  5
A399
 10
-0.150000
 20
87.5740
 30
0.00000
  70
    32
  0
VERTEX
  8
0
  5
A39A
 10
-0.150000
 20
87.5805
 30
0.00000
  70
    32
  0
VERTEX
  8
0
  5
A39B
 10
-0.150000
 20
87.5870
 30
0.00000
  70
    32
  0
VERTEX
  8
0
  5
A39C
 10
-0.150000
 20
87.5935
 30
0.00000
  70
    32
  0
VERTEX
  8
0
  5
A39D
 10
-0.150000
 20
87.6000
 30
0.00000
  70
    32
  0
VERTEX
  8
0
  5
A39E
 10
-0.150000
 20
87.6065
 30
0.00000
  70
    32
  0
VERTEX
  8
0
  5
A39F
 10
-0.150000
 20
87.6129
 30
0.00000
  70
    32
  0
VERTEX
  8
0
  5
A3A0
 10
-0.150000
 20
87.6194
 30
0.00000
  70
    32
  0
VERTEX
  8
0
  5
A3A1
 10
-0.150000
 20
87.6258
 30
0.00000
  70
    32
  0
VERTEX
  8
0
  5
A3A2
 10
-0.150000
 20
87.6323
 30
0.00000
  70
    32
  0
VERTEX
  8
0
  5
A3A3
 10
-0.150000
 20
87.6387
 30
0.00000
  70
    32
  0
VERTEX
  8
0
  5
A3A4
 10
-0.150000
 20
87.6452
 30
0.00000
  70
    32
  0
VERTEX
  8
0
  5
A3A5
 10
-0.150000
 20
87.6516
 30
0.00000
  70
    32
  0
VERTEX
  8
0
  5
A3A6
 10
-0.150000
 20
87.6580
 30
0.00000
  70
    32
  0
VERTEX
  8
0
  5
A3A7
 10
-0.150000
 20
87.6644
 30
0.00000
  70
    32
  0
VERTEX
  8
0
  5
A3A8
 10
-0.150000
 20
87.6708
 30
0.00000
  70
    32
  0
VERTEX
  8
0
  5
A3A9
 10
-0.150000
 20
87.6772
 30
0.00000
  70
    32
  0
VERTEX
  8
0
  5
A3AA
 10
-0.150000
 20
87.6835
 30
0.00000
  70
    32
  0
VERTEX
  8
0
  5
A3AB
 10
-0.150000
 20
87.6899
 30
0.00000
  70
    32
  0
VERTEX
  8
0
  5
A3AC
 10
-0.150000
 20
87.6963
 30
0.00000
  70
    32
  0
VERTEX
  8
0
  5
A3AD
 10
-0.150000
 20
87.7026
 30
0.00000
  70
    32
  0
VERTEX
  8
0
  5
A3AE
 10
-0.150000
 20
87.7089
 30
0.00000
  70
    32
  0
VERTEX
  8
0
  5
A3AF
 10
-0.150000
 20
87.7153
 30
0.00000
  70
    32
  0
VERTEX
  8
0
  5
A3B0
 10
-0.150000
 20
87.7216
 30
0.00000
  70
    32
  0
VERTEX
  8
0
  5
A3B1
 10
-0.150000
 20
87.7279
 30
0.00000
  70
    32
  0
VERTEX
  8
0
  5
A3B2
 10
-0.150000
 20
87.7342
 30
0.00000
  70
    32
  0
VERTEX
  8
0
  5
A3B3
 10
-0.150000
 20
87.7404
 30
0.00000
  70
    32
  0
VERTEX
  8
0
  5
A3B4
 10
-0.150000
 20
87.7467
 30
0.00000
  70
    32
  0
VERTEX
  8
0
  5
A3B5
 10
-0.150000
 20
87.7529
 30
0.00000
  70
    32
  0
VERTEX
  8
0
  5
A3B6
 10
-0.150000
 20
87.7592
 30
0.00000
  70
    32
  0
VERTEX
  8
0
  5
A3B7
 10
-0.150000
 20
87.7654
 30
0.00000
  70
    32
  0
VERTEX
  8
0
  5
A3B8
 10
-0.150000
 20
87.7716
 30
0.00000
  70
    32
  0
VERTEX
  8
0
  5
A3B9
 10
-0.150000
 20
87.7778
 30
0.00000
  70
    32
  0
VERTEX
  8
0
  5
A3BA
 10
-0.150000
 20
87.7840
 30
0.00000
  70
    32
  0
VERTEX
  8
0
  5
A3BB
 10
-0.150000
 20
87.7902
 30
0.00000
  70
    32
  0
VERTEX
  8
0
  5
A3BC
 10
-0.150000
 20
87.7964
 30
0.00000
  70
    32
  0
VERTEX
  8
0
  5
A3BD
 10
-0.150000
 20
87.8025
 30
0.00000
  70
    32
  0
VERTEX
  8
0
  5
A3BE
 10
-0.150000
 20
87.8087
 30
0.00000
  70
    32
  0
VERTEX
  8
0
  5
A3BF
 10
-0.150000
 20
87.8148
 30
0.00000
  70
    32
  0
VERTEX
  8
0
  5
A3C0
 10
-0.150000
 20
87.8209
 30
0.00000
  70
    32
  0
VERTEX
  8
0
  5
A3C1
 10
-0.150000
 20
87.8270
 30
0.00000
  70
    32
  0
VERTEX
  8
0
  5
A3C2
 10
-0.150000
 20
87.8331
 30
0.00000
  70
    32
  0
VERTEX
  8
0
  5
A3C3
 10
-0.150000
 20
87.8391
 30
0.00000
  70
    32
  0
VERTEX
  8
0
  5
A3C4
 10
-0.150000
 20
87.8452
 30
0.00000
  70
    32
  0
VERTEX
  8
0
  5
A3C5
 10
-0.150000
 20
87.8512
 30
0.00000
  70
    32
  0
VERTEX
  8
0
  5
A3C6
 10
-0.150000
 20
87.8572
 30
0.00000
  70
    32
  0
VERTEX
  8
0
  5
A3C7
 10
-0.150000
 20
87.8633
 30
0.00000
  70
    32
  0
VERTEX
  8
0
  5
A3C8
 10
-0.150000
 20
87.8693
 30
0.00000
  70
    32
  0
VERTEX
  8
0
  5
A3C9
 10
-0.150000
 20
87.8752
 30
0.00000
  70
    32
  0
VERTEX
  8
0
  5
A3CA
 10
-0.150000
 20
87.8812
 30
0.00000
  70
    32
  0
VERTEX
  8
0
  5
A3CB
 10
-0.150000
 20
87.8871
 30
0.00000
  70
    32
  0
VERTEX
  8
0
  5
A3CC
 10
-0.150000
 20
87.8931
 30
0.00000
  70
    32
  0
VERTEX
  8
0
  5
A3CD
 10
-0.150000
 20
87.8990
 30
0.00000
  70
    32
  0
VERTEX
  8
0
  5
A3CE
 10
-0.150000
 20
87.9049
 30
0.00000
  70
    32
  0
VERTEX
  8
0
  5
A3CF
 10
-0.150000
 20
87.9108
 30
0.00000
  70
    32
  0
VERTEX
  8
0
  5
A3D0
 10
-0.150000
 20
87.9167
 30
0.00000
  70
    32
  0
VERTEX
  8
0
  5
A3D1
 10
-0.150000
 20
87.9225
 30
0.00000
  70
    32
  0
VERTEX
  8
0
  5
A3D2
 10
-0.150000
 20
87.9283
 30
0.00000
  70
    32
  0
VERTEX
  8
0
  5
A3D3
 10
-0.150000
 20
87.9342
 30
0.00000
  70
    32
  0
VERTEX
  8
0
  5
A3D4
 10
-0.150000
 20
87.9400
 30
0.00000
  70
    32
  0
VERTEX
  8
0
  5
A3D5
 10
-0.150000
 20
87.9458
 30
0.00000
  70
    32
  0
VERTEX
  8
0
  5
A3D6
 10
-0.150000
 20
87.9515
 30
0.00000
  70
    32
  0
VERTEX
  8
0
  5
A3D7
 10
-0.150000
 20
87.9573
 30
0.00000
  70
    32
  0
VERTEX
  8
0
  5
A3D8
 10
-0.150000
 20
87.9630
 30
0.00000
  70
    32
  0
VERTEX
  8
0
  5
A3D9
 10
-0.150000
 20
87.9687
 30
0.00000
  70
    32
  0
VERTEX
  8
0
  5
A3DA
 10
-0.150000
 20
87.9744
 30
0.00000
  70
    32
  0
VERTEX
  8
0
  5
A3DB
 10
-0.150000
 20
87.9801
 30
0.00000
  70
    32
  0
VERTEX
  8
0
  5
A3DC
 10
-0.150000
 20
87.9858
 30
0.00000
  70
    32
  0
VERTEX
  8
0
  5
A3DD
 10
-0.150000
 20
87.9914
 30
0.00000
  70
    32
  0
VERTEX
  8
0
  5
A3DE
 10
-0.150000
 20
87.9970
 30
0.00000
  70
    32
  0
VERTEX
  8
0
  5
A3DF
 10
-0.150000
 20
88.0027
 30
0.00000
  70
    32
  0
VERTEX
  8
0
  5
A3E0
 10
-0.150000
 20
88.0082
 30
0.00000
  70
    32
  0
VERTEX
  8
0
  5
A3E1
 10
-0.150000
 20
88.0138
 30
0.00000
  70
    32
  0
VERTEX
  8
0
  5
A3E2
 10
-0.150000
 20
88.0194
 30
0.00000
  70
    32
  0
VERTEX
  8
0
  5
A3E3
 10
-0.150000
 20
88.0249
 30
0.00000
  70
    32
  0
VERTEX
  8
0
  5
A3E4
 10
-0.150000
 20
88.0304
 30
0.00000
  70
    32
  0
VERTEX
  8
0
  5
A3E5
 10
-0.150000
 20
88.0359
 30
0.00000
  70
    32
  0
VERTEX
  8
0
  5
A3E6
 10
-0.150000
 20
88.0414
 30
0.00000
  70
    32
  0
VERTEX
  8
0
  5
A3E7
 10
-0.150000
 20
88.0468
 30
0.00000
  70
    32
  0
VERTEX
  8
0
  5
A3E8
 10
-0.150000
 20
88.0523
 30
0.00000
  70
    32
  0
VERTEX
  8
0
  5
A3E9
 10
-0.150000
 20
88.0577
 30
0.00000
  70
    32
  0
VERTEX
  8
0
  5
A3EA
 10
-0.150000
 20
88.0631
 30
0.00000
  70
    32
  0
VERTEX
  8
0
  5
A3EB
 10
-0.150000
 20
88.0685
 30
0.00000
  70
    32
  0
VERTEX
  8
0
  5
A3EC
 10
-0.150000
 20
88.0738
 30
0.00000
  70
    32
  0
VERTEX
  8
0
  5
A3ED
 10
-0.150000
 20
88.0791
 30
0.00000
  70
    32
  0
VERTEX
  8
0
  5
A3EE
 10
-0.150000
 20
88.0845
 30
0.00000
  70
    32
  0
VERTEX
  8
0
  5
A3EF
 10
-0.150000
 20
88.0897
 30
0.00000
  70
    32
  0
VERTEX
  8
0
  5
A3F0
 10
-0.150000
 20
88.0950
 30
0.00000
  70
    32
  0
VERTEX
  8
0
  5
A3F1
 10
-0.150000
 20
88.1003
 30
0.00000
  70
    32
  0
VERTEX
  8
0
  5
A3F2
 10
-0.150000
 20
88.1055
 30
0.00000
  70
    32
  0
VERTEX
  8
0
  5
A3F3
 10
-0.150000
 20
88.1107
 30
0.00000
  70
    32
  0
VERTEX
  8
0
  5
A3F4
 10
-0.150000
 20
88.1159
 30
0.00000
  70
    32
  0
VERTEX
  8
0
  5
A3F5
 10
-0.150000
 20
88.1211
 30
0.00000
  70
    32
  0
VERTEX
  8
0
  5
A3F6
 10
-0.150000
 20
88.1262
 30
0.00000
  70
    32
  0
VERTEX
  8
0
  5
A3F7
 10
-0.150000
 20
88.1313
 30
0.00000
  70
    32
  0
VERTEX
  8
0
  5
A3F8
 10
-0.150000
 20
88.1364
 30
0.00000
  70
    32
  0
VERTEX
  8
0
  5
A3F9
 10
-0.150000
 20
88.1415
 30
0.00000
  70
    32
  0
VERTEX
  8
0
  5
A3FA
 10
-0.150000
 20
88.1465
 30
0.00000
  70
    32
  0
VERTEX
  8
0
  5
A3FB
 10
-0.150000
 20
88.1516
 30
0.00000
  70
    32
  0
VERTEX
  8
0
  5
A3FC
 10
-0.150000
 20
88.1566
 30
0.00000
  70
    32
  0
VERTEX
  8
0
  5
A3FD
 10
-0.150000
 20
88.1616
 30
0.00000
  70
    32
  0
VERTEX
  8
0
  5
A3FE
 10
-0.150000
 20
88.1665
 30
0.00000
  70
    32
  0
VERTEX
  8
0
  5
A3FF
 10
-0.150000
 20
88.1714
 30
0.00000
  70
    32
  0
SEQEND
  8
0
  5
A400
  0
LINE
  5
9E2D
  8
0
  6
CONTINUOUS
 62
     3
 10
-0.149999999999977
 20
-86.0501217940350358
 30
0.0
 11
-0.149999999999977
 21
-82.5
 31
0.0
  0
LINE
  5
9E2E
  8
0
  6
CONTINUOUS
 62
     3
 10
0.1499999999999775
 20
-82.5
 30
0.0
 11
-0.149999999999977
 21
-82.5
 31
-0.0000000000000001
  0
LINE
  5
9E2F
  8
0
  6
CONTINUOUS
 62
     3
 10
0.1499999999999775
 20
-82.5
 30
0.0
 11
0.1499999999999775
 21
-86.0501217940350358
 31
0.0
  0
LINE
  5
9E30
  8
0
  6
CONTINUOUS
 62
     3
 10
0.1499999999999775
 20
86.0501217940350358
 30
0.0
 11
0.1499999999999775
 21
82.5
 31
0.0
  0
LINE
  5
9E31
  8
0
  6
CONTINUOUS
 62
     3
 10
0.1499999999999775
 20
82.5
 30
0.0
 11
-0.149999999999977
 21
82.5
 31
-0.0000000000000001
  0
LINE
  5
9E32
  8
0
  6
CONTINUOUS
 62
     3
 10
-0.149999999999977
 20
82.5
 30
0.0
 11
-0.149999999999977
 21
86.0501217940350358
 31
0.0
  0
ARC
  5
9E33
  8
0
  6
CONTINUOUS
 62
     3
 10
0.0000000000000002
 20
0.0
 30
0.0
 40
31.9999999999999716
 50
90.2685749500245151
 51
269.7314250499754849
  0
LINE
  5
9E34
  8
0
  6
CONTINUOUS
 62
     3
 10
-0.149999999999977
 20
31.9996484355687905
 30
0.0
 11
-0.149999999999977
 21
58.8499999999999019
 31
0.0
  0
LINE
  5
9E35
  8
0
  6
CONTINUOUS
 62
     3
 10
-0.149999999999977
 20
58.8499999999999019
 30
0.0
 11
-4.0504237592494396
 21
58.8499999999999019
 31
-0.0000000000000009
  0
ARC
  5
9E36
  8
0
  6
CONTINUOUS
 62
     3
 10
-7.0
 20
60.9999999999998579
 30
-0.0000000000000016
 40
3.6499999999999919
 50
36.0889909470321584
 51
323.911009052970428
  0
LINE
  5
9E37
  8
0
  6
CONTINUOUS
 62
     3
 10
-4.0504237592494396
 20
63.1499999999999488
 30
-0.0000000000000009
 11
-0.1499999999999204
 21
63.1499999999999488
 31
0.0
  0
LINE
  5
9E38
  8
0
  6
CONTINUOUS
 62
     3
 10
-0.149999999999977
 20
63.1499999999999702
 30
0.0
 11
-0.149999999999977
 21
81.5
 31
0.0
  0
LINE
  5
9E39
  8
0
  6
CONTINUOUS
 62
     3
 10
-0.1499999999999202
 20
81.5
 30
0.0
 11
0.1500000000000343
 21
81.5
 31
0.0000000000000001
  0
LINE
  5
9E3A
  8
0
  6
CONTINUOUS
 62
     3
 10
0.1499999999999775
 20
81.5
 30
0.0
 11
0.1499999999999775
 21
62.8499999999999091
 31
0.0
  0
LINE
  5
9E3B
  8
0
  6
CONTINUOUS
 62
     3
 10
0.1499999999999775
 20
62.8499999999999091
 30
0.0
 11
-4.2071519912462341
 21
62.8499999999999091
 31
-0.000000000000001
  0
ARC
  5
9E3C
  8
0
  6
CONTINUOUS
 62
     3
 10
-6.9999999999999432
 20
60.9999999999998508
 30
-0.0000000000000016
 40
3.349999999999969
 50
33.5207403959993613
 51
326.4792596040036869
  0
LINE
  5
9E3D
  8
0
  6
CONTINUOUS
 62
     3
 10
-4.2071519912461213
 20
59.1499999999999773
 30
-0.0000000000000009
 11
0.1500000000000341
 21
59.1499999999999773
 31
0.0000000000000001
  0
LINE
  5
9E3E
  8
0
  6
CONTINUOUS
 62
     3
 10
0.1499999999999775
 20
59.1499999999999773
 30
0.0
 11
0.1499999999999775
 21
31.9996484355687905
 31
0.0
  0
ARC
  5
9E3F
  8
0
  6
CONTINUOUS
 62
     3
 10
0.0000000000000002
 20
0.0000000000000018
 30
0.0
 40
31.9999999999999716
 50
270.2685749500245151
 51
89.7314250499754991
  0
LINE
  5
9E40
  8
0
  6
CONTINUOUS
 62
     3
 10
0.1499999999999775
 20
-59.1499999999999773
 30
0.0
 11
0.1499999999999775
 21
-31.9996484355687905
 31
0.0
  0
LINE
  5
9E41
  8
0
  6
CONTINUOUS
 62
     3
 10
-4.2071519912461213
 20
-59.1499999999999773
 30
-0.0000000000000009
 11
0.1500000000000341
 21
-59.1499999999999773
 31
0.0000000000000001
  0
ARC
  5
9E42
  8
0
  6
CONTINUOUS
 62
     3
 10
-6.9999999999999432
 20
-60.9999999999998508
 30
-0.0000000000000016
 40
3.349999999999969
 50
33.5207403959962775
 51
326.4792596040006742
  0
LINE
  5
9E43
  8
0
  6
CONTINUOUS
 62
     3
 10
0.1499999999999775
 20
-62.8499999999999091
 30
0.0
 11
-4.2071519912462341
 21
-62.8499999999999091
 31
-0.000000000000001
  0
LINE
  5
9E44
  8
0
  6
CONTINUOUS
 62
     3
 10
0.1499999999999775
 20
-81.5
 30
0.0
 11
0.1499999999999775
 21
-62.8499999999999091
 31
0.0
  0
LINE
  5
9E45
  8
0
  6
CONTINUOUS
 62
     3
 10
-0.1499999999999202
 20
-81.5
 30
0.0
 11
0.1500000000000343
 21
-81.5
 31
0.0000000000000001
  0
LINE
  5
9E46
  8
0
  6
CONTINUOUS
 62
     3
 10
-0.149999999999977
 20
-63.1499999999999702
 30
0.0
 11
-0.149999999999977
 21
-81.5
 31
0.0
  0
LINE
  5
9E47
  8
0
  6
CONTINUOUS
 62
     3
 10
-4.0504237592494396
 20
-63.1499999999999488
 30
-0.0000000000000009
 11
-0.1499999999999204
 21
-63.1499999999999488
 31
0.0
  0
ARC
  5
9E48
  8
0
  6
CONTINUOUS
 62
     3
 10
-7.0
 20
-60.9999999999998579
 30
-0.0000000000000016
 40
3.6499999999999919
 50
36.088990947029572
 51
323.9110090529678132
  0
LINE
  5
9E49
  8
0
  6
CONTINUOUS
 62
     3
 10
-0.149999999999977
 20
-58.8499999999999019
 30
0.0
 11
-4.0504237592494396
 21
-58.8499999999999019
 31
-0.0000000000000009
  0
LINE
  5
9E4A
  8
0
  6
CONTINUOUS
 62
     3
 10
-0.149999999999977
 20
-31.9996484355687905
 30
0.0
 11
-0.149999999999977
 21
-58.8499999999999019
 31
0.0
  0
LINE
  5
9E4B
  8
0
  6
CONTINUOUS
 62
     3
 10
0.1499999999999779
 20
-89.2927672288542027
 30
0.0
 11
0.1499999999999777
 21
-89.9998749999127341
 31
0.0
  0
ARC
  5
9E4C
  8
0
  6
CONTINUOUS
 62
     3
 10
0.0000000000000005
 20
-0.0000000000000071
 30
0.0
 40
89.9999999999995453
 50
270.0954930100647857
 51
89.9045069899351148
  0
LINE
  5
9E4D
  8
0
  6
CONTINUOUS
 62
     3
 10
0.1499999999999777
 20
89.9998749999127341
 30
0.0
 11
0.1499999999999779
 21
89.2927672288542027
 31
0.0
  0
LINE
  5
9E4E
  8
0
  6
CONTINUOUS
 62
     3
 10
-0.1499999999999766
 20
89.2927672288542027
 30
0.0
 11
-0.1499999999999768
 21
89.9998749999127341
 31
0.0
  0
LINE
  5
9E4F
  8
0
  6
CONTINUOUS
 62
     3
 10
-0.1499999999999768
 20
-89.9998749999127341
 30
0.0
 11
-0.1499999999999766
 21
-89.2927672288542027
 31
0.0
  0
ARC
  5
9E50
  8
0
  6
CONTINUOUS
 62
     3
 10
0.0000000000000005
 20
0.0000000000000071
 30
0.0
 40
89.9999999999995453
 50
90.0954930100648994
 51
269.9045069899352143
  0
ENDBLK
  5
9E52
  8
0
  0
BLOCK
  8
0
  2
A$CABDEDDE8
 70
     0
 10
0.0
 20
0.0
 30
0.0
  3
A$CABDEDDE8
  1

  0
LINE
  5
9E56
  8
0
  6
CONTINUOUS
 62
     3
 10
0.149999999999986
 20
3.0000000000000919
 30
-0.0000000000000007
 11
89.292893218812992
 21
3.0000000000000719
 31
-0.0000000000000007
210
0.0
220
1.0
230
-0.0000000000000002
  0
LINE
  5
9E57
  8
0
  6
CONTINUOUS
 62
     3
 10
-89.2928932188130204
 20
3.0000000000000719
 30
-0.0000000000000007
 11
-0.1499999999999773
 21
3.0000000000000919
 31
-0.0000000000000007
210
0.0
220
1.0
230
-0.0000000000000002
  0
LINE
  5
9E58
  8
0
  6
CONTINUOUS
 62
     3
 10
0.1499999999999773
 20
1.0000000000000691
 30
-0.0000000000000002
 11
-0.1499999999999773
 21
1.0000000000000691
 31
-0.0000000000000002
210
0.0
220
1.0
230
-0.0000000000000002
  0
LINE
  5
9E59
  8
0
  6
CONTINUOUS
 62
     3
 10
0.1499999999999773
 20
3.0000000000000879
 30
-0.0000000000000007
 11
0.1499999999999773
 21
2.2928932188135649
 31
-0.0000000000000005
210
0.0
220
1.0
230
-0.0000000000000002
  0
LINE
  5
9E5A
  8
0
  6
CONTINUOUS
 62
     3
 10
0.1499999999999799
 20
2.292893218813568
 30
-0.0000000000000005
 11
89.9999999999995453
 21
2.292893218813548
 31
-0.0000000000000005
210
0.0
220
1.0
230
-0.0000000000000002
  0
LINE
  5
9E5B
  8
0
  6
CONTINUOUS
 62
     3
 10
0.1499999999999773
 20
2.2928932188135511
 30
-0.0000000000000005
 11
0.1499999999999773
 21
1.1715728752538159
 31
-0.0000000000000003
210
0.0
220
1.0
230
-0.0000000000000002
  0
POLYLINE
  8
0
  5
A401
  62
3
  66
     1
 10
0.00000
 20
0.00000
 30
0.00000
  70
     8
  0
VERTEX
  8
0
  5
A402
 10
0.150000
 20
1.17157
 30
-3.00000e-16
  70
    32
  0
VERTEX
  8
0
  5
A403
 10
0.150000
 20
1.16501
 30
-2.96285e-16
  70
    32
  0
VERTEX
  8
0
  5
A404
 10
0.150000
 20
1.15844
 30
-2.92663e-16
  70
    32
  0
VERTEX
  8
0
  5
A405
 10
0.150000
 20
1.15188
 30
-2.89131e-16
  70
    32
  0
VERTEX
  8
0
  5
A406
 10
0.150000
 20
1.14532
 30
-2.85689e-16
  70
    32
  0
VERTEX
  8
0
  5
A407
 10
0.150000
 20
1.13876
 30
-2.82333e-16
  70
    32
  0
VERTEX
  8
0
  5
A408
 10
0.150000
 20
1.13221
 30
-2.79064e-16
  70
    32
  0
VERTEX
  8
0
  5
A409
 10
0.150000
 20
1.12566
 30
-2.75878e-16
  70
    32
  0
VERTEX
  8
0
  5
A40A
 10
0.150000
 20
1.11911
 30
-2.72773e-16
  70
    32
  0
VERTEX
  8
0
  5
A40B
 10
0.150000
 20
1.11256
 30
-2.69749e-16
  70
    32
  0
VERTEX
  8
0
  5
A40C
 10
0.150000
 20
1.10602
 30
-2.66804e-16
  70
    32
  0
VERTEX
  8
0
  5
A40D
 10
0.150000
 20
1.09948
 30
-2.63935e-16
  70
    32
  0
VERTEX
  8
0
  5
A40E
 10
0.150000
 20
1.09294
 30
-2.61140e-16
  70
    32
  0
VERTEX
  8
0
  5
A40F
 10
0.150000
 20
1.08641
 30
-2.58419e-16
  70
    32
  0
VERTEX
  8
0
  5
A410
 10
0.150000
 20
1.07988
 30
-2.55769e-16
  70
    32
  0
VERTEX
  8
0
  5
A411
 10
0.150000
 20
1.07336
 30
-2.53189e-16
  70
    32
  0
VERTEX
  8
0
  5
A412
 10
0.150000
 20
1.06685
 30
-2.50676e-16
  70
    32
  0
VERTEX
  8
0
  5
A413
 10
0.150000
 20
1.06033
 30
-2.48229e-16
  70
    32
  0
VERTEX
  8
0
  5
A414
 10
0.150000
 20
1.05383
 30
-2.45846e-16
  70
    32
  0
VERTEX
  8
0
  5
A415
 10
0.150000
 20
1.04733
 30
-2.43526e-16
  70
    32
  0
VERTEX
  8
0
  5
A416
 10
0.150000
 20
1.04084
 30
-2.41267e-16
  70
    32
  0
VERTEX
  8
0
  5
A417
 10
0.150000
 20
1.03435
 30
-2.39066e-16
  70
    32
  0
VERTEX
  8
0
  5
A418
 10
0.150000
 20
1.02787
 30
-2.36922e-16
  70
    32
  0
VERTEX
  8
0
  5
A419
 10
0.150000
 20
1.02140
 30
-2.34834e-16
  70
    32
  0
VERTEX
  8
0
  5
A41A
 10
0.150000
 20
1.01493
 30
-2.32799e-16
  70
    32
  0
VERTEX
  8
0
  5
A41B
 10
0.150000
 20
1.00847
 30
-2.30816e-16
  70
    32
  0
VERTEX
  8
0
  5
A41C
 10
0.150000
 20
1.00202
 30
-2.28883e-16
  70
    32
  0
VERTEX
  8
0
  5
A41D
 10
0.150000
 20
0.995578
 30
-2.26998e-16
  70
    32
  0
VERTEX
  8
0
  5
A41E
 10
0.150000
 20
0.989144
 30
-2.25160e-16
  70
    32
  0
VERTEX
  8
0
  5
A41F
 10
0.150000
 20
0.982718
 30
-2.23366e-16
  70
    32
  0
VERTEX
  8
0
  5
A420
 10
0.150000
 20
0.976301
 30
-2.21615e-16
  70
    32
  0
VERTEX
  8
0
  5
A421
 10
0.150000
 20
0.969894
 30
-2.19905e-16
  70
    32
  0
VERTEX
  8
0
  5
A422
 10
0.150000
 20
0.963495
 30
-2.18235e-16
  70
    32
  0
VERTEX
  8
0
  5
A423
 10
0.150000
 20
0.957107
 30
-2.16602e-16
  70
    32
  0
VERTEX
  8
0
  5
A424
 10
0.150000
 20
0.950728
 30
-2.15005e-16
  70
    32
  0
VERTEX
  8
0
  5
A425
 10
0.150000
 20
0.944360
 30
-2.13441e-16
  70
    32
  0
VERTEX
  8
0
  5
A426
 10
0.150000
 20
0.938002
 30
-2.11910e-16
  70
    32
  0
VERTEX
  8
0
  5
A427
 10
0.150000
 20
0.931655
 30
-2.10410e-16
  70
    32
  0
VERTEX
  8
0
  5
A428
 10
0.150000
 20
0.925319
 30
-2.08938e-16
  70
    32
  0
VERTEX
  8
0
  5
A429
 10
0.150000
 20
0.918994
 30
-2.07493e-16
  70
    32
  0
VERTEX
  8
0
  5
A42A
 10
0.150000
 20
0.912681
 30
-2.06074e-16
  70
    32
  0
VERTEX
  8
0
  5
A42B
 10
0.150000
 20
0.906379
 30
-2.04677e-16
  70
    32
  0
VERTEX
  8
0
  5
A42C
 10
0.150000
 20
0.900090
 30
-2.03303e-16
  70
    32
  0
VERTEX
  8
0
  5
A42D
 10
0.150000
 20
0.893813
 30
-2.01948e-16
  70
    32
  0
VERTEX
  8
0
  5
A42E
 10
0.150000
 20
0.887549
 30
-2.00611e-16
  70
    32
  0
VERTEX
  8
0
  5
A42F
 10
0.150000
 20
0.881297
 30
-1.99290e-16
  70
    32
  0
VERTEX
  8
0
  5
A430
 10
0.150000
 20
0.875059
 30
-1.97984e-16
  70
    32
  0
VERTEX
  8
0
  5
A431
 10
0.150000
 20
0.868834
 30
-1.96691e-16
  70
    32
  0
VERTEX
  8
0
  5
A432
 10
0.150000
 20
0.862623
 30
-1.95408e-16
  70
    32
  0
VERTEX
  8
0
  5
A433
 10
0.150000
 20
0.856426
 30
-1.94135e-16
  70
    32
  0
VERTEX
  8
0
  5
A434
 10
0.150000
 20
0.850243
 30
-1.92869e-16
  70
    32
  0
VERTEX
  8
0
  5
A435
 10
0.150000
 20
0.844074
 30
-1.91609e-16
  70
    32
  0
VERTEX
  8
0
  5
A436
 10
0.150000
 20
0.837921
 30
-1.90352e-16
  70
    32
  0
VERTEX
  8
0
  5
A437
 10
0.150000
 20
0.831782
 30
-1.89098e-16
  70
    32
  0
VERTEX
  8
0
  5
A438
 10
0.150000
 20
0.825659
 30
-1.87844e-16
  70
    32
  0
VERTEX
  8
0
  5
A439
 10
0.150000
 20
0.819552
 30
-1.86588e-16
  70
    32
  0
VERTEX
  8
0
  5
A43A
 10
0.150000
 20
0.813460
 30
-1.85329e-16
  70
    32
  0
VERTEX
  8
0
  5
A43B
 10
0.150000
 20
0.807384
 30
-1.84065e-16
  70
    32
  0
VERTEX
  8
0
  5
A43C
 10
0.150000
 20
0.801325
 30
-1.82795e-16
  70
    32
  0
VERTEX
  8
0
  5
A43D
 10
0.150000
 20
0.795283
 30
-1.81516e-16
  70
    32
  0
VERTEX
  8
0
  5
A43E
 10
0.150000
 20
0.789257
 30
-1.80226e-16
  70
    32
  0
VERTEX
  8
0
  5
A43F
 10
0.150000
 20
0.783249
 30
-1.78924e-16
  70
    32
  0
VERTEX
  8
0
  5
A440
 10
0.150000
 20
0.777258
 30
-1.77609e-16
  70
    32
  0
VERTEX
  8
0
  5
A441
 10
0.150000
 20
0.771284
 30
-1.76277e-16
  70
    32
  0
VERTEX
  8
0
  5
A442
 10
0.150000
 20
0.765329
 30
-1.74929e-16
  70
    32
  0
VERTEX
  8
0
  5
A443
 10
0.150000
 20
0.759392
 30
-1.73561e-16
  70
    32
  0
VERTEX
  8
0
  5
A444
 10
0.150000
 20
0.753474
 30
-1.72172e-16
  70
    32
  0
VERTEX
  8
0
  5
A445
 10
0.150000
 20
0.747575
 30
-1.70760e-16
  70
    32
  0
VERTEX
  8
0
  5
A446
 10
0.150000
 20
0.741694
 30
-1.69324e-16
  70
    32
  0
VERTEX
  8
0
  5
A447
 10
0.150000
 20
0.735833
 30
-1.67861e-16
  70
    32
  0
VERTEX
  8
0
  5
A448
 10
0.150000
 20
0.729992
 30
-1.66371e-16
  70
    32
  0
VERTEX
  8
0
  5
A449
 10
0.150000
 20
0.724170
 30
-1.64850e-16
  70
    32
  0
VERTEX
  8
0
  5
A44A
 10
0.150000
 20
0.718369
 30
-1.63298e-16
  70
    32
  0
VERTEX
  8
0
  5
A44B
 10
0.150000
 20
0.712588
 30
-1.61712e-16
  70
    32
  0
VERTEX
  8
0
  5
A44C
 10
0.150000
 20
0.706828
 30
-1.60091e-16
  70
    32
  0
VERTEX
  8
0
  5
A44D
 10
0.150000
 20
0.701088
 30
-1.58434e-16
  70
    32
  0
VERTEX
  8
0
  5
A44E
 10
0.150000
 20
0.695370
 30
-1.56737e-16
  70
    32
  0
VERTEX
  8
0
  5
A44F
 10
0.150000
 20
0.689674
 30
-1.55000e-16
  70
    32
  0
VERTEX
  8
0
  5
A450
 10
0.150000
 20
0.683999
 30
-1.53221e-16
  70
    32
  0
VERTEX
  8
0
  5
A451
 10
0.150000
 20
0.678346
 30
-1.51397e-16
  70
    32
  0
VERTEX
  8
0
  5
A452
 10
0.150000
 20
0.672716
 30
-1.49531e-16
  70
    32
  0
VERTEX
  8
0
  5
A453
 10
0.150000
 20
0.667108
 30
-1.47685e-16
  70
    32
  0
VERTEX
  8
0
  5
A454
 10
0.150000
 20
0.661523
 30
-1.45885e-16
  70
    32
  0
VERTEX
  8
0
  5
A455
 10
0.150000
 20
0.655960
 30
-1.44129e-16
  70
    32
  0
VERTEX
  8
0
  5
A456
 10
0.150000
 20
0.650421
 30
-1.42417e-16
  70
    32
  0
VERTEX
  8
0
  5
A457
 10
0.150000
 20
0.644904
 30
-1.40747e-16
  70
    32
  0
VERTEX
  8
0
  5
A458
 10
0.150000
 20
0.639410
 30
-1.39117e-16
  70
    32
  0
VERTEX
  8
0
  5
A459
 10
0.150000
 20
0.633939
 30
-1.37528e-16
  70
    32
  0
VERTEX
  8
0
  5
A45A
 10
0.150000
 20
0.628491
 30
-1.35977e-16
  70
    32
  0
VERTEX
  8
0
  5
A45B
 10
0.150000
 20
0.623067
 30
-1.34464e-16
  70
    32
  0
VERTEX
  8
0
  5
A45C
 10
0.150000
 20
0.617666
 30
-1.32986e-16
  70
    32
  0
VERTEX
  8
0
  5
A45D
 10
0.150000
 20
0.612288
 30
-1.31544e-16
  70
    32
  0
VERTEX
  8
0
  5
A45E
 10
0.150000
 20
0.606934
 30
-1.30136e-16
  70
    32
  0
VERTEX
  8
0
  5
A45F
 10
0.150000
 20
0.601603
 30
-1.28760e-16
  70
    32
  0
VERTEX
  8
0
  5
A460
 10
0.150000
 20
0.596296
 30
-1.27416e-16
  70
    32
  0
VERTEX
  8
0
  5
A461
 10
0.150000
 20
0.591013
 30
-1.26102e-16
  70
    32
  0
VERTEX
  8
0
  5
A462
 10
0.150000
 20
0.585754
 30
-1.24817e-16
  70
    32
  0
VERTEX
  8
0
  5
A463
 10
0.150000
 20
0.580518
 30
-1.23561e-16
  70
    32
  0
VERTEX
  8
0
  5
A464
 10
0.150000
 20
0.575307
 30
-1.22331e-16
  70
    32
  0
VERTEX
  8
0
  5
A465
 10
0.150000
 20
0.570119
 30
-1.21126e-16
  70
    32
  0
VERTEX
  8
0
  5
A466
 10
0.150000
 20
0.564956
 30
-1.19946e-16
  70
    32
  0
VERTEX
  8
0
  5
A467
 10
0.150000
 20
0.559817
 30
-1.18789e-16
  70
    32
  0
VERTEX
  8
0
  5
A468
 10
0.150000
 20
0.554703
 30
-1.17655e-16
  70
    32
  0
VERTEX
  8
0
  5
A469
 10
0.150000
 20
0.549613
 30
-1.16541e-16
  70
    32
  0
VERTEX
  8
0
  5
A46A
 10
0.150000
 20
0.544547
 30
-1.15446e-16
  70
    32
  0
VERTEX
  8
0
  5
A46B
 10
0.150000
 20
0.539506
 30
-1.14371e-16
  70
    32
  0
VERTEX
  8
0
  5
A46C
 10
0.150000
 20
0.534490
 30
-1.13312e-16
  70
    32
  0
VERTEX
  8
0
  5
A46D
 10
0.150000
 20
0.529499
 30
-1.12270e-16
  70
    32
  0
VERTEX
  8
0
  5
A46E
 10
0.150000
 20
0.524532
 30
-1.11242e-16
  70
    32
  0
VERTEX
  8
0
  5
A46F
 10
0.150000
 20
0.519591
 30
-1.10229e-16
  70
    32
  0
VERTEX
  8
0
  5
A470
 10
0.150000
 20
0.514674
 30
-1.09227e-16
  70
    32
  0
VERTEX
  8
0
  5
A471
 10
0.150000
 20
0.509783
 30
-1.08238e-16
  70
    32
  0
VERTEX
  8
0
  5
A472
 10
0.150000
 20
0.504916
 30
-1.07258e-16
  70
    32
  0
VERTEX
  8
0
  5
A473
 10
0.150000
 20
0.500076
 30
-1.06288e-16
  70
    32
  0
VERTEX
  8
0
  5
A474
 10
0.150000
 20
0.495260
 30
-1.05325e-16
  70
    32
  0
VERTEX
  8
0
  5
A475
 10
0.150000
 20
0.490470
 30
-1.04369e-16
  70
    32
  0
VERTEX
  8
0
  5
A476
 10
0.150000
 20
0.485706
 30
-1.03418e-16
  70
    32
  0
VERTEX
  8
0
  5
A477
 10
0.150000
 20
0.480967
 30
-1.02472e-16
  70
    32
  0
VERTEX
  8
0
  5
A478
 10
0.150000
 20
0.476254
 30
-1.01529e-16
  70
    32
  0
VERTEX
  8
0
  5
A479
 10
0.150000
 20
0.471567
 30
-1.00588e-16
  70
    32
  0
VERTEX
  8
0
  5
A47A
 10
0.150000
 20
0.466906
 30
-9.96472e-17
  70
    32
  0
VERTEX
  8
0
  5
A47B
 10
0.150000
 20
0.462271
 30
-9.87063e-17
  70
    32
  0
VERTEX
  8
0
  5
A47C
 10
0.150000
 20
0.457662
 30
-9.77637e-17
  70
    32
  0
VERTEX
  8
0
  5
A47D
 10
0.150000
 20
0.453079
 30
-9.68183e-17
  70
    32
  0
VERTEX
  8
0
  5
A47E
 10
0.150000
 20
0.448522
 30
-9.58690e-17
  70
    32
  0
VERTEX
  8
0
  5
A47F
 10
0.150000
 20
0.443992
 30
-9.49144e-17
  70
    32
  0
VERTEX
  8
0
  5
A480
 10
0.150000
 20
0.439488
 30
-9.39535e-17
  70
    32
  0
VERTEX
  8
0
  5
A481
 10
0.150000
 20
0.435010
 30
-9.29851e-17
  70
    32
  0
VERTEX
  8
0
  5
A482
 10
0.150000
 20
0.430560
 30
-9.20079e-17
  70
    32
  0
VERTEX
  8
0
  5
A483
 10
0.150000
 20
0.426136
 30
-9.10208e-17
  70
    32
  0
VERTEX
  8
0
  5
A484
 10
0.150000
 20
0.421739
 30
-9.00227e-17
  70
    32
  0
VERTEX
  8
0
  5
A485
 10
0.150000
 20
0.417368
 30
-8.90122e-17
  70
    32
  0
VERTEX
  8
0
  5
A486
 10
0.150000
 20
0.413025
 30
-8.79883e-17
  70
    32
  0
VERTEX
  8
0
  5
A487
 10
0.150000
 20
0.408708
 30
-8.69498e-17
  70
    32
  0
VERTEX
  8
0
  5
A488
 10
0.150000
 20
0.404419
 30
-8.58954e-17
  70
    32
  0
VERTEX
  8
0
  5
A489
 10
0.150000
 20
0.400157
 30
-8.48241e-17
  70
    32
  0
VERTEX
  8
0
  5
A48A
 10
0.150000
 20
0.395923
 30
-8.37345e-17
  70
    32
  0
VERTEX
  8
0
  5
A48B
 10
0.150000
 20
0.391715
 30
-8.26256e-17
  70
    32
  0
VERTEX
  8
0
  5
A48C
 10
0.150000
 20
0.387536
 30
-8.14961e-17
  70
    32
  0
VERTEX
  8
0
  5
A48D
 10
0.150000
 20
0.383383
 30
-8.03449e-17
  70
    32
  0
VERTEX
  8
0
  5
A48E
 10
0.150000
 20
0.379259
 30
-7.91708e-17
  70
    32
  0
VERTEX
  8
0
  5
A48F
 10
0.150000
 20
0.375162
 30
-7.79726e-17
  70
    32
  0
VERTEX
  8
0
  5
A490
 10
0.150000
 20
0.371093
 30
-7.67490e-17
  70
    32
  0
VERTEX
  8
0
  5
A491
 10
0.150000
 20
0.367052
 30
-7.54991e-17
  70
    32
  0
VERTEX
  8
0
  5
A492
 10
0.150000
 20
0.363039
 30
-7.42214e-17
  70
    32
  0
VERTEX
  8
0
  5
A493
 10
0.150000
 20
0.359054
 30
-7.29149e-17
  70
    32
  0
VERTEX
  8
0
  5
A494
 10
0.150000
 20
0.355097
 30
-7.15785e-17
  70
    32
  0
VERTEX
  8
0
  5
A495
 10
0.150000
 20
0.351168
 30
-7.02108e-17
  70
    32
  0
VERTEX
  8
0
  5
A496
 10
0.150000
 20
0.347268
 30
-6.88107e-17
  70
    32
  0
VERTEX
  8
0
  5
A497
 10
0.150000
 20
0.343396
 30
-6.73771e-17
  70
    32
  0
VERTEX
  8
0
  5
A498
 10
0.150000
 20
0.339553
 30
-6.59087e-17
  70
    32
  0
VERTEX
  8
0
  5
A499
 10
0.150000
 20
0.335739
 30
-6.44044e-17
  70
    32
  0
VERTEX
  8
0
  5
A49A
 10
0.150000
 20
0.331953
 30
-6.28629e-17
  70
    32
  0
VERTEX
  8
0
  5
A49B
 10
0.150000
 20
0.328196
 30
-6.12832e-17
  70
    32
  0
VERTEX
  8
0
  5
A49C
 10
0.150000
 20
0.324467
 30
-5.96640e-17
  70
    32
  0
VERTEX
  8
0
  5
A49D
 10
0.150000
 20
0.320768
 30
-5.80041e-17
  70
    32
  0
VERTEX
  8
0
  5
A49E
 10
0.150000
 20
0.317098
 30
-5.63024e-17
  70
    32
  0
VERTEX
  8
0
  5
A49F
 10
0.150000
 20
0.313457
 30
-5.45577e-17
  70
    32
  0
VERTEX
  8
0
  5
A4A0
 10
0.150000
 20
0.309845
 30
-5.27687e-17
  70
    32
  0
VERTEX
  8
0
  5
A4A1
 10
0.150000
 20
0.306262
 30
-5.09344e-17
  70
    32
  0
VERTEX
  8
0
  5
A4A2
 10
0.150000
 20
0.302707
 30
-4.90652e-17
  70
    32
  0
VERTEX
  8
0
  5
A4A3
 10
0.150000
 20
0.299167
 30
-4.72312e-17
  70
    32
  0
VERTEX
  8
0
  5
A4A4
 10
0.150000
 20
0.295640
 30
-4.54435e-17
  70
    32
  0
VERTEX
  8
0
  5
A4A5
 10
0.150000
 20
0.292126
 30
-4.37014e-17
  70
    32
  0
VERTEX
  8
0
  5
A4A6
 10
0.150000
 20
0.288627
 30
-4.20045e-17
  70
    32
  0
VERTEX
  8
0
  5
A4A7
 10
0.150000
 20
0.285141
 30
-4.03520e-17
  70
    32
  0
VERTEX
  8
0
  5
A4A8
 10
0.150000
 20
0.281669
 30
-3.87435e-17
  70
    32
  0
VERTEX
  8
0
  5
A4A9
 10
0.150000
 20
0.278211
 30
-3.71783e-17
  70
    32
  0
VERTEX
  8
0
  5
A4AA
 10
0.150000
 20
0.274767
 30
-3.56558e-17
  70
    32
  0
VERTEX
  8
0
  5
A4AB
 10
0.150000
 20
0.271338
 30
-3.41755e-17
  70
    32
  0
VERTEX
  8
0
  5
A4AC
 10
0.150000
 20
0.267923
 30
-3.27367e-17
  70
    32
  0
VERTEX
  8
0
  5
A4AD
 10
0.150000
 20
0.264523
 30
-3.13389e-17
  70
    32
  0
VERTEX
  8
0
  5
A4AE
 10
0.150000
 20
0.261139
 30
-2.99815e-17
  70
    32
  0
VERTEX
  8
0
  5
A4AF
 10
0.150000
 20
0.257769
 30
-2.86638e-17
  70
    32
  0
VERTEX
  8
0
  5
A4B0
 10
0.150000
 20
0.254415
 30
-2.73853e-17
  70
    32
  0
VERTEX
  8
0
  5
A4B1
 10
0.150000
 20
0.251076
 30
-2.61454e-17
  70
    32
  0
VERTEX
  8
0
  5
A4B2
 10
0.150000
 20
0.247752
 30
-2.49435e-17
  70
    32
  0
VERTEX
  8
0
  5
A4B3
 10
0.150000
 20
0.244445
 30
-2.37790e-17
  70
    32
  0
VERTEX
  8
0
  5
A4B4
 10
0.150000
 20
0.241154
 30
-2.26513e-17
  70
    32
  0
VERTEX
  8
0
  5
A4B5
 10
0.150000
 20
0.237878
 30
-2.15599e-17
  70
    32
  0
VERTEX
  8
0
  5
A4B6
 10
0.150000
 20
0.234619
 30
-2.05041e-17
  70
    32
  0
VERTEX
  8
0
  5
A4B7
 10
0.150000
 20
0.231377
 30
-1.94833e-17
  70
    32
  0
VERTEX
  8
0
  5
A4B8
 10
0.150000
 20
0.228151
 30
-1.84970e-17
  70
    32
  0
VERTEX
  8
0
  5
A4B9
 10
0.150000
 20
0.224942
 30
-1.75446e-17
  70
    32
  0
VERTEX
  8
0
  5
A4BA
 10
0.150000
 20
0.221750
 30
-1.66254e-17
  70
    32
  0
VERTEX
  8
0
  5
A4BB
 10
0.150000
 20
0.218575
 30
-1.57389e-17
  70
    32
  0
VERTEX
  8
0
  5
A4BC
 10
0.150000
 20
0.215418
 30
-1.48845e-17
  70
    32
  0
VERTEX
  8
0
  5
A4BD
 10
0.150000
 20
0.212278
 30
-1.40616e-17
  70
    32
  0
VERTEX
  8
0
  5
A4BE
 10
0.150000
 20
0.209156
 30
-1.32696e-17
  70
    32
  0
VERTEX
  8
0
  5
A4BF
 10
0.150000
 20
0.206052
 30
-1.25079e-17
  70
    32
  0
VERTEX
  8
0
  5
A4C0
 10
0.150000
 20
0.202965
 30
-1.17759e-17
  70
    32
  0
VERTEX
  8
0
  5
A4C1
 10
0.150000
 20
0.199897
 30
-1.10731e-17
  70
    32
  0
VERTEX
  8
0
  5
A4C2
 10
0.150000
 20
0.196847
 30
-1.03987e-17
  70
    32
  0
VERTEX
  8
0
  5
A4C3
 10
0.150000
 20
0.193816
 30
-9.75238e-18
  70
    32
  0
VERTEX
  8
0
  5
A4C4
 10
0.150000
 20
0.190804
 30
-9.13337e-18
  70
    32
  0
VERTEX
  8
0
  5
A4C5
 10
0.150000
 20
0.187810
 30
-8.54112e-18
  70
    32
  0
VERTEX
  8
0
  5
A4C6
 10
0.150000
 20
0.184835
 30
-7.97505e-18
  70
    32
  0
VERTEX
  8
0
  5
A4C7
 10
0.150000
 20
0.181880
 30
-7.43456e-18
  70
    32
  0
VERTEX
  8
0
  5
A4C8
 10
0.150000
 20
0.178944
 30
-6.91906e-18
  70
    32
  0
VERTEX
  8
0
  5
A4C9
 10
0.150000
 20
0.176028
 30
-6.42795e-18
  70
    32
  0
VERTEX
  8
0
  5
A4CA
 10
0.150000
 20
0.173131
 30
-5.96065e-18
  70
    32
  0
VERTEX
  8
0
  5
A4CB
 10
0.150000
 20
0.170254
 30
-5.51657e-18
  70
    32
  0
VERTEX
  8
0
  5
A4CC
 10
0.150000
 20
0.167397
 30
-5.09511e-18
  70
    32
  0
VERTEX
  8
0
  5
A4CD
 10
0.150000
 20
0.164561
 30
-4.69568e-18
  70
    32
  0
VERTEX
  8
0
  5
A4CE
 10
0.150000
 20
0.161744
 30
-4.31770e-18
  70
    32
  0
VERTEX
  8
0
  5
A4CF
 10
0.150000
 20
0.158949
 30
-3.96056e-18
  70
    32
  0
VERTEX
  8
0
  5
A4D0
 10
0.150000
 20
0.156174
 30
-3.62368e-18
  70
    32
  0
VERTEX
  8
0
  5
A4D1
 10
0.150000
 20
0.153420
 30
-3.30646e-18
  70
    32
  0
VERTEX
  8
0
  5
A4D2
 10
0.150000
 20
0.150687
 30
-3.00832e-18
  70
    32
  0
VERTEX
  8
0
  5
A4D3
 10
0.150000
 20
0.147976
 30
-2.72867e-18
  70
    32
  0
VERTEX
  8
0
  5
A4D4
 10
0.150000
 20
0.145286
 30
-2.46690e-18
  70
    32
  0
VERTEX
  8
0
  5
A4D5
 10
0.150000
 20
0.142617
 30
-2.22244e-18
  70
    32
  0
VERTEX
  8
0
  5
A4D6
 10
0.150000
 20
0.139970
 30
-1.99468e-18
  70
    32
  0
VERTEX
  8
0
  5
A4D7
 10
0.150000
 20
0.137345
 30
-1.78304e-18
  70
    32
  0
VERTEX
  8
0
  5
A4D8
 10
0.150000
 20
0.134743
 30
-1.58693e-18
  70
    32
  0
VERTEX
  8
0
  5
A4D9
 10
0.150000
 20
0.132162
 30
-1.40575e-18
  70
    32
  0
VERTEX
  8
0
  5
A4DA
 10
0.150000
 20
0.129604
 30
-1.23892e-18
  70
    32
  0
VERTEX
  8
0
  5
A4DB
 10
0.150000
 20
0.127069
 30
-1.08583e-18
  70
    32
  0
VERTEX
  8
0
  5
A4DC
 10
0.150000
 20
0.124556
 30
-9.45910e-19
  70
    32
  0
VERTEX
  8
0
  5
A4DD
 10
0.150000
 20
0.122066
 30
-8.18555e-19
  70
    32
  0
VERTEX
  8
0
  5
A4DE
 10
0.150000
 20
0.119600
 30
-7.03178e-19
  70
    32
  0
VERTEX
  8
0
  5
A4DF
 10
0.150000
 20
0.117156
 30
-5.99185e-19
  70
    32
  0
VERTEX
  8
0
  5
A4E0
 10
0.150000
 20
0.114737
 30
-5.05987e-19
  70
    32
  0
VERTEX
  8
0
  5
A4E1
 10
0.150000
 20
0.112340
 30
-4.22992e-19
  70
    32
  0
VERTEX
  8
0
  5
A4E2
 10
0.150000
 20
0.109968
 30
-3.49608e-19
  70
    32
  0
VERTEX
  8
0
  5
A4E3
 10
0.150000
 20
0.107620
 30
-2.85244e-19
  70
    32
  0
VERTEX
  8
0
  5
A4E4
 10
0.150000
 20
0.105295
 30
-2.29308e-19
  70
    32
  0
VERTEX
  8
0
  5
A4E5
 10
0.150000
 20
0.102995
 30
-1.81209e-19
  70
    32
  0
VERTEX
  8
0
  5
A4E6
 10
0.150000
 20
0.100720
 30
-1.40355e-19
  70
    32
  0
VERTEX
  8
0
  5
A4E7
 10
0.150000
 20
0.0984689
 30
-1.06155e-19
  70
    32
  0
VERTEX
  8
0
  5
A4E8
 10
0.150000
 20
0.0962429
 30
-7.80177e-20
  70
    32
  0
VERTEX
  8
0
  5
A4E9
 10
0.150000
 20
0.0940419
 30
-5.53514e-20
  70
    32
  0
VERTEX
  8
0
  5
A4EA
 10
0.150000
 20
0.0918660
 30
-3.75647e-20
  70
    32
  0
VERTEX
  8
0
  5
A4EB
 10
0.150000
 20
0.0897154
 30
-2.40660e-20
  70
    32
  0
VERTEX
  8
0
  5
A4EC
 10
0.150000
 20
0.0875903
 30
-1.42639e-20
  70
    32
  0
VERTEX
  8
0
  5
A4ED
 10
0.150000
 20
0.0854909
 30
-7.56701e-21
  70
    32
  0
VERTEX
  8
0
  5
A4EE
 10
0.150000
 20
0.0834174
 30
-3.38378e-21
  70
    32
  0
VERTEX
  8
0
  5
A4EF
 10
0.150000
 20
0.0813698
 30
-1.12276e-21
  70
    32
  0
VERTEX
  8
0
  5
A4F0
 10
0.150000
 20
0.0793485
 30
-1.92505e-22
  70
    32
  0
VERTEX
  8
0
  5
A4F1
 10
0.150000
 20
0.0773534
 30
-1.53910e-24
  70
    32
  0
VERTEX
  8
0
  5
A4F2
 10
0.150000
 20
0.0753849
 30
0.00000
  70
    32
  0
VERTEX
  8
0
  5
A4F3
 10
0.150000
 20
0.0734429
 30
0.00000
  70
    32
  0
VERTEX
  8
0
  5
A4F4
 10
0.150000
 20
0.0715274
 30
0.00000
  70
    32
  0
VERTEX
  8
0
  5
A4F5
 10
0.150000
 20
0.0696383
 30
0.00000
  70
    32
  0
VERTEX
  8
0
  5
A4F6
 10
0.150000
 20
0.0677757
 30
0.00000
  70
    32
  0
VERTEX
  8
0
  5
A4F7
 10
0.150000
 20
0.0659393
 30
0.00000
  70
    32
  0
VERTEX
  8
0
  5
A4F8
 10
0.150000
 20
0.0641293
 30
0.00000
  70
    32
  0
VERTEX
  8
0
  5
A4F9
 10
0.150000
 20
0.0623455
 30
0.00000
  70
    32
  0
VERTEX
  8
0
  5
A4FA
 10
0.150000
 20
0.0605879
 30
0.00000
  70
    32
  0
VERTEX
  8
0
  5
A4FB
 10
0.150000
 20
0.0588565
 30
0.00000
  70
    32
  0
VERTEX
  8
0
  5
A4FC
 10
0.150000
 20
0.0571512
 30
0.00000
  70
    32
  0
VERTEX
  8
0
  5
A4FD
 10
0.150000
 20
0.0554720
 30
0.00000
  70
    32
  0
VERTEX
  8
0
  5
A4FE
 10
0.150000
 20
0.0538189
 30
0.00000
  70
    32
  0
VERTEX
  8
0
  5
A4FF
 10
0.150000
 20
0.0521917
 30
0.00000
  70
    32
  0
VERTEX
  8
0
  5
A500
 10
0.150000
 20
0.0505904
 30
0.00000
  70
    32
  0
VERTEX
  8
0
  5
A501
 10
0.150000
 20
0.0490151
 30
0.00000
  70
    32
  0
VERTEX
  8
0
  5
A502
 10
0.150000
 20
0.0474656
 30
0.00000
  70
    32
  0
VERTEX
  8
0
  5
A503
 10
0.150000
 20
0.0459419
 30
0.00000
  70
    32
  0
VERTEX
  8
0
  5
A504
 10
0.150000
 20
0.0444439
 30
0.00000
  70
    32
  0
VERTEX
  8
0
  5
A505
 10
0.150000
 20
0.0429717
 30
0.00000
  70
    32
  0
VERTEX
  8
0
  5
A506
 10
0.150000
 20
0.0415252
 30
0.00000
  70
    32
  0
VERTEX
  8
0
  5
A507
 10
0.150000
 20
0.0401043
 30
0.00000
  70
    32
  0
VERTEX
  8
0
  5
A508
 10
0.150000
 20
0.0387089
 30
0.00000
  70
    32
  0
VERTEX
  8
0
  5
A509
 10
0.150000
 20
0.0373391
 30
0.00000
  70
    32
  0
VERTEX
  8
0
  5
A50A
 10
0.150000
 20
0.0359948
 30
0.00000
  70
    32
  0
VERTEX
  8
0
  5
A50B
 10
0.150000
 20
0.0346760
 30
0.00000
  70
    32
  0
VERTEX
  8
0
  5
A50C
 10
0.150000
 20
0.0333825
 30
0.00000
  70
    32
  0
VERTEX
  8
0
  5
A50D
 10
0.150000
 20
0.0321144
 30
0.00000
  70
    32
  0
VERTEX
  8
0
  5
A50E
 10
0.150000
 20
0.0308716
 30
0.00000
  70
    32
  0
VERTEX
  8
0
  5
A50F
 10
0.150000
 20
0.0296541
 30
0.00000
  70
    32
  0
VERTEX
  8
0
  5
A510
 10
0.150000
 20
0.0284618
 30
0.00000
  70
    32
  0
VERTEX
  8
0
  5
A511
 10
0.150000
 20
0.0272947
 30
0.00000
  70
    32
  0
VERTEX
  8
0
  5
A512
 10
0.150000
 20
0.0261527
 30
0.00000
  70
    32
  0
VERTEX
  8
0
  5
A513
 10
0.150000
 20
0.0250358
 30
0.00000
  70
    32
  0
VERTEX
  8
0
  5
A514
 10
0.150000
 20
0.0239440
 30
0.00000
  70
    32
  0
VERTEX
  8
0
  5
A515
 10
0.150000
 20
0.0228771
 30
0.00000
  70
    32
  0
VERTEX
  8
0
  5
A516
 10
0.150000
 20
0.0218352
 30
0.00000
  70
    32
  0
VERTEX
  8
0
  5
A517
 10
0.150000
 20
0.0208182
 30
0.00000
  70
    32
  0
VERTEX
  8
0
  5
A518
 10
0.150000
 20
0.0198261
 30
0.00000
  70
    32
  0
VERTEX
  8
0
  5
A519
 10
0.150000
 20
0.0188587
 30
0.00000
  70
    32
  0
VERTEX
  8
0
  5
A51A
 10
0.150000
 20
0.0179162
 30
0.00000
  70
    32
  0
VERTEX
  8
0
  5
A51B
 10
0.150000
 20
0.0169984
 30
0.00000
  70
    32
  0
VERTEX
  8
0
  5
A51C
 10
0.150000
 20
0.0161052
 30
0.00000
  70
    32
  0
VERTEX
  8
0
  5
A51D
 10
0.150000
 20
0.0152367
 30
0.00000
  70
    32
  0
VERTEX
  8
0
  5
A51E
 10
0.150000
 20
0.0143928
 30
0.00000
  70
    32
  0
VERTEX
  8
0
  5
A51F
 10
0.150000
 20
0.0135735
 30
0.00000
  70
    32
  0
VERTEX
  8
0
  5
A520
 10
0.150000
 20
0.0127786
 30
0.00000
  70
    32
  0
VERTEX
  8
0
  5
A521
 10
0.150000
 20
0.0120082
 30
0.00000
  70
    32
  0
VERTEX
  8
0
  5
A522
 10
0.150000
 20
0.0112622
 30
0.00000
  70
    32
  0
VERTEX
  8
0
  5
A523
 10
0.150000
 20
0.0105406
 30
0.00000
  70
    32
  0
VERTEX
  8
0
  5
A524
 10
0.150000
 20
0.00984329
 30
0.00000
  70
    32
  0
VERTEX
  8
0
  5
A525
 10
0.150000
 20
0.00917027
 30
0.00000
  70
    32
  0
VERTEX
  8
0
  5
A526
 10
0.150000
 20
0.00852149
 30
0.00000
  70
    32
  0
VERTEX
  8
0
  5
A527
 10
0.150000
 20
0.00789689
 30
0.00000
  70
    32
  0
VERTEX
  8
0
  5
A528
 10
0.150000
 20
0.00729643
 30
0.00000
  70
    32
  0
VERTEX
  8
0
  5
A529
 10
0.150000
 20
0.00672008
 30
0.00000
  70
    32
  0
VERTEX
  8
0
  5
A52A
 10
0.150000
 20
0.00616777
 30
0.00000
  70
    32
  0
VERTEX
  8
0
  5
A52B
 10
0.150000
 20
0.00563948
 30
0.00000
  70
    32
  0
VERTEX
  8
0
  5
A52C
 10
0.150000
 20
0.00513514
 30
0.00000
  70
    32
  0
VERTEX
  8
0
  5
A52D
 10
0.150000
 20
0.00465473
 30
0.00000
  70
    32
  0
VERTEX
  8
0
  5
A52E
 10
0.150000
 20
0.00419819
 30
0.00000
  70
    32
  0
VERTEX
  8
0
  5
A52F
 10
0.150000
 20
0.00376547
 30
0.00000
  70
    32
  0
VERTEX
  8
0
  5
A530
 10
0.150000
 20
0.00335654
 30
0.00000
  70
    32
  0
VERTEX
  8
0
  5
A531
 10
0.150000
 20
0.00297135
 30
0.00000
  70
    32
  0
VERTEX
  8
0
  5
A532
 10
0.150000
 20
0.00260985
 30
0.00000
  70
    32
  0
VERTEX
  8
0
  5
A533
 10
0.150000
 20
0.00227200
 30
0.00000
  70
    32
  0
VERTEX
  8
0
  5
A534
 10
0.150000
 20
0.00195776
 30
0.00000
  70
    32
  0
VERTEX
  8
0
  5
A535
 10
0.150000
 20
0.00166707
 30
0.00000
  70
    32
  0
VERTEX
  8
0
  5
A536
 10
0.150000
 20
0.00139989
 30
0.00000
  70
    32
  0
VERTEX
  8
0
  5
A537
 10
0.150000
 20
0.00115619
 30
0.00000
  70
    32
  0
VERTEX
  8
0
  5
A538
 10
0.150000
 20
0.000935905
 30
0.00000
  70
    32
  0
VERTEX
  8
0
  5
A539
 10
0.150000
 20
0.000739001
 30
0.00000
  70
    32
  0
VERTEX
  8
0
  5
A53A
 10
0.150000
 20
0.000565431
 30
0.00000
  70
    32
  0
VERTEX
  8
0
  5
A53B
 10
0.150000
 20
0.000415149
 30
0.00000
  70
    32
  0
VERTEX
  8
0
  5
A53C
 10
0.150000
 20
0.000288110
 30
0.00000
  70
    32
  0
VERTEX
  8
0
  5
A53D
 10
0.150000
 20
0.000184271
 30
0.00000
  70
    32
  0
VERTEX
  8
0
  5
A53E
 10
0.150000
 20
0.000103585
 30
0.00000
  70
    32
  0
VERTEX
  8
0
  5
A53F
 10
0.150000
 20
4.60077e-05
 30
0.00000
  70
    32
  0
VERTEX
  8
0
  5
A540
 10
0.150000
 20
1.14944e-05
 30
0.00000
  70
    32
  0
VERTEX
  8
0
  5
A541
 10
0.150000
 20
6.36000e-14
 30
0.00000
  70
    32
  0
SEQEND
  8
0
  5
A542
  0
LINE
  5
9E5D
  8
0
  6
CONTINUOUS
 62
     3
 10
86.0502525316937863
 20
0.0000000000000444
 30
0.0
 11
0.1499999999999773
 21
0.0000000000000253
 31
0.0
210
0.0
220
1.0
230
-0.0000000000000002
  0
POLYLINE
  8
0
  5
A543
  62
3
  66
     1
 10
0.00000
 20
0.00000
 30
0.00000
  70
     8
  0
VERTEX
  8
0
  5
A544
 10
-0.150000
 20
6.36000e-14
 30
0.00000
  70
    32
  0
VERTEX
  8
0
  5
A545
 10
-0.150000
 20
1.14944e-05
 30
0.00000
  70
    32
  0
VERTEX
  8
0
  5
A546
 10
-0.150000
 20
4.60077e-05
 30
0.00000
  70
    32
  0
VERTEX
  8
0
  5
A547
 10
-0.150000
 20
0.000103585
 30
0.00000
  70
    32
  0
VERTEX
  8
0
  5
A548
 10
-0.150000
 20
0.000184271
 30
0.00000
  70
    32
  0
VERTEX
  8
0
  5
A549
 10
-0.150000
 20
0.000288110
 30
0.00000
  70
    32
  0
VERTEX
  8
0
  5
A54A
 10
-0.150000
 20
0.000415149
 30
0.00000
  70
    32
  0
VERTEX
  8
0
  5
A54B
 10
-0.150000
 20
0.000565431
 30
0.00000
  70
    32
  0
VERTEX
  8
0
  5
A54C
 10
-0.150000
 20
0.000739001
 30
0.00000
  70
    32
  0
VERTEX
  8
0
  5
A54D
 10
-0.150000
 20
0.000935905
 30
0.00000
  70
    32
  0
VERTEX
  8
0
  5
A54E
 10
-0.150000
 20
0.00115619
 30
0.00000
  70
    32
  0
VERTEX
  8
0
  5
A54F
 10
-0.150000
 20
0.00139989
 30
0.00000
  70
    32
  0
VERTEX
  8
0
  5
A550
 10
-0.150000
 20
0.00166707
 30
0.00000
  70
    32
  0
VERTEX
  8
0
  5
A551
 10
-0.150000
 20
0.00195776
 30
0.00000
  70
    32
  0
VERTEX
  8
0
  5
A552
 10
-0.150000
 20
0.00227200
 30
0.00000
  70
    32
  0
VERTEX
  8
0
  5
A553
 10
-0.150000
 20
0.00260985
 30
0.00000
  70
    32
  0
VERTEX
  8
0
  5
A554
 10
-0.150000
 20
0.00297135
 30
0.00000
  70
    32
  0
VERTEX
  8
0
  5
A555
 10
-0.150000
 20
0.00335654
 30
0.00000
  70
    32
  0
VERTEX
  8
0
  5
A556
 10
-0.150000
 20
0.00376547
 30
0.00000
  70
    32
  0
VERTEX
  8
0
  5
A557
 10
-0.150000
 20
0.00419819
 30
0.00000
  70
    32
  0
VERTEX
  8
0
  5
A558
 10
-0.150000
 20
0.00465473
 30
0.00000
  70
    32
  0
VERTEX
  8
0
  5
A559
 10
-0.150000
 20
0.00513514
 30
0.00000
  70
    32
  0
VERTEX
  8
0
  5
A55A
 10
-0.150000
 20
0.00563948
 30
0.00000
  70
    32
  0
VERTEX
  8
0
  5
A55B
 10
-0.150000
 20
0.00616777
 30
0.00000
  70
    32
  0
VERTEX
  8
0
  5
A55C
 10
-0.150000
 20
0.00672008
 30
0.00000
  70
    32
  0
VERTEX
  8
0
  5
A55D
 10
-0.150000
 20
0.00729643
 30
0.00000
  70
    32
  0
VERTEX
  8
0
  5
A55E
 10
-0.150000
 20
0.00789689
 30
0.00000
  70
    32
  0
VERTEX
  8
0
  5
A55F
 10
-0.150000
 20
0.00852149
 30
0.00000
  70
    32
  0
VERTEX
  8
0
  5
A560
 10
-0.150000
 20
0.00917027
 30
0.00000
  70
    32
  0
VERTEX
  8
0
  5
A561
 10
-0.150000
 20
0.00984329
 30
0.00000
  70
    32
  0
VERTEX
  8
0
  5
A562
 10
-0.150000
 20
0.0105406
 30
0.00000
  70
    32
  0
VERTEX
  8
0
  5
A563
 10
-0.150000
 20
0.0112622
 30
0.00000
  70
    32
  0
VERTEX
  8
0
  5
A564
 10
-0.150000
 20
0.0120082
 30
0.00000
  70
    32
  0
VERTEX
  8
0
  5
A565
 10
-0.150000
 20
0.0127786
 30
0.00000
  70
    32
  0
VERTEX
  8
0
  5
A566
 10
-0.150000
 20
0.0135735
 30
0.00000
  70
    32
  0
VERTEX
  8
0
  5
A567
 10
-0.150000
 20
0.0143928
 30
0.00000
  70
    32
  0
VERTEX
  8
0
  5
A568
 10
-0.150000
 20
0.0152367
 30
0.00000
  70
    32
  0
VERTEX
  8
0
  5
A569
 10
-0.150000
 20
0.0161052
 30
0.00000
  70
    32
  0
VERTEX
  8
0
  5
A56A
 10
-0.150000
 20
0.0169984
 30
0.00000
  70
    32
  0
VERTEX
  8
0
  5
A56B
 10
-0.150000
 20
0.0179162
 30
0.00000
  70
    32
  0
VERTEX
  8
0
  5
A56C
 10
-0.150000
 20
0.0188587
 30
0.00000
  70
    32
  0
VERTEX
  8
0
  5
A56D
 10
-0.150000
 20
0.0198261
 30
0.00000
  70
    32
  0
VERTEX
  8
0
  5
A56E
 10
-0.150000
 20
0.0208182
 30
0.00000
  70
    32
  0
VERTEX
  8
0
  5
A56F
 10
-0.150000
 20
0.0218352
 30
0.00000
  70
    32
  0
VERTEX
  8
0
  5
A570
 10
-0.150000
 20
0.0228771
 30
0.00000
  70
    32
  0
VERTEX
  8
0
  5
A571
 10
-0.150000
 20
0.0239440
 30
0.00000
  70
    32
  0
VERTEX
  8
0
  5
A572
 10
-0.150000
 20
0.0250358
 30
0.00000
  70
    32
  0
VERTEX
  8
0
  5
A573
 10
-0.150000
 20
0.0261527
 30
0.00000
  70
    32
  0
VERTEX
  8
0
  5
A574
 10
-0.150000
 20
0.0272947
 30
0.00000
  70
    32
  0
VERTEX
  8
0
  5
A575
 10
-0.150000
 20
0.0284618
 30
0.00000
  70
    32
  0
VERTEX
  8
0
  5
A576
 10
-0.150000
 20
0.0296541
 30
0.00000
  70
    32
  0
VERTEX
  8
0
  5
A577
 10
-0.150000
 20
0.0308716
 30
0.00000
  70
    32
  0
VERTEX
  8
0
  5
A578
 10
-0.150000
 20
0.0321144
 30
0.00000
  70
    32
  0
VERTEX
  8
0
  5
A579
 10
-0.150000
 20
0.0333825
 30
0.00000
  70
    32
  0
VERTEX
  8
0
  5
A57A
 10
-0.150000
 20
0.0346760
 30
0.00000
  70
    32
  0
VERTEX
  8
0
  5
A57B
 10
-0.150000
 20
0.0359948
 30
0.00000
  70
    32
  0
VERTEX
  8
0
  5
A57C
 10
-0.150000
 20
0.0373391
 30
0.00000
  70
    32
  0
VERTEX
  8
0
  5
A57D
 10
-0.150000
 20
0.0387089
 30
0.00000
  70
    32
  0
VERTEX
  8
0
  5
A57E
 10
-0.150000
 20
0.0401043
 30
0.00000
  70
    32
  0
VERTEX
  8
0
  5
A57F
 10
-0.150000
 20
0.0415252
 30
0.00000
  70
    32
  0
VERTEX
  8
0
  5
A580
 10
-0.150000
 20
0.0429717
 30
0.00000
  70
    32
  0
VERTEX
  8
0
  5
A581
 10
-0.150000
 20
0.0444439
 30
0.00000
  70
    32
  0
VERTEX
  8
0
  5
A582
 10
-0.150000
 20
0.0459419
 30
0.00000
  70
    32
  0
VERTEX
  8
0
  5
A583
 10
-0.150000
 20
0.0474656
 30
0.00000
  70
    32
  0
VERTEX
  8
0
  5
A584
 10
-0.150000
 20
0.0490151
 30
0.00000
  70
    32
  0
VERTEX
  8
0
  5
A585
 10
-0.150000
 20
0.0505904
 30
0.00000
  70
    32
  0
VERTEX
  8
0
  5
A586
 10
-0.150000
 20
0.0521917
 30
0.00000
  70
    32
  0
VERTEX
  8
0
  5
A587
 10
-0.150000
 20
0.0538189
 30
0.00000
  70
    32
  0
VERTEX
  8
0
  5
A588
 10
-0.150000
 20
0.0554720
 30
0.00000
  70
    32
  0
VERTEX
  8
0
  5
A589
 10
-0.150000
 20
0.0571512
 30
0.00000
  70
    32
  0
VERTEX
  8
0
  5
A58A
 10
-0.150000
 20
0.0588565
 30
0.00000
  70
    32
  0
VERTEX
  8
0
  5
A58B
 10
-0.150000
 20
0.0605879
 30
0.00000
  70
    32
  0
VERTEX
  8
0
  5
A58C
 10
-0.150000
 20
0.0623455
 30
0.00000
  70
    32
  0
VERTEX
  8
0
  5
A58D
 10
-0.150000
 20
0.0641293
 30
0.00000
  70
    32
  0
VERTEX
  8
0
  5
A58E
 10
-0.150000
 20
0.0659393
 30
0.00000
  70
    32
  0
VERTEX
  8
0
  5
A58F
 10
-0.150000
 20
0.0677757
 30
0.00000
  70
    32
  0
VERTEX
  8
0
  5
A590
 10
-0.150000
 20
0.0696383
 30
0.00000
  70
    32
  0
VERTEX
  8
0
  5
A591
 10
-0.150000
 20
0.0715274
 30
0.00000
  70
    32
  0
VERTEX
  8
0
  5
A592
 10
-0.150000
 20
0.0734429
 30
0.00000
  70
    32
  0
VERTEX
  8
0
  5
A593
 10
-0.150000
 20
0.0753849
 30
0.00000
  70
    32
  0
VERTEX
  8
0
  5
A594
 10
-0.150000
 20
0.0773534
 30
-1.53910e-24
  70
    32
  0
VERTEX
  8
0
  5
A595
 10
-0.150000
 20
0.0793485
 30
-1.92505e-22
  70
    32
  0
VERTEX
  8
0
  5
A596
 10
-0.150000
 20
0.0813698
 30
-1.12276e-21
  70
    32
  0
VERTEX
  8
0
  5
A597
 10
-0.150000
 20
0.0834174
 30
-3.38378e-21
  70
    32
  0
VERTEX
  8
0
  5
A598
 10
-0.150000
 20
0.0854909
 30
-7.56701e-21
  70
    32
  0
VERTEX
  8
0
  5
A599
 10
-0.150000
 20
0.0875903
 30
-1.42639e-20
  70
    32
  0
VERTEX
  8
0
  5
A59A
 10
-0.150000
 20
0.0897154
 30
-2.40660e-20
  70
    32
  0
VERTEX
  8
0
  5
A59B
 10
-0.150000
 20
0.0918660
 30
-3.75647e-20
  70
    32
  0
VERTEX
  8
0
  5
A59C
 10
-0.150000
 20
0.0940419
 30
-5.53514e-20
  70
    32
  0
VERTEX
  8
0
  5
A59D
 10
-0.150000
 20
0.0962429
 30
-7.80177e-20
  70
    32
  0
VERTEX
  8
0
  5
A59E
 10
-0.150000
 20
0.0984689
 30
-1.06155e-19
  70
    32
  0
VERTEX
  8
0
  5
A59F
 10
-0.150000
 20
0.100720
 30
-1.40355e-19
  70
    32
  0
VERTEX
  8
0
  5
A5A0
 10
-0.150000
 20
0.102995
 30
-1.81209e-19
  70
    32
  0
VERTEX
  8
0
  5
A5A1
 10
-0.150000
 20
0.105295
 30
-2.29308e-19
  70
    32
  0
VERTEX
  8
0
  5
A5A2
 10
-0.150000
 20
0.107620
 30
-2.85244e-19
  70
    32
  0
VERTEX
  8
0
  5
A5A3
 10
-0.150000
 20
0.109968
 30
-3.49608e-19
  70
    32
  0
VERTEX
  8
0
  5
A5A4
 10
-0.150000
 20
0.112340
 30
-4.22992e-19
  70
    32
  0
VERTEX
  8
0
  5
A5A5
 10
-0.150000
 20
0.114737
 30
-5.05987e-19
  70
    32
  0
VERTEX
  8
0
  5
A5A6
 10
-0.150000
 20
0.117156
 30
-5.99185e-19
  70
    32
  0
VERTEX
  8
0
  5
A5A7
 10
-0.150000
 20
0.119600
 30
-7.03178e-19
  70
    32
  0
VERTEX
  8
0
  5
A5A8
 10
-0.150000
 20
0.122066
 30
-8.18555e-19
  70
    32
  0
VERTEX
  8
0
  5
A5A9
 10
-0.150000
 20
0.124556
 30
-9.45910e-19
  70
    32
  0
VERTEX
  8
0
  5
A5AA
 10
-0.150000
 20
0.127069
 30
-1.08583e-18
  70
    32
  0
VERTEX
  8
0
  5
A5AB
 10
-0.150000
 20
0.129604
 30
-1.23892e-18
  70
    32
  0
VERTEX
  8
0
  5
A5AC
 10
-0.150000
 20
0.132162
 30
-1.40575e-18
  70
    32
  0
VERTEX
  8
0
  5
A5AD
 10
-0.150000
 20
0.134743
 30
-1.58693e-18
  70
    32
  0
VERTEX
  8
0
  5
A5AE
 10
-0.150000
 20
0.137345
 30
-1.78304e-18
  70
    32
  0
VERTEX
  8
0
  5
A5AF
 10
-0.150000
 20
0.139970
 30
-1.99468e-18
  70
    32
  0
VERTEX
  8
0
  5
A5B0
 10
-0.150000
 20
0.142617
 30
-2.22244e-18
  70
    32
  0
VERTEX
  8
0
  5
A5B1
 10
-0.150000
 20
0.145286
 30
-2.46690e-18
  70
    32
  0
VERTEX
  8
0
  5
A5B2
 10
-0.150000
 20
0.147976
 30
-2.72867e-18
  70
    32
  0
VERTEX
  8
0
  5
A5B3
 10
-0.150000
 20
0.150687
 30
-3.00832e-18
  70
    32
  0
VERTEX
  8
0
  5
A5B4
 10
-0.150000
 20
0.153420
 30
-3.30646e-18
  70
    32
  0
VERTEX
  8
0
  5
A5B5
 10
-0.150000
 20
0.156174
 30
-3.62368e-18
  70
    32
  0
VERTEX
  8
0
  5
A5B6
 10
-0.150000
 20
0.158949
 30
-3.96056e-18
  70
    32
  0
VERTEX
  8
0
  5
A5B7
 10
-0.150000
 20
0.161744
 30
-4.31770e-18
  70
    32
  0
VERTEX
  8
0
  5
A5B8
 10
-0.150000
 20
0.164561
 30
-4.69568e-18
  70
    32
  0
VERTEX
  8
0
  5
A5B9
 10
-0.150000
 20
0.167397
 30
-5.09511e-18
  70
    32
  0
VERTEX
  8
0
  5
A5BA
 10
-0.150000
 20
0.170254
 30
-5.51657e-18
  70
    32
  0
VERTEX
  8
0
  5
A5BB
 10
-0.150000
 20
0.173131
 30
-5.96065e-18
  70
    32
  0
VERTEX
  8
0
  5
A5BC
 10
-0.150000
 20
0.176028
 30
-6.42795e-18
  70
    32
  0
VERTEX
  8
0
  5
A5BD
 10
-0.150000
 20
0.178944
 30
-6.91906e-18
  70
    32
  0
VERTEX
  8
0
  5
A5BE
 10
-0.150000
 20
0.181880
 30
-7.43456e-18
  70
    32
  0
VERTEX
  8
0
  5
A5BF
 10
-0.150000
 20
0.184835
 30
-7.97505e-18
  70
    32
  0
VERTEX
  8
0
  5
A5C0
 10
-0.150000
 20
0.187810
 30
-8.54112e-18
  70
    32
  0
VERTEX
  8
0
  5
A5C1
 10
-0.150000
 20
0.190804
 30
-9.13337e-18
  70
    32
  0
VERTEX
  8
0
  5
A5C2
 10
-0.150000
 20
0.193816
 30
-9.75238e-18
  70
    32
  0
VERTEX
  8
0
  5
A5C3
 10
-0.150000
 20
0.196847
 30
-1.03987e-17
  70
    32
  0
VERTEX
  8
0
  5
A5C4
 10
-0.150000
 20
0.199897
 30
-1.10731e-17
  70
    32
  0
VERTEX
  8
0
  5
A5C5
 10
-0.150000
 20
0.202965
 30
-1.17759e-17
  70
    32
  0
VERTEX
  8
0
  5
A5C6
 10
-0.150000
 20
0.206052
 30
-1.25079e-17
  70
    32
  0
VERTEX
  8
0
  5
A5C7
 10
-0.150000
 20
0.209156
 30
-1.32696e-17
  70
    32
  0
VERTEX
  8
0
  5
A5C8
 10
-0.150000
 20
0.212278
 30
-1.40616e-17
  70
    32
  0
VERTEX
  8
0
  5
A5C9
 10
-0.150000
 20
0.215418
 30
-1.48845e-17
  70
    32
  0
VERTEX
  8
0
  5
A5CA
 10
-0.150000
 20
0.218575
 30
-1.57389e-17
  70
    32
  0
VERTEX
  8
0
  5
A5CB
 10
-0.150000
 20
0.221750
 30
-1.66254e-17
  70
    32
  0
VERTEX
  8
0
  5
A5CC
 10
-0.150000
 20
0.224942
 30
-1.75446e-17
  70
    32
  0
VERTEX
  8
0
  5
A5CD
 10
-0.150000
 20
0.228151
 30
-1.84970e-17
  70
    32
  0
VERTEX
  8
0
  5
A5CE
 10
-0.150000
 20
0.231377
 30
-1.94833e-17
  70
    32
  0
VERTEX
  8
0
  5
A5CF
 10
-0.150000
 20
0.234619
 30
-2.05041e-17
  70
    32
  0
VERTEX
  8
0
  5
A5D0
 10
-0.150000
 20
0.237878
 30
-2.15599e-17
  70
    32
  0
VERTEX
  8
0
  5
A5D1
 10
-0.150000
 20
0.241154
 30
-2.26513e-17
  70
    32
  0
VERTEX
  8
0
  5
A5D2
 10
-0.150000
 20
0.244445
 30
-2.37790e-17
  70
    32
  0
VERTEX
  8
0
  5
A5D3
 10
-0.150000
 20
0.247752
 30
-2.49435e-17
  70
    32
  0
VERTEX
  8
0
  5
A5D4
 10
-0.150000
 20
0.251076
 30
-2.61454e-17
  70
    32
  0
VERTEX
  8
0
  5
A5D5
 10
-0.150000
 20
0.254415
 30
-2.73853e-17
  70
    32
  0
VERTEX
  8
0
  5
A5D6
 10
-0.150000
 20
0.257769
 30
-2.86638e-17
  70
    32
  0
VERTEX
  8
0
  5
A5D7
 10
-0.150000
 20
0.261139
 30
-2.99815e-17
  70
    32
  0
VERTEX
  8
0
  5
A5D8
 10
-0.150000
 20
0.264523
 30
-3.13389e-17
  70
    32
  0
VERTEX
  8
0
  5
A5D9
 10
-0.150000
 20
0.267923
 30
-3.27367e-17
  70
    32
  0
VERTEX
  8
0
  5
A5DA
 10
-0.150000
 20
0.271338
 30
-3.41755e-17
  70
    32
  0
VERTEX
  8
0
  5
A5DB
 10
-0.150000
 20
0.274767
 30
-3.56558e-17
  70
    32
  0
VERTEX
  8
0
  5
A5DC
 10
-0.150000
 20
0.278211
 30
-3.71783e-17
  70
    32
  0
VERTEX
  8
0
  5
A5DD
 10
-0.150000
 20
0.281669
 30
-3.87435e-17
  70
    32
  0
VERTEX
  8
0
  5
A5DE
 10
-0.150000
 20
0.285141
 30
-4.03520e-17
  70
    32
  0
VERTEX
  8
0
  5
A5DF
 10
-0.150000
 20
0.288627
 30
-4.20045e-17
  70
    32
  0
VERTEX
  8
0
  5
A5E0
 10
-0.150000
 20
0.292126
 30
-4.37014e-17
  70
    32
  0
VERTEX
  8
0
  5
A5E1
 10
-0.150000
 20
0.295640
 30
-4.54435e-17
  70
    32
  0
VERTEX
  8
0
  5
A5E2
 10
-0.150000
 20
0.299167
 30
-4.72312e-17
  70
    32
  0
VERTEX
  8
0
  5
A5E3
 10
-0.150000
 20
0.302707
 30
-4.90652e-17
  70
    32
  0
VERTEX
  8
0
  5
A5E4
 10
-0.150000
 20
0.306262
 30
-5.09344e-17
  70
    32
  0
VERTEX
  8
0
  5
A5E5
 10
-0.150000
 20
0.309845
 30
-5.27687e-17
  70
    32
  0
VERTEX
  8
0
  5
A5E6
 10
-0.150000
 20
0.313457
 30
-5.45577e-17
  70
    32
  0
VERTEX
  8
0
  5
A5E7
 10
-0.150000
 20
0.317098
 30
-5.63024e-17
  70
    32
  0
VERTEX
  8
0
  5
A5E8
 10
-0.150000
 20
0.320768
 30
-5.80041e-17
  70
    32
  0
VERTEX
  8
0
  5
A5E9
 10
-0.150000
 20
0.324467
 30
-5.96640e-17
  70
    32
  0
VERTEX
  8
0
  5
A5EA
 10
-0.150000
 20
0.328196
 30
-6.12832e-17
  70
    32
  0
VERTEX
  8
0
  5
A5EB
 10
-0.150000
 20
0.331953
 30
-6.28629e-17
  70
    32
  0
VERTEX
  8
0
  5
A5EC
 10
-0.150000
 20
0.335739
 30
-6.44044e-17
  70
    32
  0
VERTEX
  8
0
  5
A5ED
 10
-0.150000
 20
0.339553
 30
-6.59087e-17
  70
    32
  0
VERTEX
  8
0
  5
A5EE
 10
-0.150000
 20
0.343396
 30
-6.73771e-17
  70
    32
  0
VERTEX
  8
0
  5
A5EF
 10
-0.150000
 20
0.347268
 30
-6.88107e-17
  70
    32
  0
VERTEX
  8
0
  5
A5F0
 10
-0.150000
 20
0.351168
 30
-7.02108e-17
  70
    32
  0
VERTEX
  8
0
  5
A5F1
 10
-0.150000
 20
0.355097
 30
-7.15785e-17
  70
    32
  0
VERTEX
  8
0
  5
A5F2
 10
-0.150000
 20
0.359054
 30
-7.29149e-17
  70
    32
  0
VERTEX
  8
0
  5
A5F3
 10
-0.150000
 20
0.363039
 30
-7.42214e-17
  70
    32
  0
VERTEX
  8
0
  5
A5F4
 10
-0.150000
 20
0.367052
 30
-7.54991e-17
  70
    32
  0
VERTEX
  8
0
  5
A5F5
 10
-0.150000
 20
0.371093
 30
-7.67490e-17
  70
    32
  0
VERTEX
  8
0
  5
A5F6
 10
-0.150000
 20
0.375162
 30
-7.79726e-17
  70
    32
  0
VERTEX
  8
0
  5
A5F7
 10
-0.150000
 20
0.379259
 30
-7.91708e-17
  70
    32
  0
VERTEX
  8
0
  5
A5F8
 10
-0.150000
 20
0.383383
 30
-8.03449e-17
  70
    32
  0
VERTEX
  8
0
  5
A5F9
 10
-0.150000
 20
0.387536
 30
-8.14961e-17
  70
    32
  0
VERTEX
  8
0
  5
A5FA
 10
-0.150000
 20
0.391715
 30
-8.26256e-17
  70
    32
  0
VERTEX
  8
0
  5
A5FB
 10
-0.150000
 20
0.395923
 30
-8.37345e-17
  70
    32
  0
VERTEX
  8
0
  5
A5FC
 10
-0.150000
 20
0.400157
 30
-8.48241e-17
  70
    32
  0
VERTEX
  8
0
  5
A5FD
 10
-0.150000
 20
0.404419
 30
-8.58954e-17
  70
    32
  0
VERTEX
  8
0
  5
A5FE
 10
-0.150000
 20
0.408708
 30
-8.69498e-17
  70
    32
  0
VERTEX
  8
0
  5
A5FF
 10
-0.150000
 20
0.413025
 30
-8.79883e-17
  70
    32
  0
VERTEX
  8
0
  5
A600
 10
-0.150000
 20
0.417368
 30
-8.90122e-17
  70
    32
  0
VERTEX
  8
0
  5
A601
 10
-0.150000
 20
0.421739
 30
-9.00227e-17
  70
    32
  0
VERTEX
  8
0
  5
A602
 10
-0.150000
 20
0.426136
 30
-9.10208e-17
  70
    32
  0
VERTEX
  8
0
  5
A603
 10
-0.150000
 20
0.430560
 30
-9.20079e-17
  70
    32
  0
VERTEX
  8
0
  5
A604
 10
-0.150000
 20
0.435010
 30
-9.29851e-17
  70
    32
  0
VERTEX
  8
0
  5
A605
 10
-0.150000
 20
0.439488
 30
-9.39535e-17
  70
    32
  0
VERTEX
  8
0
  5
A606
 10
-0.150000
 20
0.443992
 30
-9.49144e-17
  70
    32
  0
VERTEX
  8
0
  5
A607
 10
-0.150000
 20
0.448522
 30
-9.58690e-17
  70
    32
  0
VERTEX
  8
0
  5
A608
 10
-0.150000
 20
0.453079
 30
-9.68183e-17
  70
    32
  0
VERTEX
  8
0
  5
A609
 10
-0.150000
 20
0.457662
 30
-9.77637e-17
  70
    32
  0
VERTEX
  8
0
  5
A60A
 10
-0.150000
 20
0.462271
 30
-9.87063e-17
  70
    32
  0
VERTEX
  8
0
  5
A60B
 10
-0.150000
 20
0.466906
 30
-9.96472e-17
  70
    32
  0
VERTEX
  8
0
  5
A60C
 10
-0.150000
 20
0.471567
 30
-1.00588e-16
  70
    32
  0
VERTEX
  8
0
  5
A60D
 10
-0.150000
 20
0.476254
 30
-1.01529e-16
  70
    32
  0
VERTEX
  8
0
  5
A60E
 10
-0.150000
 20
0.480967
 30
-1.02472e-16
  70
    32
  0
VERTEX
  8
0
  5
A60F
 10
-0.150000
 20
0.485706
 30
-1.03418e-16
  70
    32
  0
VERTEX
  8
0
  5
A610
 10
-0.150000
 20
0.490470
 30
-1.04369e-16
  70
    32
  0
VERTEX
  8
0
  5
A611
 10
-0.150000
 20
0.495260
 30
-1.05325e-16
  70
    32
  0
VERTEX
  8
0
  5
A612
 10
-0.150000
 20
0.500076
 30
-1.06288e-16
  70
    32
  0
VERTEX
  8
0
  5
A613
 10
-0.150000
 20
0.504916
 30
-1.07258e-16
  70
    32
  0
VERTEX
  8
0
  5
A614
 10
-0.150000
 20
0.509783
 30
-1.08238e-16
  70
    32
  0
VERTEX
  8
0
  5
A615
 10
-0.150000
 20
0.514674
 30
-1.09227e-16
  70
    32
  0
VERTEX
  8
0
  5
A616
 10
-0.150000
 20
0.519591
 30
-1.10229e-16
  70
    32
  0
VERTEX
  8
0
  5
A617
 10
-0.150000
 20
0.524532
 30
-1.11242e-16
  70
    32
  0
VERTEX
  8
0
  5
A618
 10
-0.150000
 20
0.529499
 30
-1.12270e-16
  70
    32
  0
VERTEX
  8
0
  5
A619
 10
-0.150000
 20
0.534490
 30
-1.13312e-16
  70
    32
  0
VERTEX
  8
0
  5
A61A
 10
-0.150000
 20
0.539506
 30
-1.14371e-16
  70
    32
  0
VERTEX
  8
0
  5
A61B
 10
-0.150000
 20
0.544547
 30
-1.15446e-16
  70
    32
  0
VERTEX
  8
0
  5
A61C
 10
-0.150000
 20
0.549613
 30
-1.16541e-16
  70
    32
  0
VERTEX
  8
0
  5
A61D
 10
-0.150000
 20
0.554703
 30
-1.17655e-16
  70
    32
  0
VERTEX
  8
0
  5
A61E
 10
-0.150000
 20
0.559817
 30
-1.18789e-16
  70
    32
  0
VERTEX
  8
0
  5
A61F
 10
-0.150000
 20
0.564956
 30
-1.19946e-16
  70
    32
  0
VERTEX
  8
0
  5
A620
 10
-0.150000
 20
0.570119
 30
-1.21126e-16
  70
    32
  0
VERTEX
  8
0
  5
A621
 10
-0.150000
 20
0.575307
 30
-1.22331e-16
  70
    32
  0
VERTEX
  8
0
  5
A622
 10
-0.150000
 20
0.580518
 30
-1.23561e-16
  70
    32
  0
VERTEX
  8
0
  5
A623
 10
-0.150000
 20
0.585754
 30
-1.24817e-16
  70
    32
  0
VERTEX
  8
0
  5
A624
 10
-0.150000
 20
0.591013
 30
-1.26102e-16
  70
    32
  0
VERTEX
  8
0
  5
A625
 10
-0.150000
 20
0.596296
 30
-1.27416e-16
  70
    32
  0
VERTEX
  8
0
  5
A626
 10
-0.150000
 20
0.601603
 30
-1.28760e-16
  70
    32
  0
VERTEX
  8
0
  5
A627
 10
-0.150000
 20
0.606934
 30
-1.30136e-16
  70
    32
  0
VERTEX
  8
0
  5
A628
 10
-0.150000
 20
0.612288
 30
-1.31544e-16
  70
    32
  0
VERTEX
  8
0
  5
A629
 10
-0.150000
 20
0.617666
 30
-1.32986e-16
  70
    32
  0
VERTEX
  8
0
  5
A62A
 10
-0.150000
 20
0.623067
 30
-1.34464e-16
  70
    32
  0
VERTEX
  8
0
  5
A62B
 10
-0.150000
 20
0.628491
 30
-1.35977e-16
  70
    32
  0
VERTEX
  8
0
  5
A62C
 10
-0.150000
 20
0.633939
 30
-1.37528e-16
  70
    32
  0
VERTEX
  8
0
  5
A62D
 10
-0.150000
 20
0.639410
 30
-1.39117e-16
  70
    32
  0
VERTEX
  8
0
  5
A62E
 10
-0.150000
 20
0.644904
 30
-1.40747e-16
  70
    32
  0
VERTEX
  8
0
  5
A62F
 10
-0.150000
 20
0.650421
 30
-1.42417e-16
  70
    32
  0
VERTEX
  8
0
  5
A630
 10
-0.150000
 20
0.655960
 30
-1.44129e-16
  70
    32
  0
VERTEX
  8
0
  5
A631
 10
-0.150000
 20
0.661523
 30
-1.45885e-16
  70
    32
  0
VERTEX
  8
0
  5
A632
 10
-0.150000
 20
0.667108
 30
-1.47685e-16
  70
    32
  0
VERTEX
  8
0
  5
A633
 10
-0.150000
 20
0.672716
 30
-1.49531e-16
  70
    32
  0
VERTEX
  8
0
  5
A634
 10
-0.150000
 20
0.678346
 30
-1.51397e-16
  70
    32
  0
VERTEX
  8
0
  5
A635
 10
-0.150000
 20
0.683999
 30
-1.53221e-16
  70
    32
  0
VERTEX
  8
0
  5
A636
 10
-0.150000
 20
0.689674
 30
-1.55000e-16
  70
    32
  0
VERTEX
  8
0
  5
A637
 10
-0.150000
 20
0.695370
 30
-1.56737e-16
  70
    32
  0
VERTEX
  8
0
  5
A638
 10
-0.150000
 20
0.701088
 30
-1.58434e-16
  70
    32
  0
VERTEX
  8
0
  5
A639
 10
-0.150000
 20
0.706828
 30
-1.60091e-16
  70
    32
  0
VERTEX
  8
0
  5
A63A
 10
-0.150000
 20
0.712588
 30
-1.61712e-16
  70
    32
  0
VERTEX
  8
0
  5
A63B
 10
-0.150000
 20
0.718369
 30
-1.63298e-16
  70
    32
  0
VERTEX
  8
0
  5
A63C
 10
-0.150000
 20
0.724170
 30
-1.64850e-16
  70
    32
  0
VERTEX
  8
0
  5
A63D
 10
-0.150000
 20
0.729992
 30
-1.66371e-16
  70
    32
  0
VERTEX
  8
0
  5
A63E
 10
-0.150000
 20
0.735833
 30
-1.67861e-16
  70
    32
  0
VERTEX
  8
0
  5
A63F
 10
-0.150000
 20
0.741694
 30
-1.69324e-16
  70
    32
  0
VERTEX
  8
0
  5
A640
 10
-0.150000
 20
0.747575
 30
-1.70760e-16
  70
    32
  0
VERTEX
  8
0
  5
A641
 10
-0.150000
 20
0.753474
 30
-1.72172e-16
  70
    32
  0
VERTEX
  8
0
  5
A642
 10
-0.150000
 20
0.759392
 30
-1.73561e-16
  70
    32
  0
VERTEX
  8
0
  5
A643
 10
-0.150000
 20
0.765329
 30
-1.74929e-16
  70
    32
  0
VERTEX
  8
0
  5
A644
 10
-0.150000
 20
0.771284
 30
-1.76277e-16
  70
    32
  0
VERTEX
  8
0
  5
A645
 10
-0.150000
 20
0.777258
 30
-1.77609e-16
  70
    32
  0
VERTEX
  8
0
  5
A646
 10
-0.150000
 20
0.783249
 30
-1.78924e-16
  70
    32
  0
VERTEX
  8
0
  5
A647
 10
-0.150000
 20
0.789257
 30
-1.80226e-16
  70
    32
  0
VERTEX
  8
0
  5
A648
 10
-0.150000
 20
0.795283
 30
-1.81516e-16
  70
    32
  0
VERTEX
  8
0
  5
A649
 10
-0.150000
 20
0.801325
 30
-1.82795e-16
  70
    32
  0
VERTEX
  8
0
  5
A64A
 10
-0.150000
 20
0.807384
 30
-1.84065e-16
  70
    32
  0
VERTEX
  8
0
  5
A64B
 10
-0.150000
 20
0.813460
 30
-1.85329e-16
  70
    32
  0
VERTEX
  8
0
  5
A64C
 10
-0.150000
 20
0.819552
 30
-1.86588e-16
  70
    32
  0
VERTEX
  8
0
  5
A64D
 10
-0.150000
 20
0.825659
 30
-1.87844e-16
  70
    32
  0
VERTEX
  8
0
  5
A64E
 10
-0.150000
 20
0.831782
 30
-1.89098e-16
  70
    32
  0
VERTEX
  8
0
  5
A64F
 10
-0.150000
 20
0.837921
 30
-1.90352e-16
  70
    32
  0
VERTEX
  8
0
  5
A650
 10
-0.150000
 20
0.844074
 30
-1.91609e-16
  70
    32
  0
VERTEX
  8
0
  5
A651
 10
-0.150000
 20
0.850243
 30
-1.92869e-16
  70
    32
  0
VERTEX
  8
0
  5
A652
 10
-0.150000
 20
0.856426
 30
-1.94135e-16
  70
    32
  0
VERTEX
  8
0
  5
A653
 10
-0.150000
 20
0.862623
 30
-1.95408e-16
  70
    32
  0
VERTEX
  8
0
  5
A654
 10
-0.150000
 20
0.868834
 30
-1.96691e-16
  70
    32
  0
VERTEX
  8
0
  5
A655
 10
-0.150000
 20
0.875059
 30
-1.97984e-16
  70
    32
  0
VERTEX
  8
0
  5
A656
 10
-0.150000
 20
0.881297
 30
-1.99290e-16
  70
    32
  0
VERTEX
  8
0
  5
A657
 10
-0.150000
 20
0.887549
 30
-2.00611e-16
  70
    32
  0
VERTEX
  8
0
  5
A658
 10
-0.150000
 20
0.893813
 30
-2.01948e-16
  70
    32
  0
VERTEX
  8
0
  5
A659
 10
-0.150000
 20
0.900090
 30
-2.03303e-16
  70
    32
  0
VERTEX
  8
0
  5
A65A
 10
-0.150000
 20
0.906379
 30
-2.04677e-16
  70
    32
  0
VERTEX
  8
0
  5
A65B
 10
-0.150000
 20
0.912681
 30
-2.06074e-16
  70
    32
  0
VERTEX
  8
0
  5
A65C
 10
-0.150000
 20
0.918994
 30
-2.07493e-16
  70
    32
  0
VERTEX
  8
0
  5
A65D
 10
-0.150000
 20
0.925319
 30
-2.08938e-16
  70
    32
  0
VERTEX
  8
0
  5
A65E
 10
-0.150000
 20
0.931655
 30
-2.10410e-16
  70
    32
  0
VERTEX
  8
0
  5
A65F
 10
-0.150000
 20
0.938002
 30
-2.11910e-16
  70
    32
  0
VERTEX
  8
0
  5
A660
 10
-0.150000
 20
0.944360
 30
-2.13441e-16
  70
    32
  0
VERTEX
  8
0
  5
A661
 10
-0.150000
 20
0.950728
 30
-2.15005e-16
  70
    32
  0
VERTEX
  8
0
  5
A662
 10
-0.150000
 20
0.957107
 30
-2.16602e-16
  70
    32
  0
VERTEX
  8
0
  5
A663
 10
-0.150000
 20
0.963495
 30
-2.18235e-16
  70
    32
  0
VERTEX
  8
0
  5
A664
 10
-0.150000
 20
0.969894
 30
-2.19905e-16
  70
    32
  0
VERTEX
  8
0
  5
A665
 10
-0.150000
 20
0.976301
 30
-2.21615e-16
  70
    32
  0
VERTEX
  8
0
  5
A666
 10
-0.150000
 20
0.982718
 30
-2.23366e-16
  70
    32
  0
VERTEX
  8
0
  5
A667
 10
-0.150000
 20
0.989144
 30
-2.25160e-16
  70
    32
  0
VERTEX
  8
0
  5
A668
 10
-0.150000
 20
0.995578
 30
-2.26998e-16
  70
    32
  0
VERTEX
  8
0
  5
A669
 10
-0.150000
 20
1.00202
 30
-2.28883e-16
  70
    32
  0
VERTEX
  8
0
  5
A66A
 10
-0.150000
 20
1.00847
 30
-2.30816e-16
  70
    32
  0
VERTEX
  8
0
  5
A66B
 10
-0.150000
 20
1.01493
 30
-2.32799e-16
  70
    32
  0
VERTEX
  8
0
  5
A66C
 10
-0.150000
 20
1.02140
 30
-2.34834e-16
  70
    32
  0
VERTEX
  8
0
  5
A66D
 10
-0.150000
 20
1.02787
 30
-2.36922e-16
  70
    32
  0
VERTEX
  8
0
  5
A66E
 10
-0.150000
 20
1.03435
 30
-2.39066e-16
  70
    32
  0
VERTEX
  8
0
  5
A66F
 10
-0.150000
 20
1.04084
 30
-2.41267e-16
  70
    32
  0
VERTEX
  8
0
  5
A670
 10
-0.150000
 20
1.04733
 30
-2.43526e-16
  70
    32
  0
VERTEX
  8
0
  5
A671
 10
-0.150000
 20
1.05383
 30
-2.45846e-16
  70
    32
  0
VERTEX
  8
0
  5
A672
 10
-0.150000
 20
1.06033
 30
-2.48229e-16
  70
    32
  0
VERTEX
  8
0
  5
A673
 10
-0.150000
 20
1.06685
 30
-2.50676e-16
  70
    32
  0
VERTEX
  8
0
  5
A674
 10
-0.150000
 20
1.07336
 30
-2.53189e-16
  70
    32
  0
VERTEX
  8
0
  5
A675
 10
-0.150000
 20
1.07988
 30
-2.55769e-16
  70
    32
  0
VERTEX
  8
0
  5
A676
 10
-0.150000
 20
1.08641
 30
-2.58419e-16
  70
    32
  0
VERTEX
  8
0
  5
A677
 10
-0.150000
 20
1.09294
 30
-2.61140e-16
  70
    32
  0
VERTEX
  8
0
  5
A678
 10
-0.150000
 20
1.09948
 30
-2.63935e-16
  70
    32
  0
VERTEX
  8
0
  5
A679
 10
-0.150000
 20
1.10602
 30
-2.66804e-16
  70
    32
  0
VERTEX
  8
0
  5
A67A
 10
-0.150000
 20
1.11256
 30
-2.69749e-16
  70
    32
  0
VERTEX
  8
0
  5
A67B
 10
-0.150000
 20
1.11911
 30
-2.72773e-16
  70
    32
  0
VERTEX
  8
0
  5
A67C
 10
-0.150000
 20
1.12566
 30
-2.75878e-16
  70
    32
  0
VERTEX
  8
0
  5
A67D
 10
-0.150000
 20
1.13221
 30
-2.79064e-16
  70
    32
  0
VERTEX
  8
0
  5
A67E
 10
-0.150000
 20
1.13876
 30
-2.82333e-16
  70
    32
  0
VERTEX
  8
0
  5
A67F
 10
-0.150000
 20
1.14532
 30
-2.85689e-16
  70
    32
  0
VERTEX
  8
0
  5
A680
 10
-0.150000
 20
1.15188
 30
-2.89131e-16
  70
    32
  0
VERTEX
  8
0
  5
A681
 10
-0.150000
 20
1.15844
 30
-2.92663e-16
  70
    32
  0
VERTEX
  8
0
  5
A682
 10
-0.150000
 20
1.16501
 30
-2.96285e-16
  70
    32
  0
VERTEX
  8
0
  5
A683
 10
-0.150000
 20
1.17157
 30
-3.00000e-16
  70
    32
  0
SEQEND
  8
0
  5
A684
  0
LINE
  5
9E5F
  8
0
  6
CONTINUOUS
 62
     3
 10
-0.1499999999999703
 20
0.0000000000000253
 30
0.0
 11
-86.0502525316937152
 21
0.0000000000000444
 31
0.0
210
0.0
220
1.0
230
-0.0000000000000002
  0
LINE
  5
9E60
  8
0
  6
CONTINUOUS
 62
     3
 10
-0.1499999999999773
 20
0.0000000000000711
 30
0.0
 11
0.1499999999999773
 21
0.0000000000000711
 31
0.0
210
0.0
220
1.0
230
-0.0000000000000002
  0
LINE
  5
9E61
  8
0
  6
CONTINUOUS
 62
     3
 10
-0.1499999999999773
 20
2.2928932188135649
 30
-0.0000000000000005
 11
-0.1499999999999773
 21
3.0000000000000879
 31
-0.0000000000000007
210
0.0
220
1.0
230
-0.0000000000000002
  0
LINE
  5
9E62
  8
0
  6
CONTINUOUS
 62
     3
 10
-0.1499999999999773
 20
1.1715728752538159
 30
-0.0000000000000003
 11
-0.1499999999999773
 21
2.2928932188135511
 31
-0.0000000000000005
210
0.0
220
1.0
230
-0.0000000000000002
  0
LINE
  5
9E63
  8
0
  6
CONTINUOUS
 62
     3
 10
-89.9999999999995168
 20
2.292893218813548
 30
-0.0000000000000005
 11
-0.1499999999999773
 21
2.292893218813568
 31
-0.0000000000000005
210
0.0
220
1.0
230
-0.0000000000000002
  0
LINE
  5
9E64
  8
0
  6
CONTINUOUS
 62
     3
 10
89.292893218812992
 20
3.0000000000000719
 30
-0.0000000000000007
 11
89.9999999999995453
 21
2.2928932188135471
 31
-0.0000000000000005
210
0.0
220
1.0
230
-0.0000000000000002
  0
LINE
  5
9E65
  8
0
  6
CONTINUOUS
 62
     3
 10
88.8786796564399566
 20
1.171572875253811
 30
-0.0000000000000003
 11
89.9999999999995453
 21
2.2928932188135329
 31
-0.0000000000000005
210
0.0
220
1.0
230
-0.0000000000000002
  0
ARC
  5
9E66
  8
0
  6
CONTINUOUS
 62
     3
 10
-86.0502525316936868
 20
4.0000000000002789
 30
0.0
 40
4.0000000000002318
210
0.0
220
-0.0000000000000002
230
-1.0
 50
225.0000000000019043
 51
269.9999999999993747
  0
ARC
  5
9E67
  8
0
  6
CONTINUOUS
 62
     3
 10
86.0502525316936868
 20
4.0000000000002789
 30
0.0
 40
4.0000000000002336
210
0.0
220
-0.0000000000000002
230
-1.0
 50
270.0
 51
314.9999999999973284
  0
LINE
  5
9E68
  8
0
  6
CONTINUOUS
 62
     3
 10
-89.292893218812992
 20
3.0000000000000719
 30
-0.0000000000000007
 11
-89.9999999999995453
 21
2.2928932188135471
 31
-0.0000000000000005
210
0.0
220
1.0
230
-0.0000000000000002
  0
LINE
  5
9E69
  8
0
  6
CONTINUOUS
 62
     3
 10
-88.8786796564399566
 20
1.171572875253811
 30
-0.0000000000000003
 11
-89.9999999999995453
 21
2.2928932188135329
 31
-0.0000000000000005
210
0.0
220
1.0
230
-0.0000000000000002
  0
LINE
  5
9E6A
  8
0
  6
HIDDEN2
 62
     1
 10
0.1499999999999826
 20
1.000000000000087
 30
-0.0000000000000002
 11
86.0502525316937152
 21
1.0000000000000671
 31
-0.0000000000000002
210
0.0
220
1.0
230
-0.0000000000000002
  0
LINE
  5
9E6B
  8
0
  6
HIDDEN2
 62
     1
 10
-86.0502525316937579
 20
1.0000000000000671
 30
-0.0000000000000002
 11
-0.1499999999999773
 21
1.0000000000000859
 31
-0.0000000000000002
210
0.0
220
1.0
230
-0.0000000000000002
  0
LINE
  5
9E6C
  8
0
  6
HIDDEN2
 62
     1
 10
-4.2071519912462341
 20
0.0000000000000142
 30
0.0
 11
-4.2071519912462341
 21
0.9999999999999007
 31
-0.0000000000000002
210
0.0
220
1.0
230
-0.0000000000000002
  0
LINE
  5
9E6D
  8
0
  6
HIDDEN2
 62
     1
 10
-4.0504237592494974
 20
0.0000000000000142
 30
0.0
 11
-4.0504237592494974
 21
0.9999999999999007
 31
-0.0000000000000002
210
0.0
220
1.0
230
-0.0000000000000002
  0
LINE
  5
9E6E
  8
0
  6
HIDDEN2
 62
     1
 10
88.1715728752534034
 20
1.8786796564403789
 30
-0.0000000000000004
 11
89.2928932188130062
 21
3.0000000000000582
 31
-0.0000000000000007
210
0.0
220
1.0
230
-0.0000000000000002
  0
LINE
  5
9E6F
  8
0
  6
HIDDEN2
 62
     1
 10
-88.1715728752534034
 20
1.8786796564403789
 30
-0.0000000000000004
 11
-89.2928932188130062
 21
3.0000000000000582
 31
-0.0000000000000007
210
0.0
220
1.0
230
-0.0000000000000002
  0
ARC
  5
9E70
  8
0
  6
HIDDEN2
 62
     1
 10
-86.0502525316937152
 20
4.0000000000002149
 30
0.0
 40
3.000000000000151
210
0.0
220
-0.0000000000000002
230
-1.0
 50
225.0000000000019895
 51
269.9999999999997158
  0
ARC
  5
9E71
  8
0
  6
HIDDEN2
 62
     1
 10
86.0502525316937152
 20
4.0000000000002096
 30
0.0
 40
3.0000000000001421
210
0.0
220
-0.0000000000000002
230
-1.0
 50
270.0
 51
314.9999999999977831
  0
LINE
  5
9E72
  8
0
  6
HIDDEN2
 62
     1
 10
31.9999999999999716
 20
0.0000000000000711
 30
0.0
 11
31.9999999999999716
 21
1.0000000000000711
 31
-0.0000000000000002
210
0.0
220
1.0
230
-0.0000000000000002
  0
LINE
  5
9E73
  8
0
  6
HIDDEN2
 62
     1
 10
-10.3499999999999002
 20
1.0000000000000671
 30
-0.0000000000000002
 11
-10.3499999999999002
 21
0.0000000000000711
 31
0.0
210
0.0
220
1.0
230
-0.0000000000000002
  0
LINE
  5
9E74
  8
0
  6
HIDDEN2
 62
     1
 10
-10.6500000000000004
 20
1.0000000000000671
 30
-0.0000000000000002
 11
-10.6500000000000004
 21
0.0000000000000711
 31
0.0
210
0.0
220
1.0
230
-0.0000000000000002
  0
LINE
  5
9E75
  8
0
  6
HIDDEN2
 62
     1
 10
-31.9999999999999716
 20
0.0000000000000711
 30
0.0
 11
-31.9999999999999716
 21
1.0000000000000711
 31
-0.0000000000000002
210
0.0
220
1.0
230
-0.0000000000000002
  0
ENDBLK
  5
9E77
  8
0
  0
BLOCK
  8
0
  2
A$C2BF945A1
 70
     0
 10
0.0
 20
0.0
 30
0.0
  3
A$C2BF945A1
  1

  0
LINE
  5
9E7B
  8
0
  6
CONTINUOUS
 62
     3
 10
-89.2927672288542169
 20
3.0000000000001119
 30
-0.0000000000000007
 11
89.2927672288542169
 21
3.000000000000032
 31
-0.0000000000000007
210
0.0000000000000002
220
1.0
230
-0.0000000000000002
  0
LINE
  5
9E7C
  8
0
  6
CONTINUOUS
 62
     3
 10
-89.2927672288542027
 20
3.0000000000001079
 30
-0.0000000000000007
 11
-89.9998749999127341
 21
2.2928932188135849
 31
-0.0000000000000005
210
0.0000000000000002
220
1.0
230
-0.0000000000000002
  0
LINE
  5
9E7D
  8
0
  6
CONTINUOUS
 62
     3
 10
-89.9998749999127483
 20
2.292893218813588
 30
-0.0000000000000005
 11
89.9998749999127483
 21
2.292893218813508
 31
-0.0000000000000005
210
0.0000000000000002
220
1.0
230
-0.0000000000000002
  0
LINE
  5
9E7E
  8
0
  6
CONTINUOUS
 62
     3
 10
89.9998749999127341
 20
2.2928932188135098
 30
-0.0000000000000005
 11
89.2927672288542027
 21
3.0000000000000351
 31
-0.0000000000000007
210
0.0000000000000002
220
1.0
230
-0.0000000000000002
  0
LINE
  5
9E7F
  8
0
  6
CONTINUOUS
 62
     3
 10
-89.9998749999127483
 20
2.2928932188135711
 30
-0.0000000000000005
 11
-88.8785530793119563
 21
1.171572875253835
 31
-0.0000000000000003
210
0.0000000000000002
220
1.0
230
-0.0000000000000002
  0
LINE
  5
9E80
  8
0
  6
CONTINUOUS
 62
     3
 10
88.8785530793119989
 20
1.1715728752537871
 30
-0.0000000000000003
 11
89.9998749999127483
 21
2.292893218813481
 31
-0.0000000000000005
210
0.0000000000000002
220
1.0
230
-0.0000000000000002
  0
POLYLINE
  8
0
  5
A685
  62
3
  66
     1
 10
0.00000
 20
0.00000
 30
0.00000
  70
     8
  0
VERTEX
  8
0
  5
A686
 10
-88.8786
 20
1.17157
 30
-3.00000e-16
  70
    32
  0
VERTEX
  8
0
  5
A687
 10
-88.8720
 20
1.16501
 30
-2.96285e-16
  70
    32
  0
VERTEX
  8
0
  5
A688
 10
-88.8654
 20
1.15844
 30
-2.92663e-16
  70
    32
  0
VERTEX
  8
0
  5
A689
 10
-88.8587
 20
1.15188
 30
-2.89131e-16
  70
    32
  0
VERTEX
  8
0
  5
A68A
 10
-88.8520
 20
1.14532
 30
-2.85689e-16
  70
    32
  0
VERTEX
  8
0
  5
A68B
 10
-88.8453
 20
1.13876
 30
-2.82333e-16
  70
    32
  0
VERTEX
  8
0
  5
A68C
 10
-88.8386
 20
1.13221
 30
-2.79064e-16
  70
    32
  0
VERTEX
  8
0
  5
A68D
 10
-88.8318
 20
1.12566
 30
-2.75878e-16
  70
    32
  0
VERTEX
  8
0
  5
A68E
 10
-88.8250
 20
1.11911
 30
-2.72773e-16
  70
    32
  0
VERTEX
  8
0
  5
A68F
 10
-88.8182
 20
1.11256
 30
-2.69749e-16
  70
    32
  0
VERTEX
  8
0
  5
A690
 10
-88.8114
 20
1.10602
 30
-2.66804e-16
  70
    32
  0
VERTEX
  8
0
  5
A691
 10
-88.8045
 20
1.09948
 30
-2.63935e-16
  70
    32
  0
VERTEX
  8
0
  5
A692
 10
-88.7976
 20
1.09294
 30
-2.61140e-16
  70
    32
  0
VERTEX
  8
0
  5
A693
 10
-88.7906
 20
1.08641
 30
-2.58419e-16
  70
    32
  0
VERTEX
  8
0
  5
A694
 10
-88.7837
 20
1.07988
 30
-2.55769e-16
  70
    32
  0
VERTEX
  8
0
  5
A695
 10
-88.7767
 20
1.07336
 30
-2.53189e-16
  70
    32
  0
VERTEX
  8
0
  5
A696
 10
-88.7696
 20
1.06685
 30
-2.50676e-16
  70
    32
  0
VERTEX
  8
0
  5
A697
 10
-88.7626
 20
1.06033
 30
-2.48229e-16
  70
    32
  0
VERTEX
  8
0
  5
A698
 10
-88.7555
 20
1.05383
 30
-2.45846e-16
  70
    32
  0
VERTEX
  8
0
  5
A699
 10
-88.7484
 20
1.04733
 30
-2.43526e-16
  70
    32
  0
VERTEX
  8
0
  5
A69A
 10
-88.7412
 20
1.04084
 30
-2.41267e-16
  70
    32
  0
VERTEX
  8
0
  5
A69B
 10
-88.7341
 20
1.03435
 30
-2.39066e-16
  70
    32
  0
VERTEX
  8
0
  5
A69C
 10
-88.7269
 20
1.02787
 30
-2.36922e-16
  70
    32
  0
VERTEX
  8
0
  5
A69D
 10
-88.7197
 20
1.02140
 30
-2.34834e-16
  70
    32
  0
VERTEX
  8
0
  5
A69E
 10
-88.7124
 20
1.01493
 30
-2.32799e-16
  70
    32
  0
VERTEX
  8
0
  5
A69F
 10
-88.7051
 20
1.00847
 30
-2.30816e-16
  70
    32
  0
VERTEX
  8
0
  5
A6A0
 10
-88.6978
 20
1.00202
 30
-2.28883e-16
  70
    32
  0
VERTEX
  8
0
  5
A6A1
 10
-88.6905
 20
0.995578
 30
-2.26998e-16
  70
    32
  0
VERTEX
  8
0
  5
A6A2
 10
-88.6832
 20
0.989144
 30
-2.25160e-16
  70
    32
  0
VERTEX
  8
0
  5
A6A3
 10
-88.6758
 20
0.982718
 30
-2.23366e-16
  70
    32
  0
VERTEX
  8
0
  5
A6A4
 10
-88.6684
 20
0.976301
 30
-2.21615e-16
  70
    32
  0
VERTEX
  8
0
  5
A6A5
 10
-88.6609
 20
0.969894
 30
-2.19905e-16
  70
    32
  0
VERTEX
  8
0
  5
A6A6
 10
-88.6535
 20
0.963495
 30
-2.18235e-16
  70
    32
  0
VERTEX
  8
0
  5
A6A7
 10
-88.6460
 20
0.957107
 30
-2.16602e-16
  70
    32
  0
VERTEX
  8
0
  5
A6A8
 10
-88.6385
 20
0.950728
 30
-2.15005e-16
  70
    32
  0
VERTEX
  8
0
  5
A6A9
 10
-88.6310
 20
0.944360
 30
-2.13441e-16
  70
    32
  0
VERTEX
  8
0
  5
A6AA
 10
-88.6234
 20
0.938002
 30
-2.11910e-16
  70
    32
  0
VERTEX
  8
0
  5
A6AB
 10
-88.6159
 20
0.931655
 30
-2.10410e-16
  70
    32
  0
VERTEX
  8
0
  5
A6AC
 10
-88.6083
 20
0.925319
 30
-2.08938e-16
  70
    32
  0
VERTEX
  8
0
  5
A6AD
 10
-88.6006
 20
0.918994
 30
-2.07493e-16
  70
    32
  0
VERTEX
  8
0
  5
A6AE
 10
-88.5930
 20
0.912681
 30
-2.06074e-16
  70
    32
  0
VERTEX
  8
0
  5
A6AF
 10
-88.5853
 20
0.906379
 30
-2.04677e-16
  70
    32
  0
VERTEX
  8
0
  5
A6B0
 10
-88.5776
 20
0.900090
 30
-2.03303e-16
  70
    32
  0
VERTEX
  8
0
  5
A6B1
 10
-88.5699
 20
0.893813
 30
-2.01948e-16
  70
    32
  0
VERTEX
  8
0
  5
A6B2
 10
-88.5622
 20
0.887549
 30
-2.00611e-16
  70
    32
  0
VERTEX
  8
0
  5
A6B3
 10
-88.5544
 20
0.881297
 30
-1.99290e-16
  70
    32
  0
VERTEX
  8
0
  5
A6B4
 10
-88.5466
 20
0.875059
 30
-1.97984e-16
  70
    32
  0
VERTEX
  8
0
  5
A6B5
 10
-88.5388
 20
0.868834
 30
-1.96691e-16
  70
    32
  0
VERTEX
  8
0
  5
A6B6
 10
-88.5310
 20
0.862623
 30
-1.95408e-16
  70
    32
  0
VERTEX
  8
0
  5
A6B7
 10
-88.5232
 20
0.856426
 30
-1.94135e-16
  70
    32
  0
VERTEX
  8
0
  5
A6B8
 10
-88.5153
 20
0.850243
 30
-1.92869e-16
  70
    32
  0
VERTEX
  8
0
  5
A6B9
 10
-88.5074
 20
0.844074
 30
-1.91609e-16
  70
    32
  0
VERTEX
  8
0
  5
A6BA
 10
-88.4995
 20
0.837921
 30
-1.90352e-16
  70
    32
  0
VERTEX
  8
0
  5
A6BB
 10
-88.4916
 20
0.831782
 30
-1.89098e-16
  70
    32
  0
VERTEX
  8
0
  5
A6BC
 10
-88.4836
 20
0.825659
 30
-1.87844e-16
  70
    32
  0
VERTEX
  8
0
  5
A6BD
 10
-88.4756
 20
0.819552
 30
-1.86588e-16
  70
    32
  0
VERTEX
  8
0
  5
A6BE
 10
-88.4676
 20
0.813460
 30
-1.85329e-16
  70
    32
  0
VERTEX
  8
0
  5
A6BF
 10
-88.4596
 20
0.807384
 30
-1.84065e-16
  70
    32
  0
VERTEX
  8
0
  5
A6C0
 10
-88.4516
 20
0.801325
 30
-1.82795e-16
  70
    32
  0
VERTEX
  8
0
  5
A6C1
 10
-88.4435
 20
0.795283
 30
-1.81516e-16
  70
    32
  0
VERTEX
  8
0
  5
A6C2
 10
-88.4355
 20
0.789257
 30
-1.80226e-16
  70
    32
  0
VERTEX
  8
0
  5
A6C3
 10
-88.4274
 20
0.783249
 30
-1.78924e-16
  70
    32
  0
VERTEX
  8
0
  5
A6C4
 10
-88.4193
 20
0.777258
 30
-1.77609e-16
  70
    32
  0
VERTEX
  8
0
  5
A6C5
 10
-88.4111
 20
0.771284
 30
-1.76277e-16
  70
    32
  0
VERTEX
  8
0
  5
A6C6
 10
-88.4030
 20
0.765329
 30
-1.74929e-16
  70
    32
  0
VERTEX
  8
0
  5
A6C7
 10
-88.3948
 20
0.759392
 30
-1.73561e-16
  70
    32
  0
VERTEX
  8
0
  5
A6C8
 10
-88.3866
 20
0.753474
 30
-1.72172e-16
  70
    32
  0
VERTEX
  8
0
  5
A6C9
 10
-88.3784
 20
0.747575
 30
-1.70760e-16
  70
    32
  0
VERTEX
  8
0
  5
A6CA
 10
-88.3702
 20
0.741694
 30
-1.69324e-16
  70
    32
  0
VERTEX
  8
0
  5
A6CB
 10
-88.3620
 20
0.735833
 30
-1.67861e-16
  70
    32
  0
VERTEX
  8
0
  5
A6CC
 10
-88.3537
 20
0.729992
 30
-1.66371e-16
  70
    32
  0
VERTEX
  8
0
  5
A6CD
 10
-88.3455
 20
0.724170
 30
-1.64850e-16
  70
    32
  0
VERTEX
  8
0
  5
A6CE
 10
-88.3372
 20
0.718369
 30
-1.63298e-16
  70
    32
  0
VERTEX
  8
0
  5
A6CF
 10
-88.3289
 20
0.712588
 30
-1.61712e-16
  70
    32
  0
VERTEX
  8
0
  5
A6D0
 10
-88.3206
 20
0.706828
 30
-1.60091e-16
  70
    32
  0
VERTEX
  8
0
  5
A6D1
 10
-88.3122
 20
0.701088
 30
-1.58434e-16
  70
    32
  0
VERTEX
  8
0
  5
A6D2
 10
-88.3039
 20
0.695370
 30
-1.56737e-16
  70
    32
  0
VERTEX
  8
0
  5
A6D3
 10
-88.2955
 20
0.689674
 30
-1.55000e-16
  70
    32
  0
VERTEX
  8
0
  5
A6D4
 10
-88.2871
 20
0.683999
 30
-1.53221e-16
  70
    32
  0
VERTEX
  8
0
  5
A6D5
 10
-88.2787
 20
0.678346
 30
-1.51397e-16
  70
    32
  0
VERTEX
  8
0
  5
A6D6
 10
-88.2703
 20
0.672716
 30
-1.49531e-16
  70
    32
  0
VERTEX
  8
0
  5
A6D7
 10
-88.2619
 20
0.667108
 30
-1.47685e-16
  70
    32
  0
VERTEX
  8
0
  5
A6D8
 10
-88.2534
 20
0.661523
 30
-1.45885e-16
  70
    32
  0
VERTEX
  8
0
  5
A6D9
 10
-88.2450
 20
0.655960
 30
-1.44129e-16
  70
    32
  0
VERTEX
  8
0
  5
A6DA
 10
-88.2365
 20
0.650421
 30
-1.42417e-16
  70
    32
  0
VERTEX
  8
0
  5
A6DB
 10
-88.2280
 20
0.644904
 30
-1.40747e-16
  70
    32
  0
VERTEX
  8
0
  5
A6DC
 10
-88.2195
 20
0.639410
 30
-1.39117e-16
  70
    32
  0
VERTEX
  8
0
  5
A6DD
 10
-88.2110
 20
0.633939
 30
-1.37528e-16
  70
    32
  0
VERTEX
  8
0
  5
A6DE
 10
-88.2025
 20
0.628491
 30
-1.35977e-16
  70
    32
  0
VERTEX
  8
0
  5
A6DF
 10
-88.1939
 20
0.623067
 30
-1.34464e-16
  70
    32
  0
VERTEX
  8
0
  5
A6E0
 10
-88.1854
 20
0.617666
 30
-1.32986e-16
  70
    32
  0
VERTEX
  8
0
  5
A6E1
 10
-88.1768
 20
0.612288
 30
-1.31544e-16
  70
    32
  0
VERTEX
  8
0
  5
A6E2
 10
-88.1683
 20
0.606934
 30
-1.30136e-16
  70
    32
  0
VERTEX
  8
0
  5
A6E3
 10
-88.1597
 20
0.601603
 30
-1.28760e-16
  70
    32
  0
VERTEX
  8
0
  5
A6E4
 10
-88.1511
 20
0.596296
 30
-1.27416e-16
  70
    32
  0
VERTEX
  8
0
  5
A6E5
 10
-88.1425
 20
0.591013
 30
-1.26102e-16
  70
    32
  0
VERTEX
  8
0
  5
A6E6
 10
-88.1339
 20
0.585754
 30
-1.24817e-16
  70
    32
  0
VERTEX
  8
0
  5
A6E7
 10
-88.1252
 20
0.580518
 30
-1.23561e-16
  70
    32
  0
VERTEX
  8
0
  5
A6E8
 10
-88.1166
 20
0.575307
 30
-1.22331e-16
  70
    32
  0
VERTEX
  8
0
  5
A6E9
 10
-88.1080
 20
0.570119
 30
-1.21126e-16
  70
    32
  0
VERTEX
  8
0
  5
A6EA
 10
-88.0993
 20
0.564956
 30
-1.19946e-16
  70
    32
  0
VERTEX
  8
0
  5
A6EB
 10
-88.0906
 20
0.559817
 30
-1.18789e-16
  70
    32
  0
VERTEX
  8
0
  5
A6EC
 10
-88.0820
 20
0.554703
 30
-1.17655e-16
  70
    32
  0
VERTEX
  8
0
  5
A6ED
 10
-88.0733
 20
0.549613
 30
-1.16541e-16
  70
    32
  0
VERTEX
  8
0
  5
A6EE
 10
-88.0646
 20
0.544547
 30
-1.15446e-16
  70
    32
  0
VERTEX
  8
0
  5
A6EF
 10
-88.0559
 20
0.539506
 30
-1.14371e-16
  70
    32
  0
VERTEX
  8
0
  5
A6F0
 10
-88.0472
 20
0.534490
 30
-1.13312e-16
  70
    32
  0
VERTEX
  8
0
  5
A6F1
 10
-88.0385
 20
0.529499
 30
-1.12270e-16
  70
    32
  0
VERTEX
  8
0
  5
A6F2
 10
-88.0298
 20
0.524532
 30
-1.11242e-16
  70
    32
  0
VERTEX
  8
0
  5
A6F3
 10
-88.0211
 20
0.519591
 30
-1.10229e-16
  70
    32
  0
VERTEX
  8
0
  5
A6F4
 10
-88.0124
 20
0.514674
 30
-1.09227e-16
  70
    32
  0
VERTEX
  8
0
  5
A6F5
 10
-88.0037
 20
0.509783
 30
-1.08238e-16
  70
    32
  0
VERTEX
  8
0
  5
A6F6
 10
-87.9949
 20
0.504916
 30
-1.07258e-16
  70
    32
  0
VERTEX
  8
0
  5
A6F7
 10
-87.9862
 20
0.500076
 30
-1.06288e-16
  70
    32
  0
VERTEX
  8
0
  5
A6F8
 10
-87.9775
 20
0.495260
 30
-1.05325e-16
  70
    32
  0
VERTEX
  8
0
  5
A6F9
 10
-87.9687
 20
0.490470
 30
-1.04369e-16
  70
    32
  0
VERTEX
  8
0
  5
A6FA
 10
-87.9600
 20
0.485706
 30
-1.03418e-16
  70
    32
  0
VERTEX
  8
0
  5
A6FB
 10
-87.9512
 20
0.480967
 30
-1.02472e-16
  70
    32
  0
VERTEX
  8
0
  5
A6FC
 10
-87.9425
 20
0.476254
 30
-1.01529e-16
  70
    32
  0
VERTEX
  8
0
  5
A6FD
 10
-87.9337
 20
0.471567
 30
-1.00588e-16
  70
    32
  0
VERTEX
  8
0
  5
A6FE
 10
-87.9249
 20
0.466906
 30
-9.96472e-17
  70
    32
  0
VERTEX
  8
0
  5
A6FF
 10
-87.9162
 20
0.462271
 30
-9.87063e-17
  70
    32
  0
VERTEX
  8
0
  5
A700
 10
-87.9074
 20
0.457662
 30
-9.77637e-17
  70
    32
  0
VERTEX
  8
0
  5
A701
 10
-87.8987
 20
0.453079
 30
-9.68183e-17
  70
    32
  0
VERTEX
  8
0
  5
A702
 10
-87.8899
 20
0.448522
 30
-9.58690e-17
  70
    32
  0
VERTEX
  8
0
  5
A703
 10
-87.8811
 20
0.443992
 30
-9.49144e-17
  70
    32
  0
VERTEX
  8
0
  5
A704
 10
-87.8724
 20
0.439488
 30
-9.39535e-17
  70
    32
  0
VERTEX
  8
0
  5
A705
 10
-87.8636
 20
0.435010
 30
-9.29851e-17
  70
    32
  0
VERTEX
  8
0
  5
A706
 10
-87.8548
 20
0.430560
 30
-9.20079e-17
  70
    32
  0
VERTEX
  8
0
  5
A707
 10
-87.8461
 20
0.426136
 30
-9.10208e-17
  70
    32
  0
VERTEX
  8
0
  5
A708
 10
-87.8373
 20
0.421739
 30
-9.00227e-17
  70
    32
  0
VERTEX
  8
0
  5
A709
 10
-87.8286
 20
0.417368
 30
-8.90122e-17
  70
    32
  0
VERTEX
  8
0
  5
A70A
 10
-87.8198
 20
0.413025
 30
-8.79883e-17
  70
    32
  0
VERTEX
  8
0
  5
A70B
 10
-87.8110
 20
0.408708
 30
-8.69498e-17
  70
    32
  0
VERTEX
  8
0
  5
A70C
 10
-87.8023
 20
0.404419
 30
-8.58954e-17
  70
    32
  0
VERTEX
  8
0
  5
A70D
 10
-87.7935
 20
0.400157
 30
-8.48241e-17
  70
    32
  0
VERTEX
  8
0
  5
A70E
 10
-87.7848
 20
0.395923
 30
-8.37345e-17
  70
    32
  0
VERTEX
  8
0
  5
A70F
 10
-87.7760
 20
0.391715
 30
-8.26256e-17
  70
    32
  0
VERTEX
  8
0
  5
A710
 10
-87.7673
 20
0.387536
 30
-8.14961e-17
  70
    32
  0
VERTEX
  8
0
  5
A711
 10
-87.7586
 20
0.383383
 30
-8.03449e-17
  70
    32
  0
VERTEX
  8
0
  5
A712
 10
-87.7498
 20
0.379259
 30
-7.91708e-17
  70
    32
  0
VERTEX
  8
0
  5
A713
 10
-87.7411
 20
0.375162
 30
-7.79726e-17
  70
    32
  0
VERTEX
  8
0
  5
A714
 10
-87.7324
 20
0.371093
 30
-7.67490e-17
  70
    32
  0
VERTEX
  8
0
  5
A715
 10
-87.7237
 20
0.367052
 30
-7.54991e-17
  70
    32
  0
VERTEX
  8
0
  5
A716
 10
-87.7149
 20
0.363039
 30
-7.42214e-17
  70
    32
  0
VERTEX
  8
0
  5
A717
 10
-87.7062
 20
0.359054
 30
-7.29149e-17
  70
    32
  0
VERTEX
  8
0
  5
A718
 10
-87.6975
 20
0.355097
 30
-7.15785e-17
  70
    32
  0
VERTEX
  8
0
  5
A719
 10
-87.6888
 20
0.351168
 30
-7.02108e-17
  70
    32
  0
VERTEX
  8
0
  5
A71A
 10
-87.6802
 20
0.347268
 30
-6.88107e-17
  70
    32
  0
VERTEX
  8
0
  5
A71B
 10
-87.6715
 20
0.343396
 30
-6.73771e-17
  70
    32
  0
VERTEX
  8
0
  5
A71C
 10
-87.6628
 20
0.339553
 30
-6.59087e-17
  70
    32
  0
VERTEX
  8
0
  5
A71D
 10
-87.6541
 20
0.335739
 30
-6.44044e-17
  70
    32
  0
VERTEX
  8
0
  5
A71E
 10
-87.6455
 20
0.331953
 30
-6.28629e-17
  70
    32
  0
VERTEX
  8
0
  5
A71F
 10
-87.6368
 20
0.328196
 30
-6.12832e-17
  70
    32
  0
VERTEX
  8
0
  5
A720
 10
-87.6282
 20
0.324467
 30
-5.96640e-17
  70
    32
  0
VERTEX
  8
0
  5
A721
 10
-87.6196
 20
0.320768
 30
-5.80041e-17
  70
    32
  0
VERTEX
  8
0
  5
A722
 10
-87.6109
 20
0.317098
 30
-5.63024e-17
  70
    32
  0
VERTEX
  8
0
  5
A723
 10
-87.6023
 20
0.313457
 30
-5.45577e-17
  70
    32
  0
VERTEX
  8
0
  5
A724
 10
-87.5937
 20
0.309845
 30
-5.27687e-17
  70
    32
  0
VERTEX
  8
0
  5
A725
 10
-87.5851
 20
0.306262
 30
-5.09344e-17
  70
    32
  0
VERTEX
  8
0
  5
A726
 10
-87.5766
 20
0.302707
 30
-4.90652e-17
  70
    32
  0
VERTEX
  8
0
  5
A727
 10
-87.5680
 20
0.299167
 30
-4.72312e-17
  70
    32
  0
VERTEX
  8
0
  5
A728
 10
-87.5593
 20
0.295640
 30
-4.54435e-17
  70
    32
  0
VERTEX
  8
0
  5
A729
 10
-87.5507
 20
0.292126
 30
-4.37014e-17
  70
    32
  0
VERTEX
  8
0
  5
A72A
 10
-87.5420
 20
0.288627
 30
-4.20045e-17
  70
    32
  0
VERTEX
  8
0
  5
A72B
 10
-87.5333
 20
0.285141
 30
-4.03520e-17
  70
    32
  0
VERTEX
  8
0
  5
A72C
 10
-87.5245
 20
0.281669
 30
-3.87435e-17
  70
    32
  0
VERTEX
  8
0
  5
A72D
 10
-87.5157
 20
0.278211
 30
-3.71783e-17
  70
    32
  0
VERTEX
  8
0
  5
A72E
 10
-87.5069
 20
0.274767
 30
-3.56558e-17
  70
    32
  0
VERTEX
  8
0
  5
A72F
 10
-87.4981
 20
0.271338
 30
-3.41755e-17
  70
    32
  0
VERTEX
  8
0
  5
A730
 10
-87.4893
 20
0.267923
 30
-3.27367e-17
  70
    32
  0
VERTEX
  8
0
  5
A731
 10
-87.4804
 20
0.264523
 30
-3.13389e-17
  70
    32
  0
VERTEX
  8
0
  5
A732
 10
-87.4715
 20
0.261139
 30
-2.99815e-17
  70
    32
  0
VERTEX
  8
0
  5
A733
 10
-87.4626
 20
0.257769
 30
-2.86638e-17
  70
    32
  0
VERTEX
  8
0
  5
A734
 10
-87.4536
 20
0.254415
 30
-2.73853e-17
  70
    32
  0
VERTEX
  8
0
  5
A735
 10
-87.4446
 20
0.251076
 30
-2.61454e-17
  70
    32
  0
VERTEX
  8
0
  5
A736
 10
-87.4356
 20
0.247752
 30
-2.49435e-17
  70
    32
  0
VERTEX
  8
0
  5
A737
 10
-87.4266
 20
0.244445
 30
-2.37790e-17
  70
    32
  0
VERTEX
  8
0
  5
A738
 10
-87.4176
 20
0.241154
 30
-2.26513e-17
  70
    32
  0
VERTEX
  8
0
  5
A739
 10
-87.4085
 20
0.237878
 30
-2.15599e-17
  70
    32
  0
VERTEX
  8
0
  5
A73A
 10
-87.3994
 20
0.234619
 30
-2.05041e-17
  70
    32
  0
VERTEX
  8
0
  5
A73B
 10
-87.3903
 20
0.231377
 30
-1.94833e-17
  70
    32
  0
VERTEX
  8
0
  5
A73C
 10
-87.3812
 20
0.228151
 30
-1.84970e-17
  70
    32
  0
VERTEX
  8
0
  5
A73D
 10
-87.3720
 20
0.224942
 30
-1.75446e-17
  70
    32
  0
VERTEX
  8
0
  5
A73E
 10
-87.3628
 20
0.221750
 30
-1.66254e-17
  70
    32
  0
VERTEX
  8
0
  5
A73F
 10
-87.3536
 20
0.218575
 30
-1.57389e-17
  70
    32
  0
VERTEX
  8
0
  5
A740
 10
-87.3444
 20
0.215418
 30
-1.48845e-17
  70
    32
  0
VERTEX
  8
0
  5
A741
 10
-87.3352
 20
0.212278
 30
-1.40616e-17
  70
    32
  0
VERTEX
  8
0
  5
A742
 10
-87.3259
 20
0.209156
 30
-1.32696e-17
  70
    32
  0
VERTEX
  8
0
  5
A743
 10
-87.3166
 20
0.206052
 30
-1.25079e-17
  70
    32
  0
VERTEX
  8
0
  5
A744
 10
-87.3073
 20
0.202965
 30
-1.17759e-17
  70
    32
  0
VERTEX
  8
0
  5
A745
 10
-87.2980
 20
0.199897
 30
-1.10731e-17
  70
    32
  0
VERTEX
  8
0
  5
A746
 10
-87.2886
 20
0.196847
 30
-1.03987e-17
  70
    32
  0
VERTEX
  8
0
  5
A747
 10
-87.2793
 20
0.193816
 30
-9.75238e-18
  70
    32
  0
VERTEX
  8
0
  5
A748
 10
-87.2699
 20
0.190804
 30
-9.13337e-18
  70
    32
  0
VERTEX
  8
0
  5
A749
 10
-87.2605
 20
0.187810
 30
-8.54112e-18
  70
    32
  0
VERTEX
  8
0
  5
A74A
 10
-87.2511
 20
0.184835
 30
-7.97505e-18
  70
    32
  0
VERTEX
  8
0
  5
A74B
 10
-87.2416
 20
0.181880
 30
-7.43456e-18
  70
    32
  0
VERTEX
  8
0
  5
A74C
 10
-87.2322
 20
0.178944
 30
-6.91906e-18
  70
    32
  0
VERTEX
  8
0
  5
A74D
 10
-87.2227
 20
0.176028
 30
-6.42795e-18
  70
    32
  0
VERTEX
  8
0
  5
A74E
 10
-87.2132
 20
0.173131
 30
-5.96065e-18
  70
    32
  0
VERTEX
  8
0
  5
A74F
 10
-87.2037
 20
0.170254
 30
-5.51657e-18
  70
    32
  0
VERTEX
  8
0
  5
A750
 10
-87.1942
 20
0.167397
 30
-5.09511e-18
  70
    32
  0
VERTEX
  8
0
  5
A751
 10
-87.1846
 20
0.164561
 30
-4.69568e-18
  70
    32
  0
VERTEX
  8
0
  5
A752
 10
-87.1751
 20
0.161744
 30
-4.31770e-18
  70
    32
  0
VERTEX
  8
0
  5
A753
 10
-87.1655
 20
0.158949
 30
-3.96056e-18
  70
    32
  0
VERTEX
  8
0
  5
A754
 10
-87.1559
 20
0.156174
 30
-3.62368e-18
  70
    32
  0
VERTEX
  8
0
  5
A755
 10
-87.1463
 20
0.153420
 30
-3.30646e-18
  70
    32
  0
VERTEX
  8
0
  5
A756
 10
-87.1367
 20
0.150687
 30
-3.00832e-18
  70
    32
  0
VERTEX
  8
0
  5
A757
 10
-87.1271
 20
0.147976
 30
-2.72867e-18
  70
    32
  0
VERTEX
  8
0
  5
A758
 10
-87.1175
 20
0.145286
 30
-2.46690e-18
  70
    32
  0
VERTEX
  8
0
  5
A759
 10
-87.1078
 20
0.142617
 30
-2.22244e-18
  70
    32
  0
VERTEX
  8
0
  5
A75A
 10
-87.0981
 20
0.139970
 30
-1.99468e-18
  70
    32
  0
VERTEX
  8
0
  5
A75B
 10
-87.0884
 20
0.137345
 30
-1.78304e-18
  70
    32
  0
VERTEX
  8
0
  5
A75C
 10
-87.0787
 20
0.134743
 30
-1.58693e-18
  70
    32
  0
VERTEX
  8
0
  5
A75D
 10
-87.0690
 20
0.132162
 30
-1.40575e-18
  70
    32
  0
VERTEX
  8
0
  5
A75E
 10
-87.0593
 20
0.129604
 30
-1.23892e-18
  70
    32
  0
VERTEX
  8
0
  5
A75F
 10
-87.0496
 20
0.127069
 30
-1.08583e-18
  70
    32
  0
VERTEX
  8
0
  5
A760
 10
-87.0398
 20
0.124556
 30
-9.45910e-19
  70
    32
  0
VERTEX
  8
0
  5
A761
 10
-87.0301
 20
0.122066
 30
-8.18555e-19
  70
    32
  0
VERTEX
  8
0
  5
A762
 10
-87.0203
 20
0.119600
 30
-7.03178e-19
  70
    32
  0
VERTEX
  8
0
  5
A763
 10
-87.0105
 20
0.117156
 30
-5.99185e-19
  70
    32
  0
VERTEX
  8
0
  5
A764
 10
-87.0007
 20
0.114737
 30
-5.05987e-19
  70
    32
  0
VERTEX
  8
0
  5
A765
 10
-86.9909
 20
0.112340
 30
-4.22992e-19
  70
    32
  0
VERTEX
  8
0
  5
A766
 10
-86.9811
 20
0.109968
 30
-3.49608e-19
  70
    32
  0
VERTEX
  8
0
  5
A767
 10
-86.9713
 20
0.107620
 30
-2.85244e-19
  70
    32
  0
VERTEX
  8
0
  5
A768
 10
-86.9615
 20
0.105295
 30
-2.29308e-19
  70
    32
  0
VERTEX
  8
0
  5
A769
 10
-86.9516
 20
0.102995
 30
-1.81209e-19
  70
    32
  0
VERTEX
  8
0
  5
A76A
 10
-86.9418
 20
0.100720
 30
-1.40355e-19
  70
    32
  0
VERTEX
  8
0
  5
A76B
 10
-86.9319
 20
0.0984689
 30
-1.06155e-19
  70
    32
  0
VERTEX
  8
0
  5
A76C
 10
-86.9221
 20
0.0962429
 30
-7.80177e-20
  70
    32
  0
VERTEX
  8
0
  5
A76D
 10
-86.9122
 20
0.0940419
 30
-5.53514e-20
  70
    32
  0
VERTEX
  8
0
  5
A76E
 10
-86.9023
 20
0.0918660
 30
-3.75647e-20
  70
    32
  0
VERTEX
  8
0
  5
A76F
 10
-86.8924
 20
0.0897154
 30
-2.40660e-20
  70
    32
  0
VERTEX
  8
0
  5
A770
 10
-86.8825
 20
0.0875903
 30
-1.42639e-20
  70
    32
  0
VERTEX
  8
0
  5
A771
 10
-86.8726
 20
0.0854909
 30
-7.56701e-21
  70
    32
  0
VERTEX
  8
0
  5
A772
 10
-86.8627
 20
0.0834174
 30
-3.38378e-21
  70
    32
  0
VERTEX
  8
0
  5
A773
 10
-86.8528
 20
0.0813698
 30
-1.12276e-21
  70
    32
  0
VERTEX
  8
0
  5
A774
 10
-86.8429
 20
0.0793485
 30
-1.92505e-22
  70
    32
  0
VERTEX
  8
0
  5
A775
 10
-86.8330
 20
0.0773534
 30
-1.53910e-24
  70
    32
  0
VERTEX
  8
0
  5
A776
 10
-86.8230
 20
0.0753849
 30
0.00000
  70
    32
  0
VERTEX
  8
0
  5
A777
 10
-86.8131
 20
0.0734429
 30
0.00000
  70
    32
  0
VERTEX
  8
0
  5
A778
 10
-86.8032
 20
0.0715274
 30
0.00000
  70
    32
  0
VERTEX
  8
0
  5
A779
 10
-86.7932
 20
0.0696383
 30
0.00000
  70
    32
  0
VERTEX
  8
0
  5
A77A
 10
-86.7833
 20
0.0677757
 30
0.00000
  70
    32
  0
VERTEX
  8
0
  5
A77B
 10
-86.7733
 20
0.0659393
 30
0.00000
  70
    32
  0
VERTEX
  8
0
  5
A77C
 10
-86.7634
 20
0.0641293
 30
0.00000
  70
    32
  0
VERTEX
  8
0
  5
A77D
 10
-86.7534
 20
0.0623455
 30
0.00000
  70
    32
  0
VERTEX
  8
0
  5
A77E
 10
-86.7434
 20
0.0605879
 30
0.00000
  70
    32
  0
VERTEX
  8
0
  5
A77F
 10
-86.7335
 20
0.0588565
 30
0.00000
  70
    32
  0
VERTEX
  8
0
  5
A780
 10
-86.7235
 20
0.0571512
 30
0.00000
  70
    32
  0
VERTEX
  8
0
  5
A781
 10
-86.7135
 20
0.0554720
 30
0.00000
  70
    32
  0
VERTEX
  8
0
  5
A782
 10
-86.7036
 20
0.0538189
 30
0.00000
  70
    32
  0
VERTEX
  8
0
  5
A783
 10
-86.6936
 20
0.0521917
 30
0.00000
  70
    32
  0
VERTEX
  8
0
  5
A784
 10
-86.6836
 20
0.0505904
 30
0.00000
  70
    32
  0
VERTEX
  8
0
  5
A785
 10
-86.6737
 20
0.0490151
 30
0.00000
  70
    32
  0
VERTEX
  8
0
  5
A786
 10
-86.6637
 20
0.0474656
 30
0.00000
  70
    32
  0
VERTEX
  8
0
  5
A787
 10
-86.6537
 20
0.0459419
 30
0.00000
  70
    32
  0
VERTEX
  8
0
  5
A788
 10
-86.6437
 20
0.0444439
 30
0.00000
  70
    32
  0
VERTEX
  8
0
  5
A789
 10
-86.6338
 20
0.0429717
 30
0.00000
  70
    32
  0
VERTEX
  8
0
  5
A78A
 10
-86.6238
 20
0.0415252
 30
0.00000
  70
    32
  0
VERTEX
  8
0
  5
A78B
 10
-86.6138
 20
0.0401043
 30
0.00000
  70
    32
  0
VERTEX
  8
0
  5
A78C
 10
-86.6039
 20
0.0387089
 30
0.00000
  70
    32
  0
VERTEX
  8
0
  5
A78D
 10
-86.5939
 20
0.0373391
 30
0.00000
  70
    32
  0
VERTEX
  8
0
  5
A78E
 10
-86.5840
 20
0.0359948
 30
0.00000
  70
    32
  0
VERTEX
  8
0
  5
A78F
 10
-86.5740
 20
0.0346760
 30
0.00000
  70
    32
  0
VERTEX
  8
0
  5
A790
 10
-86.5640
 20
0.0333825
 30
0.00000
  70
    32
  0
VERTEX
  8
0
  5
A791
 10
-86.5541
 20
0.0321144
 30
0.00000
  70
    32
  0
VERTEX
  8
0
  5
A792
 10
-86.5441
 20
0.0308716
 30
0.00000
  70
    32
  0
VERTEX
  8
0
  5
A793
 10
-86.5342
 20
0.0296541
 30
0.00000
  70
    32
  0
VERTEX
  8
0
  5
A794
 10
-86.5243
 20
0.0284618
 30
0.00000
  70
    32
  0
VERTEX
  8
0
  5
A795
 10
-86.5143
 20
0.0272947
 30
0.00000
  70
    32
  0
VERTEX
  8
0
  5
A796
 10
-86.5044
 20
0.0261527
 30
0.00000
  70
    32
  0
VERTEX
  8
0
  5
A797
 10
-86.4945
 20
0.0250358
 30
0.00000
  70
    32
  0
VERTEX
  8
0
  5
A798
 10
-86.4846
 20
0.0239440
 30
0.00000
  70
    32
  0
VERTEX
  8
0
  5
A799
 10
-86.4747
 20
0.0228771
 30
0.00000
  70
    32
  0
VERTEX
  8
0
  5
A79A
 10
-86.4648
 20
0.0218352
 30
0.00000
  70
    32
  0
VERTEX
  8
0
  5
A79B
 10
-86.4549
 20
0.0208182
 30
0.00000
  70
    32
  0
VERTEX
  8
0
  5
A79C
 10
-86.4450
 20
0.0198261
 30
0.00000
  70
    32
  0
VERTEX
  8
0
  5
A79D
 10
-86.4351
 20
0.0188587
 30
0.00000
  70
    32
  0
VERTEX
  8
0
  5
A79E
 10
-86.4252
 20
0.0179162
 30
0.00000
  70
    32
  0
VERTEX
  8
0
  5
A79F
 10
-86.4154
 20
0.0169984
 30
0.00000
  70
    32
  0
VERTEX
  8
0
  5
A7A0
 10
-86.4055
 20
0.0161052
 30
0.00000
  70
    32
  0
VERTEX
  8
0
  5
A7A1
 10
-86.3957
 20
0.0152367
 30
0.00000
  70
    32
  0
VERTEX
  8
0
  5
A7A2
 10
-86.3858
 20
0.0143928
 30
0.00000
  70
    32
  0
VERTEX
  8
0
  5
A7A3
 10
-86.3760
 20
0.0135735
 30
0.00000
  70
    32
  0
VERTEX
  8
0
  5
A7A4
 10
-86.3662
 20
0.0127786
 30
0.00000
  70
    32
  0
VERTEX
  8
0
  5
A7A5
 10
-86.3564
 20
0.0120082
 30
0.00000
  70
    32
  0
VERTEX
  8
0
  5
A7A6
 10
-86.3466
 20
0.0112622
 30
0.00000
  70
    32
  0
VERTEX
  8
0
  5
A7A7
 10
-86.3368
 20
0.0105406
 30
0.00000
  70
    32
  0
VERTEX
  8
0
  5
A7A8
 10
-86.3270
 20
0.00984329
 30
0.00000
  70
    32
  0
VERTEX
  8
0
  5
A7A9
 10
-86.3173
 20
0.00917027
 30
0.00000
  70
    32
  0
VERTEX
  8
0
  5
A7AA
 10
-86.3075
 20
0.00852149
 30
0.00000
  70
    32
  0
VERTEX
  8
0
  5
A7AB
 10
-86.2978
 20
0.00789689
 30
0.00000
  70
    32
  0
VERTEX
  8
0
  5
A7AC
 10
-86.2881
 20
0.00729643
 30
0.00000
  70
    32
  0
VERTEX
  8
0
  5
A7AD
 10
-86.2784
 20
0.00672008
 30
0.00000
  70
    32
  0
VERTEX
  8
0
  5
A7AE
 10
-86.2687
 20
0.00616777
 30
0.00000
  70
    32
  0
VERTEX
  8
0
  5
A7AF
 10
-86.2590
 20
0.00563948
 30
0.00000
  70
    32
  0
VERTEX
  8
0
  5
A7B0
 10
-86.2493
 20
0.00513514
 30
0.00000
  70
    32
  0
VERTEX
  8
0
  5
A7B1
 10
-86.2397
 20
0.00465473
 30
0.00000
  70
    32
  0
VERTEX
  8
0
  5
A7B2
 10
-86.2300
 20
0.00419819
 30
0.00000
  70
    32
  0
VERTEX
  8
0
  5
A7B3
 10
-86.2204
 20
0.00376547
 30
0.00000
  70
    32
  0
VERTEX
  8
0
  5
A7B4
 10
-86.2108
 20
0.00335654
 30
0.00000
  70
    32
  0
VERTEX
  8
0
  5
A7B5
 10
-86.2012
 20
0.00297135
 30
0.00000
  70
    32
  0
VERTEX
  8
0
  5
A7B6
 10
-86.1916
 20
0.00260985
 30
0.00000
  70
    32
  0
VERTEX
  8
0
  5
A7B7
 10
-86.1821
 20
0.00227200
 30
0.00000
  70
    32
  0
VERTEX
  8
0
  5
A7B8
 10
-86.1725
 20
0.00195776
 30
0.00000
  70
    32
  0
VERTEX
  8
0
  5
A7B9
 10
-86.1630
 20
0.00166707
 30
0.00000
  70
    32
  0
VERTEX
  8
0
  5
A7BA
 10
-86.1535
 20
0.00139989
 30
0.00000
  70
    32
  0
VERTEX
  8
0
  5
A7BB
 10
-86.1440
 20
0.00115619
 30
0.00000
  70
    32
  0
VERTEX
  8
0
  5
A7BC
 10
-86.1345
 20
0.000935905
 30
0.00000
  70
    32
  0
VERTEX
  8
0
  5
A7BD
 10
-86.1251
 20
0.000739001
 30
0.00000
  70
    32
  0
VERTEX
  8
0
  5
A7BE
 10
-86.1156
 20
0.000565431
 30
0.00000
  70
    32
  0
VERTEX
  8
0
  5
A7BF
 10
-86.1062
 20
0.000415149
 30
0.00000
  70
    32
  0
VERTEX
  8
0
  5
A7C0
 10
-86.0968
 20
0.000288110
 30
0.00000
  70
    32
  0
VERTEX
  8
0
  5
A7C1
 10
-86.0874
 20
0.000184271
 30
0.00000
  70
    32
  0
VERTEX
  8
0
  5
A7C2
 10
-86.0781
 20
0.000103585
 30
0.00000
  70
    32
  0
VERTEX
  8
0
  5
A7C3
 10
-86.0687
 20
4.60077e-05
 30
0.00000
  70
    32
  0
VERTEX
  8
0
  5
A7C4
 10
-86.0594
 20
1.14944e-05
 30
0.00000
  70
    32
  0
VERTEX
  8
0
  5
A7C5
 10
-86.0501
 20
8.27000e-14
 30
0.00000
  70
    32
  0
SEQEND
  8
0
  5
A7C6
  0
LINE
  5
9E82
  8
0
  6
CONTINUOUS
 62
     3
 10
86.0501217940350358
 20
0.0000000000000444
 30
0.0
 11
-86.0501217940350358
 21
0.0000000000000444
 31
0.0
210
0.0000000000000002
220
1.0
230
-0.0000000000000002
  0
POLYLINE
  8
0
  5
A7C7
  62
3
  66
     1
 10
0.00000
 20
0.00000
 30
0.00000
  70
     8
  0
VERTEX
  8
0
  5
A7C8
 10
86.0501
 20
6.10000e-15
 30
0.00000
  70
    32
  0
VERTEX
  8
0
  5
A7C9
 10
86.0594
 20
1.14944e-05
 30
0.00000
  70
    32
  0
VERTEX
  8
0
  5
A7CA
 10
86.0687
 20
4.60077e-05
 30
0.00000
  70
    32
  0
VERTEX
  8
0
  5
A7CB
 10
86.0781
 20
0.000103585
 30
0.00000
  70
    32
  0
VERTEX
  8
0
  5
A7CC
 10
86.0874
 20
0.000184271
 30
0.00000
  70
    32
  0
VERTEX
  8
0
  5
A7CD
 10
86.0968
 20
0.000288110
 30
0.00000
  70
    32
  0
VERTEX
  8
0
  5
A7CE
 10
86.1062
 20
0.000415149
 30
0.00000
  70
    32
  0
VERTEX
  8
0
  5
A7CF
 10
86.1156
 20
0.000565431
 30
0.00000
  70
    32
  0
VERTEX
  8
0
  5
A7D0
 10
86.1251
 20
0.000739001
 30
0.00000
  70
    32
  0
VERTEX
  8
0
  5
A7D1
 10
86.1345
 20
0.000935905
 30
0.00000
  70
    32
  0
VERTEX
  8
0
  5
A7D2
 10
86.1440
 20
0.00115619
 30
0.00000
  70
    32
  0
VERTEX
  8
0
  5
A7D3
 10
86.1535
 20
0.00139989
 30
0.00000
  70
    32
  0
VERTEX
  8
0
  5
A7D4
 10
86.1630
 20
0.00166707
 30
0.00000
  70
    32
  0
VERTEX
  8
0
  5
A7D5
 10
86.1725
 20
0.00195776
 30
0.00000
  70
    32
  0
VERTEX
  8
0
  5
A7D6
 10
86.1821
 20
0.00227200
 30
0.00000
  70
    32
  0
VERTEX
  8
0
  5
A7D7
 10
86.1916
 20
0.00260985
 30
0.00000
  70
    32
  0
VERTEX
  8
0
  5
A7D8
 10
86.2012
 20
0.00297135
 30
0.00000
  70
    32
  0
VERTEX
  8
0
  5
A7D9
 10
86.2108
 20
0.00335654
 30
0.00000
  70
    32
  0
VERTEX
  8
0
  5
A7DA
 10
86.2204
 20
0.00376547
 30
0.00000
  70
    32
  0
VERTEX
  8
0
  5
A7DB
 10
86.2300
 20
0.00419819
 30
0.00000
  70
    32
  0
VERTEX
  8
0
  5
A7DC
 10
86.2397
 20
0.00465473
 30
0.00000
  70
    32
  0
VERTEX
  8
0
  5
A7DD
 10
86.2493
 20
0.00513514
 30
0.00000
  70
    32
  0
VERTEX
  8
0
  5
A7DE
 10
86.2590
 20
0.00563948
 30
0.00000
  70
    32
  0
VERTEX
  8
0
  5
A7DF
 10
86.2687
 20
0.00616777
 30
0.00000
  70
    32
  0
VERTEX
  8
0
  5
A7E0
 10
86.2784
 20
0.00672008
 30
0.00000
  70
    32
  0
VERTEX
  8
0
  5
A7E1
 10
86.2881
 20
0.00729643
 30
0.00000
  70
    32
  0
VERTEX
  8
0
  5
A7E2
 10
86.2978
 20
0.00789689
 30
0.00000
  70
    32
  0
VERTEX
  8
0
  5
A7E3
 10
86.3075
 20
0.00852149
 30
0.00000
  70
    32
  0
VERTEX
  8
0
  5
A7E4
 10
86.3173
 20
0.00917027
 30
0.00000
  70
    32
  0
VERTEX
  8
0
  5
A7E5
 10
86.3270
 20
0.00984329
 30
0.00000
  70
    32
  0
VERTEX
  8
0
  5
A7E6
 10
86.3368
 20
0.0105406
 30
0.00000
  70
    32
  0
VERTEX
  8
0
  5
A7E7
 10
86.3466
 20
0.0112622
 30
0.00000
  70
    32
  0
VERTEX
  8
0
  5
A7E8
 10
86.3564
 20
0.0120082
 30
0.00000
  70
    32
  0
VERTEX
  8
0
  5
A7E9
 10
86.3662
 20
0.0127786
 30
0.00000
  70
    32
  0
VERTEX
  8
0
  5
A7EA
 10
86.3760
 20
0.0135735
 30
0.00000
  70
    32
  0
VERTEX
  8
0
  5
A7EB
 10
86.3858
 20
0.0143928
 30
0.00000
  70
    32
  0
VERTEX
  8
0
  5
A7EC
 10
86.3957
 20
0.0152367
 30
0.00000
  70
    32
  0
VERTEX
  8
0
  5
A7ED
 10
86.4055
 20
0.0161052
 30
0.00000
  70
    32
  0
VERTEX
  8
0
  5
A7EE
 10
86.4154
 20
0.0169984
 30
0.00000
  70
    32
  0
VERTEX
  8
0
  5
A7EF
 10
86.4252
 20
0.0179162
 30
0.00000
  70
    32
  0
VERTEX
  8
0
  5
A7F0
 10
86.4351
 20
0.0188587
 30
0.00000
  70
    32
  0
VERTEX
  8
0
  5
A7F1
 10
86.4450
 20
0.0198261
 30
0.00000
  70
    32
  0
VERTEX
  8
0
  5
A7F2
 10
86.4549
 20
0.0208182
 30
0.00000
  70
    32
  0
VERTEX
  8
0
  5
A7F3
 10
86.4648
 20
0.0218352
 30
0.00000
  70
    32
  0
VERTEX
  8
0
  5
A7F4
 10
86.4747
 20
0.0228771
 30
0.00000
  70
    32
  0
VERTEX
  8
0
  5
A7F5
 10
86.4846
 20
0.0239440
 30
0.00000
  70
    32
  0
VERTEX
  8
0
  5
A7F6
 10
86.4945
 20
0.0250358
 30
0.00000
  70
    32
  0
VERTEX
  8
0
  5
A7F7
 10
86.5044
 20
0.0261527
 30
0.00000
  70
    32
  0
VERTEX
  8
0
  5
A7F8
 10
86.5143
 20
0.0272947
 30
0.00000
  70
    32
  0
VERTEX
  8
0
  5
A7F9
 10
86.5243
 20
0.0284618
 30
0.00000
  70
    32
  0
VERTEX
  8
0
  5
A7FA
 10
86.5342
 20
0.0296541
 30
0.00000
  70
    32
  0
VERTEX
  8
0
  5
A7FB
 10
86.5441
 20
0.0308716
 30
0.00000
  70
    32
  0
VERTEX
  8
0
  5
A7FC
 10
86.5541
 20
0.0321144
 30
0.00000
  70
    32
  0
VERTEX
  8
0
  5
A7FD
 10
86.5640
 20
0.0333825
 30
0.00000
  70
    32
  0
VERTEX
  8
0
  5
A7FE
 10
86.5740
 20
0.0346760
 30
0.00000
  70
    32
  0
VERTEX
  8
0
  5
A7FF
 10
86.5840
 20
0.0359948
 30
0.00000
  70
    32
  0
VERTEX
  8
0
  5
A800
 10
86.5939
 20
0.0373391
 30
0.00000
  70
    32
  0
VERTEX
  8
0
  5
A801
 10
86.6039
 20
0.0387089
 30
0.00000
  70
    32
  0
VERTEX
  8
0
  5
A802
 10
86.6138
 20
0.0401043
 30
0.00000
  70
    32
  0
VERTEX
  8
0
  5
A803
 10
86.6238
 20
0.0415252
 30
0.00000
  70
    32
  0
VERTEX
  8
0
  5
A804
 10
86.6338
 20
0.0429717
 30
0.00000
  70
    32
  0
VERTEX
  8
0
  5
A805
 10
86.6437
 20
0.0444439
 30
0.00000
  70
    32
  0
VERTEX
  8
0
  5
A806
 10
86.6537
 20
0.0459419
 30
0.00000
  70
    32
  0
VERTEX
  8
0
  5
A807
 10
86.6637
 20
0.0474656
 30
0.00000
  70
    32
  0
VERTEX
  8
0
  5
A808
 10
86.6737
 20
0.0490151
 30
0.00000
  70
    32
  0
VERTEX
  8
0
  5
A809
 10
86.6836
 20
0.0505904
 30
0.00000
  70
    32
  0
VERTEX
  8
0
  5
A80A
 10
86.6936
 20
0.0521917
 30
0.00000
  70
    32
  0
VERTEX
  8
0
  5
A80B
 10
86.7036
 20
0.0538189
 30
0.00000
  70
    32
  0
VERTEX
  8
0
  5
A80C
 10
86.7135
 20
0.0554720
 30
0.00000
  70
    32
  0
VERTEX
  8
0
  5
A80D
 10
86.7235
 20
0.0571512
 30
0.00000
  70
    32
  0
VERTEX
  8
0
  5
A80E
 10
86.7335
 20
0.0588565
 30
0.00000
  70
    32
  0
VERTEX
  8
0
  5
A80F
 10
86.7434
 20
0.0605879
 30
0.00000
  70
    32
  0
VERTEX
  8
0
  5
A810
 10
86.7534
 20
0.0623455
 30
0.00000
  70
    32
  0
VERTEX
  8
0
  5
A811
 10
86.7634
 20
0.0641293
 30
0.00000
  70
    32
  0
VERTEX
  8
0
  5
A812
 10
86.7733
 20
0.0659393
 30
0.00000
  70
    32
  0
VERTEX
  8
0
  5
A813
 10
86.7833
 20
0.0677757
 30
0.00000
  70
    32
  0
VERTEX
  8
0
  5
A814
 10
86.7932
 20
0.0696383
 30
0.00000
  70
    32
  0
VERTEX
  8
0
  5
A815
 10
86.8032
 20
0.0715274
 30
0.00000
  70
    32
  0
VERTEX
  8
0
  5
A816
 10
86.8131
 20
0.0734429
 30
0.00000
  70
    32
  0
VERTEX
  8
0
  5
A817
 10
86.8230
 20
0.0753849
 30
0.00000
  70
    32
  0
VERTEX
  8
0
  5
A818
 10
86.8330
 20
0.0773534
 30
-1.53910e-24
  70
    32
  0
VERTEX
  8
0
  5
A819
 10
86.8429
 20
0.0793485
 30
-1.92505e-22
  70
    32
  0
VERTEX
  8
0
  5
A81A
 10
86.8528
 20
0.0813698
 30
-1.12276e-21
  70
    32
  0
VERTEX
  8
0
  5
A81B
 10
86.8627
 20
0.0834174
 30
-3.38378e-21
  70
    32
  0
VERTEX
  8
0
  5
A81C
 10
86.8726
 20
0.0854909
 30
-7.56701e-21
  70
    32
  0
VERTEX
  8
0
  5
A81D
 10
86.8825
 20
0.0875903
 30
-1.42639e-20
  70
    32
  0
VERTEX
  8
0
  5
A81E
 10
86.8924
 20
0.0897154
 30
-2.40660e-20
  70
    32
  0
VERTEX
  8
0
  5
A81F
 10
86.9023
 20
0.0918660
 30
-3.75647e-20
  70
    32
  0
VERTEX
  8
0
  5
A820
 10
86.9122
 20
0.0940419
 30
-5.53514e-20
  70
    32
  0
VERTEX
  8
0
  5
A821
 10
86.9221
 20
0.0962429
 30
-7.80177e-20
  70
    32
  0
VERTEX
  8
0
  5
A822
 10
86.9319
 20
0.0984689
 30
-1.06155e-19
  70
    32
  0
VERTEX
  8
0
  5
A823
 10
86.9418
 20
0.100720
 30
-1.40355e-19
  70
    32
  0
VERTEX
  8
0
  5
A824
 10
86.9516
 20
0.102995
 30
-1.81209e-19
  70
    32
  0
VERTEX
  8
0
  5
A825
 10
86.9615
 20
0.105295
 30
-2.29308e-19
  70
    32
  0
VERTEX
  8
0
  5
A826
 10
86.9713
 20
0.107620
 30
-2.85244e-19
  70
    32
  0
VERTEX
  8
0
  5
A827
 10
86.9811
 20
0.109968
 30
-3.49608e-19
  70
    32
  0
VERTEX
  8
0
  5
A828
 10
86.9909
 20
0.112340
 30
-4.22992e-19
  70
    32
  0
VERTEX
  8
0
  5
A829
 10
87.0007
 20
0.114737
 30
-5.05987e-19
  70
    32
  0
VERTEX
  8
0
  5
A82A
 10
87.0105
 20
0.117156
 30
-5.99185e-19
  70
    32
  0
VERTEX
  8
0
  5
A82B
 10
87.0203
 20
0.119600
 30
-7.03178e-19
  70
    32
  0
VERTEX
  8
0
  5
A82C
 10
87.0301
 20
0.122066
 30
-8.18555e-19
  70
    32
  0
VERTEX
  8
0
  5
A82D
 10
87.0398
 20
0.124556
 30
-9.45910e-19
  70
    32
  0
VERTEX
  8
0
  5
A82E
 10
87.0496
 20
0.127069
 30
-1.08583e-18
  70
    32
  0
VERTEX
  8
0
  5
A82F
 10
87.0593
 20
0.129604
 30
-1.23892e-18
  70
    32
  0
VERTEX
  8
0
  5
A830
 10
87.0690
 20
0.132162
 30
-1.40575e-18
  70
    32
  0
VERTEX
  8
0
  5
A831
 10
87.0787
 20
0.134743
 30
-1.58693e-18
  70
    32
  0
VERTEX
  8
0
  5
A832
 10
87.0884
 20
0.137345
 30
-1.78304e-18
  70
    32
  0
VERTEX
  8
0
  5
A833
 10
87.0981
 20
0.139970
 30
-1.99468e-18
  70
    32
  0
VERTEX
  8
0
  5
A834
 10
87.1078
 20
0.142617
 30
-2.22244e-18
  70
    32
  0
VERTEX
  8
0
  5
A835
 10
87.1175
 20
0.145286
 30
-2.46690e-18
  70
    32
  0
VERTEX
  8
0
  5
A836
 10
87.1271
 20
0.147976
 30
-2.72867e-18
  70
    32
  0
VERTEX
  8
0
  5
A837
 10
87.1367
 20
0.150687
 30
-3.00832e-18
  70
    32
  0
VERTEX
  8
0
  5
A838
 10
87.1463
 20
0.153420
 30
-3.30646e-18
  70
    32
  0
VERTEX
  8
0
  5
A839
 10
87.1559
 20
0.156174
 30
-3.62368e-18
  70
    32
  0
VERTEX
  8
0
  5
A83A
 10
87.1655
 20
0.158949
 30
-3.96056e-18
  70
    32
  0
VERTEX
  8
0
  5
A83B
 10
87.1751
 20
0.161744
 30
-4.31770e-18
  70
    32
  0
VERTEX
  8
0
  5
A83C
 10
87.1846
 20
0.164561
 30
-4.69568e-18
  70
    32
  0
VERTEX
  8
0
  5
A83D
 10
87.1942
 20
0.167397
 30
-5.09511e-18
  70
    32
  0
VERTEX
  8
0
  5
A83E
 10
87.2037
 20
0.170254
 30
-5.51657e-18
  70
    32
  0
VERTEX
  8
0
  5
A83F
 10
87.2132
 20
0.173131
 30
-5.96065e-18
  70
    32
  0
VERTEX
  8
0
  5
A840
 10
87.2227
 20
0.176028
 30
-6.42795e-18
  70
    32
  0
VERTEX
  8
0
  5
A841
 10
87.2322
 20
0.178944
 30
-6.91906e-18
  70
    32
  0
VERTEX
  8
0
  5
A842
 10
87.2416
 20
0.181880
 30
-7.43456e-18
  70
    32
  0
VERTEX
  8
0
  5
A843
 10
87.2511
 20
0.184835
 30
-7.97505e-18
  70
    32
  0
VERTEX
  8
0
  5
A844
 10
87.2605
 20
0.187810
 30
-8.54112e-18
  70
    32
  0
VERTEX
  8
0
  5
A845
 10
87.2699
 20
0.190804
 30
-9.13337e-18
  70
    32
  0
VERTEX
  8
0
  5
A846
 10
87.2793
 20
0.193816
 30
-9.75238e-18
  70
    32
  0
VERTEX
  8
0
  5
A847
 10
87.2886
 20
0.196847
 30
-1.03987e-17
  70
    32
  0
VERTEX
  8
0
  5
A848
 10
87.2980
 20
0.199897
 30
-1.10731e-17
  70
    32
  0
VERTEX
  8
0
  5
A849
 10
87.3073
 20
0.202965
 30
-1.17759e-17
  70
    32
  0
VERTEX
  8
0
  5
A84A
 10
87.3166
 20
0.206052
 30
-1.25079e-17
  70
    32
  0
VERTEX
  8
0
  5
A84B
 10
87.3259
 20
0.209156
 30
-1.32696e-17
  70
    32
  0
VERTEX
  8
0
  5
A84C
 10
87.3352
 20
0.212278
 30
-1.40616e-17
  70
    32
  0
VERTEX
  8
0
  5
A84D
 10
87.3444
 20
0.215418
 30
-1.48845e-17
  70
    32
  0
VERTEX
  8
0
  5
A84E
 10
87.3536
 20
0.218575
 30
-1.57389e-17
  70
    32
  0
VERTEX
  8
0
  5
A84F
 10
87.3628
 20
0.221750
 30
-1.66254e-17
  70
    32
  0
VERTEX
  8
0
  5
A850
 10
87.3720
 20
0.224942
 30
-1.75446e-17
  70
    32
  0
VERTEX
  8
0
  5
A851
 10
87.3812
 20
0.228151
 30
-1.84970e-17
  70
    32
  0
VERTEX
  8
0
  5
A852
 10
87.3903
 20
0.231377
 30
-1.94833e-17
  70
    32
  0
VERTEX
  8
0
  5
A853
 10
87.3994
 20
0.234619
 30
-2.05041e-17
  70
    32
  0
VERTEX
  8
0
  5
A854
 10
87.4085
 20
0.237878
 30
-2.15599e-17
  70
    32
  0
VERTEX
  8
0
  5
A855
 10
87.4176
 20
0.241154
 30
-2.26513e-17
  70
    32
  0
VERTEX
  8
0
  5
A856
 10
87.4266
 20
0.244445
 30
-2.37790e-17
  70
    32
  0
VERTEX
  8
0
  5
A857
 10
87.4356
 20
0.247752
 30
-2.49435e-17
  70
    32
  0
VERTEX
  8
0
  5
A858
 10
87.4446
 20
0.251076
 30
-2.61454e-17
  70
    32
  0
VERTEX
  8
0
  5
A859
 10
87.4536
 20
0.254415
 30
-2.73853e-17
  70
    32
  0
VERTEX
  8
0
  5
A85A
 10
87.4626
 20
0.257769
 30
-2.86638e-17
  70
    32
  0
VERTEX
  8
0
  5
A85B
 10
87.4715
 20
0.261139
 30
-2.99815e-17
  70
    32
  0
VERTEX
  8
0
  5
A85C
 10
87.4804
 20
0.264523
 30
-3.13389e-17
  70
    32
  0
VERTEX
  8
0
  5
A85D
 10
87.4893
 20
0.267923
 30
-3.27367e-17
  70
    32
  0
VERTEX
  8
0
  5
A85E
 10
87.4981
 20
0.271338
 30
-3.41755e-17
  70
    32
  0
VERTEX
  8
0
  5
A85F
 10
87.5069
 20
0.274767
 30
-3.56558e-17
  70
    32
  0
VERTEX
  8
0
  5
A860
 10
87.5157
 20
0.278211
 30
-3.71783e-17
  70
    32
  0
VERTEX
  8
0
  5
A861
 10
87.5245
 20
0.281669
 30
-3.87435e-17
  70
    32
  0
VERTEX
  8
0
  5
A862
 10
87.5333
 20
0.285141
 30
-4.03520e-17
  70
    32
  0
VERTEX
  8
0
  5
A863
 10
87.5420
 20
0.288627
 30
-4.20045e-17
  70
    32
  0
VERTEX
  8
0
  5
A864
 10
87.5507
 20
0.292126
 30
-4.37014e-17
  70
    32
  0
VERTEX
  8
0
  5
A865
 10
87.5593
 20
0.295640
 30
-4.54435e-17
  70
    32
  0
VERTEX
  8
0
  5
A866
 10
87.5680
 20
0.299167
 30
-4.72312e-17
  70
    32
  0
VERTEX
  8
0
  5
A867
 10
87.5766
 20
0.302707
 30
-4.90652e-17
  70
    32
  0
VERTEX
  8
0
  5
A868
 10
87.5851
 20
0.306262
 30
-5.09344e-17
  70
    32
  0
VERTEX
  8
0
  5
A869
 10
87.5937
 20
0.309845
 30
-5.27687e-17
  70
    32
  0
VERTEX
  8
0
  5
A86A
 10
87.6023
 20
0.313457
 30
-5.45577e-17
  70
    32
  0
VERTEX
  8
0
  5
A86B
 10
87.6109
 20
0.317098
 30
-5.63024e-17
  70
    32
  0
VERTEX
  8
0
  5
A86C
 10
87.6196
 20
0.320768
 30
-5.80041e-17
  70
    32
  0
VERTEX
  8
0
  5
A86D
 10
87.6282
 20
0.324467
 30
-5.96640e-17
  70
    32
  0
VERTEX
  8
0
  5
A86E
 10
87.6368
 20
0.328196
 30
-6.12832e-17
  70
    32
  0
VERTEX
  8
0
  5
A86F
 10
87.6455
 20
0.331953
 30
-6.28629e-17
  70
    32
  0
VERTEX
  8
0
  5
A870
 10
87.6541
 20
0.335739
 30
-6.44044e-17
  70
    32
  0
VERTEX
  8
0
  5
A871
 10
87.6628
 20
0.339553
 30
-6.59087e-17
  70
    32
  0
VERTEX
  8
0
  5
A872
 10
87.6715
 20
0.343396
 30
-6.73771e-17
  70
    32
  0
VERTEX
  8
0
  5
A873
 10
87.6802
 20
0.347268
 30
-6.88107e-17
  70
    32
  0
VERTEX
  8
0
  5
A874
 10
87.6888
 20
0.351168
 30
-7.02108e-17
  70
    32
  0
VERTEX
  8
0
  5
A875
 10
87.6975
 20
0.355097
 30
-7.15785e-17
  70
    32
  0
VERTEX
  8
0
  5
A876
 10
87.7062
 20
0.359054
 30
-7.29149e-17
  70
    32
  0
VERTEX
  8
0
  5
A877
 10
87.7149
 20
0.363039
 30
-7.42214e-17
  70
    32
  0
VERTEX
  8
0
  5
A878
 10
87.7237
 20
0.367052
 30
-7.54991e-17
  70
    32
  0
VERTEX
  8
0
  5
A879
 10
87.7324
 20
0.371093
 30
-7.67490e-17
  70
    32
  0
VERTEX
  8
0
  5
A87A
 10
87.7411
 20
0.375162
 30
-7.79726e-17
  70
    32
  0
VERTEX
  8
0
  5
A87B
 10
87.7498
 20
0.379259
 30
-7.91708e-17
  70
    32
  0
VERTEX
  8
0
  5
A87C
 10
87.7586
 20
0.383383
 30
-8.03449e-17
  70
    32
  0
VERTEX
  8
0
  5
A87D
 10
87.7673
 20
0.387536
 30
-8.14961e-17
  70
    32
  0
VERTEX
  8
0
  5
A87E
 10
87.7760
 20
0.391715
 30
-8.26256e-17
  70
    32
  0
VERTEX
  8
0
  5
A87F
 10
87.7848
 20
0.395923
 30
-8.37345e-17
  70
    32
  0
VERTEX
  8
0
  5
A880
 10
87.7935
 20
0.400157
 30
-8.48241e-17
  70
    32
  0
VERTEX
  8
0
  5
A881
 10
87.8023
 20
0.404419
 30
-8.58954e-17
  70
    32
  0
VERTEX
  8
0
  5
A882
 10
87.8110
 20
0.408708
 30
-8.69498e-17
  70
    32
  0
VERTEX
  8
0
  5
A883
 10
87.8198
 20
0.413025
 30
-8.79883e-17
  70
    32
  0
VERTEX
  8
0
  5
A884
 10
87.8286
 20
0.417368
 30
-8.90122e-17
  70
    32
  0
VERTEX
  8
0
  5
A885
 10
87.8373
 20
0.421739
 30
-9.00227e-17
  70
    32
  0
VERTEX
  8
0
  5
A886
 10
87.8461
 20
0.426136
 30
-9.10208e-17
  70
    32
  0
VERTEX
  8
0
  5
A887
 10
87.8548
 20
0.430560
 30
-9.20079e-17
  70
    32
  0
VERTEX
  8
0
  5
A888
 10
87.8636
 20
0.435010
 30
-9.29851e-17
  70
    32
  0
VERTEX
  8
0
  5
A889
 10
87.8724
 20
0.439488
 30
-9.39535e-17
  70
    32
  0
VERTEX
  8
0
  5
A88A
 10
87.8811
 20
0.443992
 30
-9.49144e-17
  70
    32
  0
VERTEX
  8
0
  5
A88B
 10
87.8899
 20
0.448522
 30
-9.58690e-17
  70
    32
  0
VERTEX
  8
0
  5
A88C
 10
87.8987
 20
0.453079
 30
-9.68183e-17
  70
    32
  0
VERTEX
  8
0
  5
A88D
 10
87.9074
 20
0.457662
 30
-9.77637e-17
  70
    32
  0
VERTEX
  8
0
  5
A88E
 10
87.9162
 20
0.462271
 30
-9.87063e-17
  70
    32
  0
VERTEX
  8
0
  5
A88F
 10
87.9249
 20
0.466906
 30
-9.96472e-17
  70
    32
  0
VERTEX
  8
0
  5
A890
 10
87.9337
 20
0.471567
 30
-1.00588e-16
  70
    32
  0
VERTEX
  8
0
  5
A891
 10
87.9425
 20
0.476254
 30
-1.01529e-16
  70
    32
  0
VERTEX
  8
0
  5
A892
 10
87.9512
 20
0.480967
 30
-1.02472e-16
  70
    32
  0
VERTEX
  8
0
  5
A893
 10
87.9600
 20
0.485706
 30
-1.03418e-16
  70
    32
  0
VERTEX
  8
0
  5
A894
 10
87.9687
 20
0.490470
 30
-1.04369e-16
  70
    32
  0
VERTEX
  8
0
  5
A895
 10
87.9775
 20
0.495260
 30
-1.05325e-16
  70
    32
  0
VERTEX
  8
0
  5
A896
 10
87.9862
 20
0.500076
 30
-1.06288e-16
  70
    32
  0
VERTEX
  8
0
  5
A897
 10
87.9949
 20
0.504916
 30
-1.07258e-16
  70
    32
  0
VERTEX
  8
0
  5
A898
 10
88.0037
 20
0.509783
 30
-1.08238e-16
  70
    32
  0
VERTEX
  8
0
  5
A899
 10
88.0124
 20
0.514674
 30
-1.09227e-16
  70
    32
  0
VERTEX
  8
0
  5
A89A
 10
88.0211
 20
0.519591
 30
-1.10229e-16
  70
    32
  0
VERTEX
  8
0
  5
A89B
 10
88.0298
 20
0.524532
 30
-1.11242e-16
  70
    32
  0
VERTEX
  8
0
  5
A89C
 10
88.0385
 20
0.529499
 30
-1.12270e-16
  70
    32
  0
VERTEX
  8
0
  5
A89D
 10
88.0472
 20
0.534490
 30
-1.13312e-16
  70
    32
  0
VERTEX
  8
0
  5
A89E
 10
88.0559
 20
0.539506
 30
-1.14371e-16
  70
    32
  0
VERTEX
  8
0
  5
A89F
 10
88.0646
 20
0.544547
 30
-1.15446e-16
  70
    32
  0
VERTEX
  8
0
  5
A8A0
 10
88.0733
 20
0.549613
 30
-1.16541e-16
  70
    32
  0
VERTEX
  8
0
  5
A8A1
 10
88.0820
 20
0.554703
 30
-1.17655e-16
  70
    32
  0
VERTEX
  8
0
  5
A8A2
 10
88.0906
 20
0.559817
 30
-1.18789e-16
  70
    32
  0
VERTEX
  8
0
  5
A8A3
 10
88.0993
 20
0.564956
 30
-1.19946e-16
  70
    32
  0
VERTEX
  8
0
  5
A8A4
 10
88.1080
 20
0.570119
 30
-1.21126e-16
  70
    32
  0
VERTEX
  8
0
  5
A8A5
 10
88.1166
 20
0.575307
 30
-1.22331e-16
  70
    32
  0
VERTEX
  8
0
  5
A8A6
 10
88.1252
 20
0.580518
 30
-1.23561e-16
  70
    32
  0
VERTEX
  8
0
  5
A8A7
 10
88.1339
 20
0.585754
 30
-1.24817e-16
  70
    32
  0
VERTEX
  8
0
  5
A8A8
 10
88.1425
 20
0.591013
 30
-1.26102e-16
  70
    32
  0
VERTEX
  8
0
  5
A8A9
 10
88.1511
 20
0.596296
 30
-1.27416e-16
  70
    32
  0
VERTEX
  8
0
  5
A8AA
 10
88.1597
 20
0.601603
 30
-1.28760e-16
  70
    32
  0
VERTEX
  8
0
  5
A8AB
 10
88.1683
 20
0.606934
 30
-1.30136e-16
  70
    32
  0
VERTEX
  8
0
  5
A8AC
 10
88.1768
 20
0.612288
 30
-1.31544e-16
  70
    32
  0
VERTEX
  8
0
  5
A8AD
 10
88.1854
 20
0.617666
 30
-1.32986e-16
  70
    32
  0
VERTEX
  8
0
  5
A8AE
 10
88.1939
 20
0.623067
 30
-1.34464e-16
  70
    32
  0
VERTEX
  8
0
  5
A8AF
 10
88.2025
 20
0.628491
 30
-1.35977e-16
  70
    32
  0
VERTEX
  8
0
  5
A8B0
 10
88.2110
 20
0.633939
 30
-1.37528e-16
  70
    32
  0
VERTEX
  8
0
  5
A8B1
 10
88.2195
 20
0.639410
 30
-1.39117e-16
  70
    32
  0
VERTEX
  8
0
  5
A8B2
 10
88.2280
 20
0.644904
 30
-1.40747e-16
  70
    32
  0
VERTEX
  8
0
  5
A8B3
 10
88.2365
 20
0.650421
 30
-1.42417e-16
  70
    32
  0
VERTEX
  8
0
  5
A8B4
 10
88.2450
 20
0.655960
 30
-1.44129e-16
  70
    32
  0
VERTEX
  8
0
  5
A8B5
 10
88.2534
 20
0.661523
 30
-1.45885e-16
  70
    32
  0
VERTEX
  8
0
  5
A8B6
 10
88.2619
 20
0.667108
 30
-1.47685e-16
  70
    32
  0
VERTEX
  8
0
  5
A8B7
 10
88.2703
 20
0.672716
 30
-1.49531e-16
  70
    32
  0
VERTEX
  8
0
  5
A8B8
 10
88.2787
 20
0.678346
 30
-1.51397e-16
  70
    32
  0
VERTEX
  8
0
  5
A8B9
 10
88.2871
 20
0.683999
 30
-1.53221e-16
  70
    32
  0
VERTEX
  8
0
  5
A8BA
 10
88.2955
 20
0.689674
 30
-1.55000e-16
  70
    32
  0
VERTEX
  8
0
  5
A8BB
 10
88.3039
 20
0.695370
 30
-1.56737e-16
  70
    32
  0
VERTEX
  8
0
  5
A8BC
 10
88.3122
 20
0.701088
 30
-1.58434e-16
  70
    32
  0
VERTEX
  8
0
  5
A8BD
 10
88.3206
 20
0.706828
 30
-1.60091e-16
  70
    32
  0
VERTEX
  8
0
  5
A8BE
 10
88.3289
 20
0.712588
 30
-1.61712e-16
  70
    32
  0
VERTEX
  8
0
  5
A8BF
 10
88.3372
 20
0.718369
 30
-1.63298e-16
  70
    32
  0
VERTEX
  8
0
  5
A8C0
 10
88.3455
 20
0.724170
 30
-1.64850e-16
  70
    32
  0
VERTEX
  8
0
  5
A8C1
 10
88.3537
 20
0.729992
 30
-1.66371e-16
  70
    32
  0
VERTEX
  8
0
  5
A8C2
 10
88.3620
 20
0.735833
 30
-1.67861e-16
  70
    32
  0
VERTEX
  8
0
  5
A8C3
 10
88.3702
 20
0.741694
 30
-1.69324e-16
  70
    32
  0
VERTEX
  8
0
  5
A8C4
 10
88.3784
 20
0.747575
 30
-1.70760e-16
  70
    32
  0
VERTEX
  8
0
  5
A8C5
 10
88.3866
 20
0.753474
 30
-1.72172e-16
  70
    32
  0
VERTEX
  8
0
  5
A8C6
 10
88.3948
 20
0.759392
 30
-1.73561e-16
  70
    32
  0
VERTEX
  8
0
  5
A8C7
 10
88.4030
 20
0.765329
 30
-1.74929e-16
  70
    32
  0
VERTEX
  8
0
  5
A8C8
 10
88.4111
 20
0.771284
 30
-1.76277e-16
  70
    32
  0
VERTEX
  8
0
  5
A8C9
 10
88.4193
 20
0.777258
 30
-1.77609e-16
  70
    32
  0
VERTEX
  8
0
  5
A8CA
 10
88.4274
 20
0.783249
 30
-1.78924e-16
  70
    32
  0
VERTEX
  8
0
  5
A8CB
 10
88.4355
 20
0.789257
 30
-1.80226e-16
  70
    32
  0
VERTEX
  8
0
  5
A8CC
 10
88.4435
 20
0.795283
 30
-1.81516e-16
  70
    32
  0
VERTEX
  8
0
  5
A8CD
 10
88.4516
 20
0.801325
 30
-1.82795e-16
  70
    32
  0
VERTEX
  8
0
  5
A8CE
 10
88.4596
 20
0.807384
 30
-1.84065e-16
  70
    32
  0
VERTEX
  8
0
  5
A8CF
 10
88.4676
 20
0.813460
 30
-1.85329e-16
  70
    32
  0
VERTEX
  8
0
  5
A8D0
 10
88.4756
 20
0.819552
 30
-1.86588e-16
  70
    32
  0
VERTEX
  8
0
  5
A8D1
 10
88.4836
 20
0.825659
 30
-1.87844e-16
  70
    32
  0
VERTEX
  8
0
  5
A8D2
 10
88.4916
 20
0.831782
 30
-1.89098e-16
  70
    32
  0
VERTEX
  8
0
  5
A8D3
 10
88.4995
 20
0.837921
 30
-1.90352e-16
  70
    32
  0
VERTEX
  8
0
  5
A8D4
 10
88.5074
 20
0.844074
 30
-1.91609e-16
  70
    32
  0
VERTEX
  8
0
  5
A8D5
 10
88.5153
 20
0.850243
 30
-1.92869e-16
  70
    32
  0
VERTEX
  8
0
  5
A8D6
 10
88.5232
 20
0.856426
 30
-1.94135e-16
  70
    32
  0
VERTEX
  8
0
  5
A8D7
 10
88.5310
 20
0.862623
 30
-1.95408e-16
  70
    32
  0
VERTEX
  8
0
  5
A8D8
 10
88.5388
 20
0.868834
 30
-1.96691e-16
  70
    32
  0
VERTEX
  8
0
  5
A8D9
 10
88.5466
 20
0.875059
 30
-1.97984e-16
  70
    32
  0
VERTEX
  8
0
  5
A8DA
 10
88.5544
 20
0.881297
 30
-1.99290e-16
  70
    32
  0
VERTEX
  8
0
  5
A8DB
 10
88.5622
 20
0.887549
 30
-2.00611e-16
  70
    32
  0
VERTEX
  8
0
  5
A8DC
 10
88.5699
 20
0.893813
 30
-2.01948e-16
  70
    32
  0
VERTEX
  8
0
  5
A8DD
 10
88.5776
 20
0.900090
 30
-2.03303e-16
  70
    32
  0
VERTEX
  8
0
  5
A8DE
 10
88.5853
 20
0.906379
 30
-2.04677e-16
  70
    32
  0
VERTEX
  8
0
  5
A8DF
 10
88.5930
 20
0.912681
 30
-2.06074e-16
  70
    32
  0
VERTEX
  8
0
  5
A8E0
 10
88.6006
 20
0.918994
 30
-2.07493e-16
  70
    32
  0
VERTEX
  8
0
  5
A8E1
 10
88.6083
 20
0.925319
 30
-2.08938e-16
  70
    32
  0
VERTEX
  8
0
  5
A8E2
 10
88.6159
 20
0.931655
 30
-2.10410e-16
  70
    32
  0
VERTEX
  8
0
  5
A8E3
 10
88.6234
 20
0.938002
 30
-2.11910e-16
  70
    32
  0
VERTEX
  8
0
  5
A8E4
 10
88.6310
 20
0.944360
 30
-2.13441e-16
  70
    32
  0
VERTEX
  8
0
  5
A8E5
 10
88.6385
 20
0.950728
 30
-2.15005e-16
  70
    32
  0
VERTEX
  8
0
  5
A8E6
 10
88.6460
 20
0.957107
 30
-2.16602e-16
  70
    32
  0
VERTEX
  8
0
  5
A8E7
 10
88.6535
 20
0.963495
 30
-2.18235e-16
  70
    32
  0
VERTEX
  8
0
  5
A8E8
 10
88.6609
 20
0.969894
 30
-2.19905e-16
  70
    32
  0
VERTEX
  8
0
  5
A8E9
 10
88.6684
 20
0.976301
 30
-2.21615e-16
  70
    32
  0
VERTEX
  8
0
  5
A8EA
 10
88.6758
 20
0.982718
 30
-2.23366e-16
  70
    32
  0
VERTEX
  8
0
  5
A8EB
 10
88.6832
 20
0.989144
 30
-2.25160e-16
  70
    32
  0
VERTEX
  8
0
  5
A8EC
 10
88.6905
 20
0.995578
 30
-2.26998e-16
  70
    32
  0
VERTEX
  8
0
  5
A8ED
 10
88.6978
 20
1.00202
 30
-2.28883e-16
  70
    32
  0
VERTEX
  8
0
  5
A8EE
 10
88.7051
 20
1.00847
 30
-2.30816e-16
  70
    32
  0
VERTEX
  8
0
  5
A8EF
 10
88.7124
 20
1.01493
 30
-2.32799e-16
  70
    32
  0
VERTEX
  8
0
  5
A8F0
 10
88.7197
 20
1.02140
 30
-2.34834e-16
  70
    32
  0
VERTEX
  8
0
  5
A8F1
 10
88.7269
 20
1.02787
 30
-2.36922e-16
  70
    32
  0
VERTEX
  8
0
  5
A8F2
 10
88.7341
 20
1.03435
 30
-2.39066e-16
  70
    32
  0
VERTEX
  8
0
  5
A8F3
 10
88.7412
 20
1.04084
 30
-2.41267e-16
  70
    32
  0
VERTEX
  8
0
  5
A8F4
 10
88.7484
 20
1.04733
 30
-2.43526e-16
  70
    32
  0
VERTEX
  8
0
  5
A8F5
 10
88.7555
 20
1.05383
 30
-2.45846e-16
  70
    32
  0
VERTEX
  8
0
  5
A8F6
 10
88.7626
 20
1.06033
 30
-2.48229e-16
  70
    32
  0
VERTEX
  8
0
  5
A8F7
 10
88.7696
 20
1.06685
 30
-2.50676e-16
  70
    32
  0
VERTEX
  8
0
  5
A8F8
 10
88.7767
 20
1.07336
 30
-2.53189e-16
  70
    32
  0
VERTEX
  8
0
  5
A8F9
 10
88.7837
 20
1.07988
 30
-2.55769e-16
  70
    32
  0
VERTEX
  8
0
  5
A8FA
 10
88.7906
 20
1.08641
 30
-2.58419e-16
  70
    32
  0
VERTEX
  8
0
  5
A8FB
 10
88.7976
 20
1.09294
 30
-2.61140e-16
  70
    32
  0
VERTEX
  8
0
  5
A8FC
 10
88.8045
 20
1.09948
 30
-2.63935e-16
  70
    32
  0
VERTEX
  8
0
  5
A8FD
 10
88.8114
 20
1.10602
 30
-2.66804e-16
  70
    32
  0
VERTEX
  8
0
  5
A8FE
 10
88.8182
 20
1.11256
 30
-2.69749e-16
  70
    32
  0
VERTEX
  8
0
  5
A8FF
 10
88.8250
 20
1.11911
 30
-2.72773e-16
  70
    32
  0
VERTEX
  8
0
  5
A900
 10
88.8318
 20
1.12566
 30
-2.75878e-16
  70
    32
  0
VERTEX
  8
0
  5
A901
 10
88.8386
 20
1.13221
 30
-2.79064e-16
  70
    32
  0
VERTEX
  8
0
  5
A902
 10
88.8453
 20
1.13876
 30
-2.82333e-16
  70
    32
  0
VERTEX
  8
0
  5
A903
 10
88.8520
 20
1.14532
 30
-2.85689e-16
  70
    32
  0
VERTEX
  8
0
  5
A904
 10
88.8587
 20
1.15188
 30
-2.89131e-16
  70
    32
  0
VERTEX
  8
0
  5
A905
 10
88.8654
 20
1.15844
 30
-2.92663e-16
  70
    32
  0
VERTEX
  8
0
  5
A906
 10
88.8720
 20
1.16501
 30
-2.96285e-16
  70
    32
  0
VERTEX
  8
0
  5
A907
 10
88.8786
 20
1.17157
 30
-3.00000e-16
  70
    32
  0
SEQEND
  8
0
  5
A908
  0
LINE
  5
9E84
  8
0
  6
HIDDEN2
 62
     1
 10
-88.1714452830173485
 20
1.878679656440418
 30
-0.0000000000000004
 11
-89.2927672288542169
 21
3.0000000000000981
 31
-0.0000000000000007
210
0.0000000000000002
220
1.0
230
-0.0000000000000002
  0
LINE
  5
9E85
  8
0
  6
HIDDEN2
 62
     1
 10
89.2927672288542169
 20
3.0000000000000169
 30
-0.0000000000000007
 11
88.1714452830173485
 21
1.8786796564403381
 31
-0.0000000000000004
210
0.0000000000000002
220
1.0
230
-0.0000000000000002
  0
POLYLINE
  8
0
  5
A909
  62
1
  66
     1
 10
0.00000
 20
0.00000
 30
0.00000
  70
     8
  0
VERTEX
  8
0
  5
A90A
 10
-86.0501
 20
1.00000
 30
-2.00000e-16
  70
    32
  0
VERTEX
  8
0
  5
A90B
 10
-86.0571
 20
1.00001
 30
-2.00000e-16
  70
    32
  0
VERTEX
  8
0
  5
A90C
 10
-86.0641
 20
1.00003
 30
-2.00000e-16
  70
    32
  0
VERTEX
  8
0
  5
A90D
 10
-86.0711
 20
1.00008
 30
-2.00000e-16
  70
    32
  0
VERTEX
  8
0
  5
A90E
 10
-86.0781
 20
1.00014
 30
-2.00000e-16
  70
    32
  0
VERTEX
  8
0
  5
A90F
 10
-86.0851
 20
1.00022
 30
-2.00000e-16
  70
    32
  0
VERTEX
  8
0
  5
A910
 10
-86.0922
 20
1.00031
 30
-2.00000e-16
  70
    32
  0
VERTEX
  8
0
  5
A911
 10
-86.0992
 20
1.00042
 30
-2.00000e-16
  70
    32
  0
VERTEX
  8
0
  5
A912
 10
-86.1063
 20
1.00055
 30
-2.00000e-16
  70
    32
  0
VERTEX
  8
0
  5
A913
 10
-86.1134
 20
1.00070
 30
-2.00000e-16
  70
    32
  0
VERTEX
  8
0
  5
A914
 10
-86.1205
 20
1.00087
 30
-2.00000e-16
  70
    32
  0
VERTEX
  8
0
  5
A915
 10
-86.1276
 20
1.00105
 30
-2.00000e-16
  70
    32
  0
VERTEX
  8
0
  5
A916
 10
-86.1348
 20
1.00125
 30
-2.00000e-16
  70
    32
  0
VERTEX
  8
0
  5
A917
 10
-86.1419
 20
1.00147
 30
-2.00000e-16
  70
    32
  0
VERTEX
  8
0
  5
A918
 10
-86.1491
 20
1.00170
 30
-2.00000e-16
  70
    32
  0
VERTEX
  8
0
  5
A919
 10
-86.1562
 20
1.00196
 30
-2.00000e-16
  70
    32
  0
VERTEX
  8
0
  5
A91A
 10
-86.1634
 20
1.00223
 30
-2.00000e-16
  70
    32
  0
VERTEX
  8
0
  5
A91B
 10
-86.1706
 20
1.00252
 30
-2.00000e-16
  70
    32
  0
VERTEX
  8
0
  5
A91C
 10
-86.1778
 20
1.00282
 30
-2.00000e-16
  70
    32
  0
VERTEX
  8
0
  5
A91D
 10
-86.1851
 20
1.00315
 30
-2.00000e-16
  70
    32
  0
VERTEX
  8
0
  5
A91E
 10
-86.1923
 20
1.00349
 30
-2.00000e-16
  70
    32
  0
VERTEX
  8
0
  5
A91F
 10
-86.1995
 20
1.00385
 30
-2.00000e-16
  70
    32
  0
VERTEX
  8
0
  5
A920
 10
-86.2068
 20
1.00423
 30
-2.00000e-16
  70
    32
  0
VERTEX
  8
0
  5
A921
 10
-86.2140
 20
1.00463
 30
-2.00000e-16
  70
    32
  0
VERTEX
  8
0
  5
A922
 10
-86.2213
 20
1.00504
 30
-2.00000e-16
  70
    32
  0
VERTEX
  8
0
  5
A923
 10
-86.2286
 20
1.00547
 30
-2.00000e-16
  70
    32
  0
VERTEX
  8
0
  5
A924
 10
-86.2359
 20
1.00592
 30
-2.00000e-16
  70
    32
  0
VERTEX
  8
0
  5
A925
 10
-86.2432
 20
1.00639
 30
-2.00000e-16
  70
    32
  0
VERTEX
  8
0
  5
A926
 10
-86.2505
 20
1.00688
 30
-2.00000e-16
  70
    32
  0
VERTEX
  8
0
  5
A927
 10
-86.2578
 20
1.00738
 30
-2.00000e-16
  70
    32
  0
VERTEX
  8
0
  5
A928
 10
-86.2651
 20
1.00791
 30
-2.00000e-16
  70
    32
  0
VERTEX
  8
0
  5
A929
 10
-86.2725
 20
1.00845
 30
-2.00000e-16
  70
    32
  0
VERTEX
  8
0
  5
A92A
 10
-86.2798
 20
1.00901
 30
-2.00000e-16
  70
    32
  0
VERTEX
  8
0
  5
A92B
 10
-86.2872
 20
1.00958
 30
-2.00000e-16
  70
    32
  0
VERTEX
  8
0
  5
A92C
 10
-86.2945
 20
1.01018
 30
-2.00000e-16
  70
    32
  0
VERTEX
  8
0
  5
A92D
 10
-86.3019
 20
1.01079
 30
-2.00000e-16
  70
    32
  0
VERTEX
  8
0
  5
A92E
 10
-86.3093
 20
1.01143
 30
-2.00000e-16
  70
    32
  0
VERTEX
  8
0
  5
A92F
 10
-86.3167
 20
1.01208
 30
-2.00000e-16
  70
    32
  0
VERTEX
  8
0
  5
A930
 10
-86.3241
 20
1.01275
 30
-2.00000e-16
  70
    32
  0
VERTEX
  8
0
  5
A931
 10
-86.3315
 20
1.01344
 30
-2.00000e-16
  70
    32
  0
VERTEX
  8
0
  5
A932
 10
-86.3389
 20
1.01414
 30
-2.00000e-16
  70
    32
  0
VERTEX
  8
0
  5
A933
 10
-86.3463
 20
1.01487
 30
-2.00000e-16
  70
    32
  0
VERTEX
  8
0
  5
A934
 10
-86.3537
 20
1.01561
 30
-2.00000e-16
  70
    32
  0
VERTEX
  8
0
  5
A935
 10
-86.3611
 20
1.01638
 30
-2.00000e-16
  70
    32
  0
VERTEX
  8
0
  5
A936
 10
-86.3685
 20
1.01716
 30
-2.00000e-16
  70
    32
  0
VERTEX
  8
0
  5
A937
 10
-86.3760
 20
1.01796
 30
-2.00000e-16
  70
    32
  0
VERTEX
  8
0
  5
A938
 10
-86.3834
 20
1.01878
 30
-2.00000e-16
  70
    32
  0
VERTEX
  8
0
  5
A939
 10
-86.3908
 20
1.01961
 30
-2.00000e-16
  70
    32
  0
VERTEX
  8
0
  5
A93A
 10
-86.3983
 20
1.02047
 30
-2.00000e-16
  70
    32
  0
VERTEX
  8
0
  5
A93B
 10
-86.4057
 20
1.02135
 30
-2.00000e-16
  70
    32
  0
VERTEX
  8
0
  5
A93C
 10
-86.4132
 20
1.02224
 30
-2.00000e-16
  70
    32
  0
VERTEX
  8
0
  5
A93D
 10
-86.4206
 20
1.02315
 30
-2.00000e-16
  70
    32
  0
VERTEX
  8
0
  5
A93E
 10
-86.4281
 20
1.02409
 30
-2.00000e-16
  70
    32
  0
VERTEX
  8
0
  5
A93F
 10
-86.4356
 20
1.02504
 30
-2.00000e-16
  70
    32
  0
VERTEX
  8
0
  5
A940
 10
-86.4430
 20
1.02601
 30
-2.00000e-16
  70
    32
  0
VERTEX
  8
0
  5
A941
 10
-86.4505
 20
1.02700
 30
-2.00000e-16
  70
    32
  0
VERTEX
  8
0
  5
A942
 10
-86.4580
 20
1.02800
 30
-2.00000e-16
  70
    32
  0
VERTEX
  8
0
  5
A943
 10
-86.4654
 20
1.02903
 30
-2.00000e-16
  70
    32
  0
VERTEX
  8
0
  5
A944
 10
-86.4729
 20
1.03008
 30
-2.00000e-16
  70
    32
  0
VERTEX
  8
0
  5
A945
 10
-86.4804
 20
1.03114
 30
-2.00000e-16
  70
    32
  0
VERTEX
  8
0
  5
A946
 10
-86.4879
 20
1.03223
 30
-2.00000e-16
  70
    32
  0
VERTEX
  8
0
  5
A947
 10
-86.4953
 20
1.03333
 30
-2.00000e-16
  70
    32
  0
VERTEX
  8
0
  5
A948
 10
-86.5028
 20
1.03446
 30
-2.00000e-16
  70
    32
  0
VERTEX
  8
0
  5
A949
 10
-86.5103
 20
1.03560
 30
-2.00000e-16
  70
    32
  0
VERTEX
  8
0
  5
A94A
 10
-86.5178
 20
1.03676
 30
-2.00000e-16
  70
    32
  0
VERTEX
  8
0
  5
A94B
 10
-86.5252
 20
1.03794
 30
-2.00000e-16
  70
    32
  0
VERTEX
  8
0
  5
A94C
 10
-86.5327
 20
1.03914
 30
-2.00000e-16
  70
    32
  0
VERTEX
  8
0
  5
A94D
 10
-86.5402
 20
1.04036
 30
-2.00000e-16
  70
    32
  0
VERTEX
  8
0
  5
A94E
 10
-86.5477
 20
1.04160
 30
-2.00000e-16
  70
    32
  0
VERTEX
  8
0
  5
A94F
 10
-86.5552
 20
1.04286
 30
-2.00000e-16
  70
    32
  0
VERTEX
  8
0
  5
A950
 10
-86.5626
 20
1.04414
 30
-2.00000e-16
  70
    32
  0
VERTEX
  8
0
  5
A951
 10
-86.5701
 20
1.04544
 30
-2.00000e-16
  70
    32
  0
VERTEX
  8
0
  5
A952
 10
-86.5776
 20
1.04676
 30
-2.00000e-16
  70
    32
  0
VERTEX
  8
0
  5
A953
 10
-86.5850
 20
1.04810
 30
-2.00000e-16
  70
    32
  0
VERTEX
  8
0
  5
A954
 10
-86.5925
 20
1.04945
 30
-2.00000e-16
  70
    32
  0
VERTEX
  8
0
  5
A955
 10
-86.6000
 20
1.05083
 30
-2.00000e-16
  70
    32
  0
VERTEX
  8
0
  5
A956
 10
-86.6074
 20
1.05223
 30
-2.00000e-16
  70
    32
  0
VERTEX
  8
0
  5
A957
 10
-86.6149
 20
1.05365
 30
-2.00000e-16
  70
    32
  0
VERTEX
  8
0
  5
A958
 10
-86.6224
 20
1.05508
 30
-2.00000e-16
  70
    32
  0
VERTEX
  8
0
  5
A959
 10
-86.6298
 20
1.05654
 30
-2.00000e-16
  70
    32
  0
VERTEX
  8
0
  5
A95A
 10
-86.6373
 20
1.05802
 30
-2.00003e-16
  70
    32
  0
VERTEX
  8
0
  5
A95B
 10
-86.6447
 20
1.05951
 30
-2.00073e-16
  70
    32
  0
VERTEX
  8
0
  5
A95C
 10
-86.6521
 20
1.06103
 30
-2.00234e-16
  70
    32
  0
VERTEX
  8
0
  5
A95D
 10
-86.6596
 20
1.06256
 30
-2.00485e-16
  70
    32
  0
VERTEX
  8
0
  5
A95E
 10
-86.6670
 20
1.06412
 30
-2.00822e-16
  70
    32
  0
VERTEX
  8
0
  5
A95F
 10
-86.6744
 20
1.06569
 30
-2.01243e-16
  70
    32
  0
VERTEX
  8
0
  5
A960
 10
-86.6819
 20
1.06729
 30
-2.01746e-16
  70
    32
  0
VERTEX
  8
0
  5
A961
 10
-86.6893
 20
1.06890
 30
-2.02329e-16
  70
    32
  0
VERTEX
  8
0
  5
A962
 10
-86.6967
 20
1.07053
 30
-2.02989e-16
  70
    32
  0
VERTEX
  8
0
  5
A963
 10
-86.7041
 20
1.07218
 30
-2.03724e-16
  70
    32
  0
VERTEX
  8
0
  5
A964
 10
-86.7115
 20
1.07385
 30
-2.04531e-16
  70
    32
  0
VERTEX
  8
0
  5
A965
 10
-86.7189
 20
1.07554
 30
-2.05408e-16
  70
    32
  0
VERTEX
  8
0
  5
A966
 10
-86.7263
 20
1.07725
 30
-2.06353e-16
  70
    32
  0
VERTEX
  8
0
  5
A967
 10
-86.7336
 20
1.07897
 30
-2.07364e-16
  70
    32
  0
VERTEX
  8
0
  5
A968
 10
-86.7410
 20
1.08071
 30
-2.08437e-16
  70
    32
  0
VERTEX
  8
0
  5
A969
 10
-86.7484
 20
1.08248
 30
-2.09571e-16
  70
    32
  0
VERTEX
  8
0
  5
A96A
 10
-86.7557
 20
1.08426
 30
-2.10764e-16
  70
    32
  0
VERTEX
  8
0
  5
A96B
 10
-86.7631
 20
1.08605
 30
-2.12012e-16
  70
    32
  0
VERTEX
  8
0
  5
A96C
 10
-86.7704
 20
1.08787
 30
-2.13313e-16
  70
    32
  0
VERTEX
  8
0
  5
A96D
 10
-86.7778
 20
1.08970
 30
-2.14666e-16
  70
    32
  0
VERTEX
  8
0
  5
A96E
 10
-86.7851
 20
1.09155
 30
-2.16068e-16
  70
    32
  0
VERTEX
  8
0
  5
A96F
 10
-86.7924
 20
1.09342
 30
-2.17516e-16
  70
    32
  0
VERTEX
  8
0
  5
A970
 10
-86.7997
 20
1.09530
 30
-2.19008e-16
  70
    32
  0
VERTEX
  8
0
  5
A971
 10
-86.8070
 20
1.09720
 30
-2.20542e-16
  70
    32
  0
VERTEX
  8
0
  5
A972
 10
-86.8143
 20
1.09912
 30
-2.22115e-16
  70
    32
  0
VERTEX
  8
0
  5
A973
 10
-86.8216
 20
1.10106
 30
-2.23725e-16
  70
    32
  0
VERTEX
  8
0
  5
A974
 10
-86.8289
 20
1.10301
 30
-2.25370e-16
  70
    32
  0
VERTEX
  8
0
  5
A975
 10
-86.8361
 20
1.10498
 30
-2.27047e-16
  70
    32
  0
VERTEX
  8
0
  5
A976
 10
-86.8434
 20
1.10696
 30
-2.28754e-16
  70
    32
  0
VERTEX
  8
0
  5
A977
 10
-86.8506
 20
1.10896
 30
-2.30488e-16
  70
    32
  0
VERTEX
  8
0
  5
A978
 10
-86.8579
 20
1.11098
 30
-2.32248e-16
  70
    32
  0
VERTEX
  8
0
  5
A979
 10
-86.8651
 20
1.11302
 30
-2.34030e-16
  70
    32
  0
VERTEX
  8
0
  5
A97A
 10
-86.8723
 20
1.11507
 30
-2.35833e-16
  70
    32
  0
VERTEX
  8
0
  5
A97B
 10
-86.8795
 20
1.11713
 30
-2.37654e-16
  70
    32
  0
VERTEX
  8
0
  5
A97C
 10
-86.8867
 20
1.11921
 30
-2.39490e-16
  70
    32
  0
VERTEX
  8
0
  5
A97D
 10
-86.8938
 20
1.12131
 30
-2.41340e-16
  70
    32
  0
VERTEX
  8
0
  5
A97E
 10
-86.9010
 20
1.12342
 30
-2.43200e-16
  70
    32
  0
VERTEX
  8
0
  5
A97F
 10
-86.9082
 20
1.12555
 30
-2.45070e-16
  70
    32
  0
VERTEX
  8
0
  5
A980
 10
-86.9153
 20
1.12769
 30
-2.46945e-16
  70
    32
  0
VERTEX
  8
0
  5
A981
 10
-86.9224
 20
1.12985
 30
-2.48824e-16
  70
    32
  0
VERTEX
  8
0
  5
A982
 10
-86.9296
 20
1.13202
 30
-2.50705e-16
  70
    32
  0
VERTEX
  8
0
  5
A983
 10
-86.9367
 20
1.13421
 30
-2.52585e-16
  70
    32
  0
VERTEX
  8
0
  5
A984
 10
-86.9438
 20
1.13641
 30
-2.54462e-16
  70
    32
  0
VERTEX
  8
0
  5
A985
 10
-86.9508
 20
1.13863
 30
-2.56333e-16
  70
    32
  0
VERTEX
  8
0
  5
A986
 10
-86.9579
 20
1.14086
 30
-2.58196e-16
  70
    32
  0
VERTEX
  8
0
  5
A987
 10
-86.9649
 20
1.14310
 30
-2.60048e-16
  70
    32
  0
VERTEX
  8
0
  5
A988
 10
-86.9720
 20
1.14536
 30
-2.61888e-16
  70
    32
  0
VERTEX
  8
0
  5
A989
 10
-86.9790
 20
1.14764
 30
-2.63713e-16
  70
    32
  0
VERTEX
  8
0
  5
A98A
 10
-86.9860
 20
1.14992
 30
-2.65521e-16
  70
    32
  0
VERTEX
  8
0
  5
A98B
 10
-86.9930
 20
1.15222
 30
-2.67308e-16
  70
    32
  0
VERTEX
  8
0
  5
A98C
 10
-87.0000
 20
1.15454
 30
-2.69074e-16
  70
    32
  0
VERTEX
  8
0
  5
A98D
 10
-87.0069
 20
1.15687
 30
-2.70814e-16
  70
    32
  0
VERTEX
  8
0
  5
A98E
 10
-87.0139
 20
1.15921
 30
-2.72528e-16
  70
    32
  0
VERTEX
  8
0
  5
A98F
 10
-87.0208
 20
1.16156
 30
-2.74213e-16
  70
    32
  0
VERTEX
  8
0
  5
A990
 10
-87.0277
 20
1.16393
 30
-2.75866e-16
  70
    32
  0
VERTEX
  8
0
  5
A991
 10
-87.0346
 20
1.16631
 30
-2.77485e-16
  70
    32
  0
VERTEX
  8
0
  5
A992
 10
-87.0415
 20
1.16871
 30
-2.79068e-16
  70
    32
  0
VERTEX
  8
0
  5
A993
 10
-87.0484
 20
1.17111
 30
-2.80612e-16
  70
    32
  0
VERTEX
  8
0
  5
A994
 10
-87.0553
 20
1.17353
 30
-2.82115e-16
  70
    32
  0
VERTEX
  8
0
  5
A995
 10
-87.0621
 20
1.17596
 30
-2.83574e-16
  70
    32
  0
VERTEX
  8
0
  5
A996
 10
-87.0689
 20
1.17841
 30
-2.84987e-16
  70
    32
  0
VERTEX
  8
0
  5
A997
 10
-87.0757
 20
1.18087
 30
-2.86353e-16
  70
    32
  0
VERTEX
  8
0
  5
A998
 10
-87.0825
 20
1.18333
 30
-2.87667e-16
  70
    32
  0
VERTEX
  8
0
  5
A999
 10
-87.0893
 20
1.18581
 30
-2.88929e-16
  70
    32
  0
VERTEX
  8
0
  5
A99A
 10
-87.0960
 20
1.18831
 30
-2.90136e-16
  70
    32
  0
VERTEX
  8
0
  5
A99B
 10
-87.1027
 20
1.19081
 30
-2.91285e-16
  70
    32
  0
VERTEX
  8
0
  5
A99C
 10
-87.1095
 20
1.19333
 30
-2.92373e-16
  70
    32
  0
VERTEX
  8
0
  5
A99D
 10
-87.1161
 20
1.19585
 30
-2.93400e-16
  70
    32
  0
VERTEX
  8
0
  5
A99E
 10
-87.1228
 20
1.19839
 30
-2.94361e-16
  70
    32
  0
VERTEX
  8
0
  5
A99F
 10
-87.1295
 20
1.20094
 30
-2.95256e-16
  70
    32
  0
VERTEX
  8
0
  5
A9A0
 10
-87.1361
 20
1.20350
 30
-2.96081e-16
  70
    32
  0
VERTEX
  8
0
  5
A9A1
 10
-87.1427
 20
1.20608
 30
-2.96834e-16
  70
    32
  0
VERTEX
  8
0
  5
A9A2
 10
-87.1493
 20
1.20866
 30
-2.97513e-16
  70
    32
  0
VERTEX
  8
0
  5
A9A3
 10
-87.1559
 20
1.21125
 30
-2.98115e-16
  70
    32
  0
VERTEX
  8
0
  5
A9A4
 10
-87.1625
 20
1.21386
 30
-2.98639e-16
  70
    32
  0
VERTEX
  8
0
  5
A9A5
 10
-87.1690
 20
1.21647
 30
-2.99081e-16
  70
    32
  0
VERTEX
  8
0
  5
A9A6
 10
-87.1755
 20
1.21909
 30
-2.99439e-16
  70
    32
  0
VERTEX
  8
0
  5
A9A7
 10
-87.1820
 20
1.22173
 30
-2.99711e-16
  70
    32
  0
VERTEX
  8
0
  5
A9A8
 10
-87.1885
 20
1.22437
 30
-2.99895e-16
  70
    32
  0
VERTEX
  8
0
  5
A9A9
 10
-87.1950
 20
1.22703
 30
-2.99988e-16
  70
    32
  0
VERTEX
  8
0
  5
A9AA
 10
-87.2014
 20
1.22970
 30
-3.00000e-16
  70
    32
  0
VERTEX
  8
0
  5
A9AB
 10
-87.2078
 20
1.23238
 30
-3.00000e-16
  70
    32
  0
VERTEX
  8
0
  5
A9AC
 10
-87.2143
 20
1.23509
 30
-3.00002e-16
  70
    32
  0
VERTEX
  8
0
  5
A9AD
 10
-87.2207
 20
1.23782
 30
-3.00004e-16
  70
    32
  0
VERTEX
  8
0
  5
A9AE
 10
-87.2272
 20
1.24058
 30
-3.00009e-16
  70
    32
  0
VERTEX
  8
0
  5
A9AF
 10
-87.2337
 20
1.24335
 30
-3.00016e-16
  70
    32
  0
VERTEX
  8
0
  5
A9B0
 10
-87.2402
 20
1.24615
 30
-3.00027e-16
  70
    32
  0
VERTEX
  8
0
  5
A9B1
 10
-87.2466
 20
1.24896
 30
-3.00042e-16
  70
    32
  0
VERTEX
  8
0
  5
A9B2
 10
-87.2531
 20
1.25180
 30
-3.00061e-16
  70
    32
  0
VERTEX
  8
0
  5
A9B3
 10
-87.2596
 20
1.25466
 30
-3.00085e-16
  70
    32
  0
VERTEX
  8
0
  5
A9B4
 10
-87.2661
 20
1.25755
 30
-3.00114e-16
  70
    32
  0
VERTEX
  8
0
  5
A9B5
 10
-87.2726
 20
1.26045
 30
-3.00150e-16
  70
    32
  0
VERTEX
  8
0
  5
A9B6
 10
-87.2792
 20
1.26338
 30
-3.00193e-16
  70
    32
  0
VERTEX
  8
0
  5
A9B7
 10
-87.2857
 20
1.26632
 30
-3.00243e-16
  70
    32
  0
VERTEX
  8
0
  5
A9B8
 10
-87.2922
 20
1.26929
 30
-3.00301e-16
  70
    32
  0
VERTEX
  8
0
  5
A9B9
 10
-87.2987
 20
1.27228
 30
-3.00367e-16
  70
    32
  0
VERTEX
  8
0
  5
A9BA
 10
-87.3053
 20
1.27529
 30
-3.00443e-16
  70
    32
  0
VERTEX
  8
0
  5
A9BB
 10
-87.3118
 20
1.27832
 30
-3.00528e-16
  70
    32
  0
VERTEX
  8
0
  5
A9BC
 10
-87.3184
 20
1.28137
 30
-3.00624e-16
  70
    32
  0
VERTEX
  8
0
  5
A9BD
 10
-87.3249
 20
1.28444
 30
-3.00731e-16
  70
    32
  0
VERTEX
  8
0
  5
A9BE
 10
-87.3315
 20
1.28754
 30
-3.00849e-16
  70
    32
  0
VERTEX
  8
0
  5
A9BF
 10
-87.3380
 20
1.29065
 30
-3.00980e-16
  70
    32
  0
VERTEX
  8
0
  5
A9C0
 10
-87.3446
 20
1.29379
 30
-3.01123e-16
  70
    32
  0
VERTEX
  8
0
  5
A9C1
 10
-87.3511
 20
1.29694
 30
-3.01279e-16
  70
    32
  0
VERTEX
  8
0
  5
A9C2
 10
-87.3577
 20
1.30012
 30
-3.01450e-16
  70
    32
  0
VERTEX
  8
0
  5
A9C3
 10
-87.3642
 20
1.30331
 30
-3.01635e-16
  70
    32
  0
VERTEX
  8
0
  5
A9C4
 10
-87.3708
 20
1.30653
 30
-3.01834e-16
  70
    32
  0
VERTEX
  8
0
  5
A9C5
 10
-87.3774
 20
1.30977
 30
-3.02050e-16
  70
    32
  0
VERTEX
  8
0
  5
A9C6
 10
-87.3839
 20
1.31303
 30
-3.02282e-16
  70
    32
  0
VERTEX
  8
0
  5
A9C7
 10
-87.3905
 20
1.31630
 30
-3.02531e-16
  70
    32
  0
VERTEX
  8
0
  5
A9C8
 10
-87.3971
 20
1.31960
 30
-3.02797e-16
  70
    32
  0
VERTEX
  8
0
  5
A9C9
 10
-87.4037
 20
1.32292
 30
-3.03081e-16
  70
    32
  0
VERTEX
  8
0
  5
A9CA
 10
-87.4102
 20
1.32626
 30
-3.03384e-16
  70
    32
  0
VERTEX
  8
0
  5
A9CB
 10
-87.4168
 20
1.32962
 30
-3.03706e-16
  70
    32
  0
VERTEX
  8
0
  5
A9CC
 10
-87.4234
 20
1.33299
 30
-3.04048e-16
  70
    32
  0
VERTEX
  8
0
  5
A9CD
 10
-87.4300
 20
1.33639
 30
-3.04410e-16
  70
    32
  0
VERTEX
  8
0
  5
A9CE
 10
-87.4365
 20
1.33981
 30
-3.04793e-16
  70
    32
  0
VERTEX
  8
0
  5
A9CF
 10
-87.4431
 20
1.34325
 30
-3.05198e-16
  70
    32
  0
VERTEX
  8
0
  5
A9D0
 10
-87.4497
 20
1.34670
 30
-3.05625e-16
  70
    32
  0
VERTEX
  8
0
  5
A9D1
 10
-87.4562
 20
1.35018
 30
-3.06075e-16
  70
    32
  0
VERTEX
  8
0
  5
A9D2
 10
-87.4628
 20
1.35368
 30
-3.06548e-16
  70
    32
  0
VERTEX
  8
0
  5
A9D3
 10
-87.4694
 20
1.35719
 30
-3.07046e-16
  70
    32
  0
VERTEX
  8
0
  5
A9D4
 10
-87.4759
 20
1.36073
 30
-3.07567e-16
  70
    32
  0
VERTEX
  8
0
  5
A9D5
 10
-87.4825
 20
1.36428
 30
-3.08114e-16
  70
    32
  0
VERTEX
  8
0
  5
A9D6
 10
-87.4891
 20
1.36785
 30
-3.08687e-16
  70
    32
  0
VERTEX
  8
0
  5
A9D7
 10
-87.4956
 20
1.37145
 30
-3.09286e-16
  70
    32
  0
VERTEX
  8
0
  5
A9D8
 10
-87.5022
 20
1.37506
 30
-3.09911e-16
  70
    32
  0
VERTEX
  8
0
  5
A9D9
 10
-87.5087
 20
1.37869
 30
-3.10565e-16
  70
    32
  0
VERTEX
  8
0
  5
A9DA
 10
-87.5153
 20
1.38234
 30
-3.11246e-16
  70
    32
  0
VERTEX
  8
0
  5
A9DB
 10
-87.5218
 20
1.38601
 30
-3.11956e-16
  70
    32
  0
VERTEX
  8
0
  5
A9DC
 10
-87.5284
 20
1.38969
 30
-3.12695e-16
  70
    32
  0
VERTEX
  8
0
  5
A9DD
 10
-87.5349
 20
1.39340
 30
-3.13465e-16
  70
    32
  0
VERTEX
  8
0
  5
A9DE
 10
-87.5414
 20
1.39712
 30
-3.14264e-16
  70
    32
  0
VERTEX
  8
0
  5
A9DF
 10
-87.5480
 20
1.40087
 30
-3.15095e-16
  70
    32
  0
VERTEX
  8
0
  5
A9E0
 10
-87.5545
 20
1.40463
 30
-3.15957e-16
  70
    32
  0
VERTEX
  8
0
  5
A9E1
 10
-87.5610
 20
1.40841
 30
-3.16852e-16
  70
    32
  0
VERTEX
  8
0
  5
A9E2
 10
-87.5675
 20
1.41221
 30
-3.17780e-16
  70
    32
  0
VERTEX
  8
0
  5
A9E3
 10
-87.5740
 20
1.41603
 30
-3.18740e-16
  70
    32
  0
VERTEX
  8
0
  5
A9E4
 10
-87.5805
 20
1.41986
 30
-3.19735e-16
  70
    32
  0
VERTEX
  8
0
  5
A9E5
 10
-87.5870
 20
1.42372
 30
-3.20765e-16
  70
    32
  0
VERTEX
  8
0
  5
A9E6
 10
-87.5935
 20
1.42759
 30
-3.21829e-16
  70
    32
  0
VERTEX
  8
0
  5
A9E7
 10
-87.6000
 20
1.43148
 30
-3.22930e-16
  70
    32
  0
VERTEX
  8
0
  5
A9E8
 10
-87.6065
 20
1.43539
 30
-3.24067e-16
  70
    32
  0
VERTEX
  8
0
  5
A9E9
 10
-87.6129
 20
1.43932
 30
-3.25240e-16
  70
    32
  0
VERTEX
  8
0
  5
A9EA
 10
-87.6194
 20
1.44326
 30
-3.26452e-16
  70
    32
  0
VERTEX
  8
0
  5
A9EB
 10
-87.6258
 20
1.44722
 30
-3.27701e-16
  70
    32
  0
VERTEX
  8
0
  5
A9EC
 10
-87.6323
 20
1.45120
 30
-3.28990e-16
  70
    32
  0
VERTEX
  8
0
  5
A9ED
 10
-87.6387
 20
1.45520
 30
-3.30317e-16
  70
    32
  0
VERTEX
  8
0
  5
A9EE
 10
-87.6452
 20
1.45922
 30
-3.31685e-16
  70
    32
  0
VERTEX
  8
0
  5
A9EF
 10
-87.6516
 20
1.46325
 30
-3.33093e-16
  70
    32
  0
VERTEX
  8
0
  5
A9F0
 10
-87.6580
 20
1.46730
 30
-3.34542e-16
  70
    32
  0
VERTEX
  8
0
  5
A9F1
 10
-87.6644
 20
1.47137
 30
-3.36032e-16
  70
    32
  0
VERTEX
  8
0
  5
A9F2
 10
-87.6708
 20
1.47545
 30
-3.37566e-16
  70
    32
  0
VERTEX
  8
0
  5
A9F3
 10
-87.6772
 20
1.47956
 30
-3.39142e-16
  70
    32
  0
VERTEX
  8
0
  5
A9F4
 10
-87.6835
 20
1.48368
 30
-3.40761e-16
  70
    32
  0
VERTEX
  8
0
  5
A9F5
 10
-87.6899
 20
1.48782
 30
-3.42425e-16
  70
    32
  0
VERTEX
  8
0
  5
A9F6
 10
-87.6963
 20
1.49197
 30
-3.44133e-16
  70
    32
  0
VERTEX
  8
0
  5
A9F7
 10
-87.7026
 20
1.49614
 30
-3.45886e-16
  70
    32
  0
VERTEX
  8
0
  5
A9F8
 10
-87.7089
 20
1.50033
 30
-3.47685e-16
  70
    32
  0
VERTEX
  8
0
  5
A9F9
 10
-87.7153
 20
1.50454
 30
-3.49531e-16
  70
    32
  0
VERTEX
  8
0
  5
A9FA
 10
-87.7216
 20
1.50876
 30
-3.51397e-16
  70
    32
  0
VERTEX
  8
0
  5
A9FB
 10
-87.7279
 20
1.51300
 30
-3.53220e-16
  70
    32
  0
VERTEX
  8
0
  5
A9FC
 10
-87.7342
 20
1.51726
 30
-3.54996e-16
  70
    32
  0
VERTEX
  8
0
  5
A9FD
 10
-87.7404
 20
1.52153
 30
-3.56727e-16
  70
    32
  0
VERTEX
  8
0
  5
A9FE
 10
-87.7467
 20
1.52582
 30
-3.58412e-16
  70
    32
  0
VERTEX
  8
0
  5
A9FF
 10
-87.7529
 20
1.53012
 30
-3.60054e-16
  70
    32
  0
VERTEX
  8
0
  5
AA00
 10
-87.7592
 20
1.53444
 30
-3.61652e-16
  70
    32
  0
VERTEX
  8
0
  5
AA01
 10
-87.7654
 20
1.53878
 30
-3.63206e-16
  70
    32
  0
VERTEX
  8
0
  5
AA02
 10
-87.7716
 20
1.54313
 30
-3.64718e-16
  70
    32
  0
VERTEX
  8
0
  5
AA03
 10
-87.7778
 20
1.54749
 30
-3.66188e-16
  70
    32
  0
VERTEX
  8
0
  5
AA04
 10
-87.7840
 20
1.55187
 30
-3.67616e-16
  70
    32
  0
VERTEX
  8
0
  5
AA05
 10
-87.7902
 20
1.55627
 30
-3.69004e-16
  70
    32
  0
VERTEX
  8
0
  5
AA06
 10
-87.7964
 20
1.56068
 30
-3.70351e-16
  70
    32
  0
VERTEX
  8
0
  5
AA07
 10
-87.8025
 20
1.56511
 30
-3.71659e-16
  70
    32
  0
VERTEX
  8
0
  5
AA08
 10
-87.8087
 20
1.56954
 30
-3.72928e-16
  70
    32
  0
VERTEX
  8
0
  5
AA09
 10
-87.8148
 20
1.57400
 30
-3.74158e-16
  70
    32
  0
VERTEX
  8
0
  5
AA0A
 10
-87.8209
 20
1.57846
 30
-3.75351e-16
  70
    32
  0
VERTEX
  8
0
  5
AA0B
 10
-87.8270
 20
1.58294
 30
-3.76506e-16
  70
    32
  0
VERTEX
  8
0
  5
AA0C
 10
-87.8331
 20
1.58744
 30
-3.77625e-16
  70
    32
  0
VERTEX
  8
0
  5
AA0D
 10
-87.8391
 20
1.59194
 30
-3.78707e-16
  70
    32
  0
VERTEX
  8
0
  5
AA0E
 10
-87.8452
 20
1.59646
 30
-3.79754e-16
  70
    32
  0
VERTEX
  8
0
  5
AA0F
 10
-87.8512
 20
1.60099
 30
-3.80766e-16
  70
    32
  0
VERTEX
  8
0
  5
AA10
 10
-87.8572
 20
1.60554
 30
-3.81744e-16
  70
    32
  0
VERTEX
  8
0
  5
AA11
 10
-87.8633
 20
1.61009
 30
-3.82688e-16
  70
    32
  0
VERTEX
  8
0
  5
AA12
 10
-87.8693
 20
1.61466
 30
-3.83599e-16
  70
    32
  0
VERTEX
  8
0
  5
AA13
 10
-87.8752
 20
1.61924
 30
-3.84478e-16
  70
    32
  0
VERTEX
  8
0
  5
AA14
 10
-87.8812
 20
1.62384
 30
-3.85324e-16
  70
    32
  0
VERTEX
  8
0
  5
AA15
 10
-87.8871
 20
1.62844
 30
-3.86139e-16
  70
    32
  0
VERTEX
  8
0
  5
AA16
 10
-87.8931
 20
1.63306
 30
-3.86924e-16
  70
    32
  0
VERTEX
  8
0
  5
AA17
 10
-87.8990
 20
1.63768
 30
-3.87678e-16
  70
    32
  0
VERTEX
  8
0
  5
AA18
 10
-87.9049
 20
1.64232
 30
-3.88402e-16
  70
    32
  0
VERTEX
  8
0
  5
AA19
 10
-87.9108
 20
1.64697
 30
-3.89098e-16
  70
    32
  0
VERTEX
  8
0
  5
AA1A
 10
-87.9167
 20
1.65163
 30
-3.89765e-16
  70
    32
  0
VERTEX
  8
0
  5
AA1B
 10
-87.9225
 20
1.65629
 30
-3.90405e-16
  70
    32
  0
VERTEX
  8
0
  5
AA1C
 10
-87.9283
 20
1.66097
 30
-3.91017e-16
  70
    32
  0
VERTEX
  8
0
  5
AA1D
 10
-87.9342
 20
1.66566
 30
-3.91603e-16
  70
    32
  0
VERTEX
  8
0
  5
AA1E
 10
-87.9400
 20
1.67036
 30
-3.92162e-16
  70
    32
  0
VERTEX
  8
0
  5
AA1F
 10
-87.9458
 20
1.67507
 30
-3.92697e-16
  70
    32
  0
VERTEX
  8
0
  5
AA20
 10
-87.9515
 20
1.67978
 30
-3.93206e-16
  70
    32
  0
VERTEX
  8
0
  5
AA21
 10
-87.9573
 20
1.68451
 30
-3.93691e-16
  70
    32
  0
VERTEX
  8
0
  5
AA22
 10
-87.9630
 20
1.68925
 30
-3.94152e-16
  70
    32
  0
VERTEX
  8
0
  5
AA23
 10
-87.9687
 20
1.69399
 30
-3.94591e-16
  70
    32
  0
VERTEX
  8
0
  5
AA24
 10
-87.9744
 20
1.69874
 30
-3.95007e-16
  70
    32
  0
VERTEX
  8
0
  5
AA25
 10
-87.9801
 20
1.70350
 30
-3.95401e-16
  70
    32
  0
VERTEX
  8
0
  5
AA26
 10
-87.9858
 20
1.70827
 30
-3.95773e-16
  70
    32
  0
VERTEX
  8
0
  5
AA27
 10
-87.9914
 20
1.71305
 30
-3.96125e-16
  70
    32
  0
VERTEX
  8
0
  5
AA28
 10
-87.9970
 20
1.71783
 30
-3.96457e-16
  70
    32
  0
VERTEX
  8
0
  5
AA29
 10
-88.0027
 20
1.72262
 30
-3.96770e-16
  70
    32
  0
VERTEX
  8
0
  5
AA2A
 10
-88.0082
 20
1.72742
 30
-3.97063e-16
  70
    32
  0
VERTEX
  8
0
  5
AA2B
 10
-88.0138
 20
1.73223
 30
-3.97338e-16
  70
    32
  0
VERTEX
  8
0
  5
AA2C
 10
-88.0194
 20
1.73704
 30
-3.97596e-16
  70
    32
  0
VERTEX
  8
0
  5
AA2D
 10
-88.0249
 20
1.74186
 30
-3.97836e-16
  70
    32
  0
VERTEX
  8
0
  5
AA2E
 10
-88.0304
 20
1.74668
 30
-3.98060e-16
  70
    32
  0
VERTEX
  8
0
  5
AA2F
 10
-88.0359
 20
1.75152
 30
-3.98267e-16
  70
    32
  0
VERTEX
  8
0
  5
AA30
 10
-88.0414
 20
1.75635
 30
-3.98460e-16
  70
    32
  0
VERTEX
  8
0
  5
AA31
 10
-88.0468
 20
1.76120
 30
-3.98637e-16
  70
    32
  0
VERTEX
  8
0
  5
AA32
 10
-88.0523
 20
1.76605
 30
-3.98801e-16
  70
    32
  0
VERTEX
  8
0
  5
AA33
 10
-88.0577
 20
1.77090
 30
-3.98950e-16
  70
    32
  0
VERTEX
  8
0
  5
AA34
 10
-88.0631
 20
1.77576
 30
-3.99087e-16
  70
    32
  0
VERTEX
  8
0
  5
AA35
 10
-88.0685
 20
1.78063
 30
-3.99211e-16
  70
    32
  0
VERTEX
  8
0
  5
AA36
 10
-88.0738
 20
1.78550
 30
-3.99324e-16
  70
    32
  0
VERTEX
  8
0
  5
AA37
 10
-88.0791
 20
1.79037
 30
-3.99425e-16
  70
    32
  0
VERTEX
  8
0
  5
AA38
 10
-88.0845
 20
1.79525
 30
-3.99516e-16
  70
    32
  0
VERTEX
  8
0
  5
AA39
 10
-88.0897
 20
1.80013
 30
-3.99596e-16
  70
    32
  0
VERTEX
  8
0
  5
AA3A
 10
-88.0950
 20
1.80502
 30
-3.99667e-16
  70
    32
  0
VERTEX
  8
0
  5
AA3B
 10
-88.1003
 20
1.80991
 30
-3.99730e-16
  70
    32
  0
VERTEX
  8
0
  5
AA3C
 10
-88.1055
 20
1.81481
 30
-3.99783e-16
  70
    32
  0
VERTEX
  8
0
  5
AA3D
 10
-88.1107
 20
1.81971
 30
-3.99830e-16
  70
    32
  0
VERTEX
  8
0
  5
AA3E
 10
-88.1159
 20
1.82461
 30
-3.99869e-16
  70
    32
  0
VERTEX
  8
0
  5
AA3F
 10
-88.1211
 20
1.82951
 30
-3.99901e-16
  70
    32
  0
VERTEX
  8
0
  5
AA40
 10
-88.1262
 20
1.83442
 30
-3.99928e-16
  70
    32
  0
VERTEX
  8
0
  5
AA41
 10
-88.1313
 20
1.83933
 30
-3.99950e-16
  70
    32
  0
VERTEX
  8
0
  5
AA42
 10
-88.1364
 20
1.84424
 30
-3.99966e-16
  70
    32
  0
VERTEX
  8
0
  5
AA43
 10
-88.1415
 20
1.84916
 30
-3.99979e-16
  70
    32
  0
VERTEX
  8
0
  5
AA44
 10
-88.1465
 20
1.85407
 30
-3.99988e-16
  70
    32
  0
VERTEX
  8
0
  5
AA45
 10
-88.1516
 20
1.85899
 30
-3.99994e-16
  70
    32
  0
VERTEX
  8
0
  5
AA46
 10
-88.1566
 20
1.86391
 30
-3.99997e-16
  70
    32
  0
VERTEX
  8
0
  5
AA47
 10
-88.1616
 20
1.86883
 30
-3.99999e-16
  70
    32
  0
VERTEX
  8
0
  5
AA48
 10
-88.1665
 20
1.87376
 30
-4.00000e-16
  70
    32
  0
VERTEX
  8
0
  5
AA49
 10
-88.1714
 20
1.87868
 30
-4.00000e-16
  70
    32
  0
SEQEND
  8
0
  5
AA4A
  0
POLYLINE
  8
0
  5
AA4B
  62
1
  66
     1
 10
0.00000
 20
0.00000
 30
0.00000
  70
     8
  0
VERTEX
  8
0
  5
AA4C
 10
88.1714
 20
1.87868
 30
-4.00000e-16
  70
    32
  0
VERTEX
  8
0
  5
AA4D
 10
88.1665
 20
1.87376
 30
-4.00000e-16
  70
    32
  0
VERTEX
  8
0
  5
AA4E
 10
88.1616
 20
1.86883
 30
-3.99999e-16
  70
    32
  0
VERTEX
  8
0
  5
AA4F
 10
88.1566
 20
1.86391
 30
-3.99997e-16
  70
    32
  0
VERTEX
  8
0
  5
AA50
 10
88.1516
 20
1.85899
 30
-3.99994e-16
  70
    32
  0
VERTEX
  8
0
  5
AA51
 10
88.1465
 20
1.85407
 30
-3.99988e-16
  70
    32
  0
VERTEX
  8
0
  5
AA52
 10
88.1415
 20
1.84916
 30
-3.99979e-16
  70
    32
  0
VERTEX
  8
0
  5
AA53
 10
88.1364
 20
1.84424
 30
-3.99966e-16
  70
    32
  0
VERTEX
  8
0
  5
AA54
 10
88.1313
 20
1.83933
 30
-3.99950e-16
  70
    32
  0
VERTEX
  8
0
  5
AA55
 10
88.1262
 20
1.83442
 30
-3.99928e-16
  70
    32
  0
VERTEX
  8
0
  5
AA56
 10
88.1211
 20
1.82951
 30
-3.99901e-16
  70
    32
  0
VERTEX
  8
0
  5
AA57
 10
88.1159
 20
1.82461
 30
-3.99869e-16
  70
    32
  0
VERTEX
  8
0
  5
AA58
 10
88.1107
 20
1.81971
 30
-3.99830e-16
  70
    32
  0
VERTEX
  8
0
  5
AA59
 10
88.1055
 20
1.81481
 30
-3.99783e-16
  70
    32
  0
VERTEX
  8
0
  5
AA5A
 10
88.1003
 20
1.80991
 30
-3.99730e-16
  70
    32
  0
VERTEX
  8
0
  5
AA5B
 10
88.0950
 20
1.80502
 30
-3.99667e-16
  70
    32
  0
VERTEX
  8
0
  5
AA5C
 10
88.0897
 20
1.80013
 30
-3.99596e-16
  70
    32
  0
VERTEX
  8
0
  5
AA5D
 10
88.0845
 20
1.79525
 30
-3.99516e-16
  70
    32
  0
VERTEX
  8
0
  5
AA5E
 10
88.0791
 20
1.79037
 30
-3.99425e-16
  70
    32
  0
VERTEX
  8
0
  5
AA5F
 10
88.0738
 20
1.78550
 30
-3.99324e-16
  70
    32
  0
VERTEX
  8
0
  5
AA60
 10
88.0685
 20
1.78063
 30
-3.99211e-16
  70
    32
  0
VERTEX
  8
0
  5
AA61
 10
88.0631
 20
1.77576
 30
-3.99087e-16
  70
    32
  0
VERTEX
  8
0
  5
AA62
 10
88.0577
 20
1.77090
 30
-3.98950e-16
  70
    32
  0
VERTEX
  8
0
  5
AA63
 10
88.0523
 20
1.76605
 30
-3.98801e-16
  70
    32
  0
VERTEX
  8
0
  5
AA64
 10
88.0468
 20
1.76120
 30
-3.98637e-16
  70
    32
  0
VERTEX
  8
0
  5
AA65
 10
88.0414
 20
1.75635
 30
-3.98460e-16
  70
    32
  0
VERTEX
  8
0
  5
AA66
 10
88.0359
 20
1.75152
 30
-3.98267e-16
  70
    32
  0
VERTEX
  8
0
  5
AA67
 10
88.0304
 20
1.74668
 30
-3.98060e-16
  70
    32
  0
VERTEX
  8
0
  5
AA68
 10
88.0249
 20
1.74186
 30
-3.97836e-16
  70
    32
  0
VERTEX
  8
0
  5
AA69
 10
88.0194
 20
1.73704
 30
-3.97596e-16
  70
    32
  0
VERTEX
  8
0
  5
AA6A
 10
88.0138
 20
1.73223
 30
-3.97338e-16
  70
    32
  0
VERTEX
  8
0
  5
AA6B
 10
88.0082
 20
1.72742
 30
-3.97063e-16
  70
    32
  0
VERTEX
  8
0
  5
AA6C
 10
88.0027
 20
1.72262
 30
-3.96770e-16
  70
    32
  0
VERTEX
  8
0
  5
AA6D
 10
87.9970
 20
1.71783
 30
-3.96457e-16
  70
    32
  0
VERTEX
  8
0
  5
AA6E
 10
87.9914
 20
1.71305
 30
-3.96125e-16
  70
    32
  0
VERTEX
  8
0
  5
AA6F
 10
87.9858
 20
1.70827
 30
-3.95773e-16
  70
    32
  0
VERTEX
  8
0
  5
AA70
 10
87.9801
 20
1.70350
 30
-3.95401e-16
  70
    32
  0
VERTEX
  8
0
  5
AA71
 10
87.9744
 20
1.69874
 30
-3.95007e-16
  70
    32
  0
VERTEX
  8
0
  5
AA72
 10
87.9687
 20
1.69399
 30
-3.94591e-16
  70
    32
  0
VERTEX
  8
0
  5
AA73
 10
87.9630
 20
1.68925
 30
-3.94152e-16
  70
    32
  0
VERTEX
  8
0
  5
AA74
 10
87.9573
 20
1.68451
 30
-3.93691e-16
  70
    32
  0
VERTEX
  8
0
  5
AA75
 10
87.9515
 20
1.67978
 30
-3.93206e-16
  70
    32
  0
VERTEX
  8
0
  5
AA76
 10
87.9458
 20
1.67507
 30
-3.92697e-16
  70
    32
  0
VERTEX
  8
0
  5
AA77
 10
87.9400
 20
1.67036
 30
-3.92162e-16
  70
    32
  0
VERTEX
  8
0
  5
AA78
 10
87.9342
 20
1.66566
 30
-3.91603e-16
  70
    32
  0
VERTEX
  8
0
  5
AA79
 10
87.9283
 20
1.66097
 30
-3.91017e-16
  70
    32
  0
VERTEX
  8
0
  5
AA7A
 10
87.9225
 20
1.65629
 30
-3.90405e-16
  70
    32
  0
VERTEX
  8
0
  5
AA7B
 10
87.9167
 20
1.65163
 30
-3.89765e-16
  70
    32
  0
VERTEX
  8
0
  5
AA7C
 10
87.9108
 20
1.64697
 30
-3.89098e-16
  70
    32
  0
VERTEX
  8
0
  5
AA7D
 10
87.9049
 20
1.64232
 30
-3.88402e-16
  70
    32
  0
VERTEX
  8
0
  5
AA7E
 10
87.8990
 20
1.63768
 30
-3.87678e-16
  70
    32
  0
VERTEX
  8
0
  5
AA7F
 10
87.8931
 20
1.63306
 30
-3.86924e-16
  70
    32
  0
VERTEX
  8
0
  5
AA80
 10
87.8871
 20
1.62844
 30
-3.86139e-16
  70
    32
  0
VERTEX
  8
0
  5
AA81
 10
87.8812
 20
1.62384
 30
-3.85324e-16
  70
    32
  0
VERTEX
  8
0
  5
AA82
 10
87.8752
 20
1.61924
 30
-3.84478e-16
  70
    32
  0
VERTEX
  8
0
  5
AA83
 10
87.8693
 20
1.61466
 30
-3.83599e-16
  70
    32
  0
VERTEX
  8
0
  5
AA84
 10
87.8633
 20
1.61009
 30
-3.82688e-16
  70
    32
  0
VERTEX
  8
0
  5
AA85
 10
87.8572
 20
1.60554
 30
-3.81744e-16
  70
    32
  0
VERTEX
  8
0
  5
AA86
 10
87.8512
 20
1.60099
 30
-3.80766e-16
  70
    32
  0
VERTEX
  8
0
  5
AA87
 10
87.8452
 20
1.59646
 30
-3.79754e-16
  70
    32
  0
VERTEX
  8
0
  5
AA88
 10
87.8391
 20
1.59194
 30
-3.78707e-16
  70
    32
  0
VERTEX
  8
0
  5
AA89
 10
87.8331
 20
1.58744
 30
-3.77625e-16
  70
    32
  0
VERTEX
  8
0
  5
AA8A
 10
87.8270
 20
1.58294
 30
-3.76506e-16
  70
    32
  0
VERTEX
  8
0
  5
AA8B
 10
87.8209
 20
1.57846
 30
-3.75351e-16
  70
    32
  0
VERTEX
  8
0
  5
AA8C
 10
87.8148
 20
1.57400
 30
-3.74158e-16
  70
    32
  0
VERTEX
  8
0
  5
AA8D
 10
87.8087
 20
1.56954
 30
-3.72928e-16
  70
    32
  0
VERTEX
  8
0
  5
AA8E
 10
87.8025
 20
1.56511
 30
-3.71659e-16
  70
    32
  0
VERTEX
  8
0
  5
AA8F
 10
87.7964
 20
1.56068
 30
-3.70351e-16
  70
    32
  0
VERTEX
  8
0
  5
AA90
 10
87.7902
 20
1.55627
 30
-3.69004e-16
  70
    32
  0
VERTEX
  8
0
  5
AA91
 10
87.7840
 20
1.55187
 30
-3.67616e-16
  70
    32
  0
VERTEX
  8
0
  5
AA92
 10
87.7778
 20
1.54749
 30
-3.66188e-16
  70
    32
  0
VERTEX
  8
0
  5
AA93
 10
87.7716
 20
1.54313
 30
-3.64718e-16
  70
    32
  0
VERTEX
  8
0
  5
AA94
 10
87.7654
 20
1.53878
 30
-3.63206e-16
  70
    32
  0
VERTEX
  8
0
  5
AA95
 10
87.7592
 20
1.53444
 30
-3.61652e-16
  70
    32
  0
VERTEX
  8
0
  5
AA96
 10
87.7529
 20
1.53012
 30
-3.60054e-16
  70
    32
  0
VERTEX
  8
0
  5
AA97
 10
87.7467
 20
1.52582
 30
-3.58412e-16
  70
    32
  0
VERTEX
  8
0
  5
AA98
 10
87.7404
 20
1.52153
 30
-3.56727e-16
  70
    32
  0
VERTEX
  8
0
  5
AA99
 10
87.7342
 20
1.51726
 30
-3.54996e-16
  70
    32
  0
VERTEX
  8
0
  5
AA9A
 10
87.7279
 20
1.51300
 30
-3.53220e-16
  70
    32
  0
VERTEX
  8
0
  5
AA9B
 10
87.7216
 20
1.50876
 30
-3.51397e-16
  70
    32
  0
VERTEX
  8
0
  5
AA9C
 10
87.7153
 20
1.50454
 30
-3.49531e-16
  70
    32
  0
VERTEX
  8
0
  5
AA9D
 10
87.7089
 20
1.50033
 30
-3.47685e-16
  70
    32
  0
VERTEX
  8
0
  5
AA9E
 10
87.7026
 20
1.49614
 30
-3.45886e-16
  70
    32
  0
VERTEX
  8
0
  5
AA9F
 10
87.6963
 20
1.49197
 30
-3.44133e-16
  70
    32
  0
VERTEX
  8
0
  5
AAA0
 10
87.6899
 20
1.48782
 30
-3.42425e-16
  70
    32
  0
VERTEX
  8
0
  5
AAA1
 10
87.6835
 20
1.48368
 30
-3.40761e-16
  70
    32
  0
VERTEX
  8
0
  5
AAA2
 10
87.6772
 20
1.47956
 30
-3.39142e-16
  70
    32
  0
VERTEX
  8
0
  5
AAA3
 10
87.6708
 20
1.47545
 30
-3.37566e-16
  70
    32
  0
VERTEX
  8
0
  5
AAA4
 10
87.6644
 20
1.47137
 30
-3.36032e-16
  70
    32
  0
VERTEX
  8
0
  5
AAA5
 10
87.6580
 20
1.46730
 30
-3.34542e-16
  70
    32
  0
VERTEX
  8
0
  5
AAA6
 10
87.6516
 20
1.46325
 30
-3.33093e-16
  70
    32
  0
VERTEX
  8
0
  5
AAA7
 10
87.6452
 20
1.45922
 30
-3.31685e-16
  70
    32
  0
VERTEX
  8
0
  5
AAA8
 10
87.6387
 20
1.45520
 30
-3.30317e-16
  70
    32
  0
VERTEX
  8
0
  5
AAA9
 10
87.6323
 20
1.45120
 30
-3.28990e-16
  70
    32
  0
VERTEX
  8
0
  5
AAAA
 10
87.6258
 20
1.44722
 30
-3.27701e-16
  70
    32
  0
VERTEX
  8
0
  5
AAAB
 10
87.6194
 20
1.44326
 30
-3.26452e-16
  70
    32
  0
VERTEX
  8
0
  5
AAAC
 10
87.6129
 20
1.43932
 30
-3.25240e-16
  70
    32
  0
VERTEX
  8
0
  5
AAAD
 10
87.6065
 20
1.43539
 30
-3.24067e-16
  70
    32
  0
VERTEX
  8
0
  5
AAAE
 10
87.6000
 20
1.43148
 30
-3.22930e-16
  70
    32
  0
VERTEX
  8
0
  5
AAAF
 10
87.5935
 20
1.42759
 30
-3.21829e-16
  70
    32
  0
VERTEX
  8
0
  5
AAB0
 10
87.5870
 20
1.42372
 30
-3.20765e-16
  70
    32
  0
VERTEX
  8
0
  5
AAB1
 10
87.5805
 20
1.41986
 30
-3.19735e-16
  70
    32
  0
VERTEX
  8
0
  5
AAB2
 10
87.5740
 20
1.41603
 30
-3.18740e-16
  70
    32
  0
VERTEX
  8
0
  5
AAB3
 10
87.5675
 20
1.41221
 30
-3.17780e-16
  70
    32
  0
VERTEX
  8
0
  5
AAB4
 10
87.5610
 20
1.40841
 30
-3.16852e-16
  70
    32
  0
VERTEX
  8
0
  5
AAB5
 10
87.5545
 20
1.40463
 30
-3.15957e-16
  70
    32
  0
VERTEX
  8
0
  5
AAB6
 10
87.5480
 20
1.40087
 30
-3.15095e-16
  70
    32
  0
VERTEX
  8
0
  5
AAB7
 10
87.5414
 20
1.39712
 30
-3.14264e-16
  70
    32
  0
VERTEX
  8
0
  5
AAB8
 10
87.5349
 20
1.39340
 30
-3.13465e-16
  70
    32
  0
VERTEX
  8
0
  5
AAB9
 10
87.5284
 20
1.38969
 30
-3.12695e-16
  70
    32
  0
VERTEX
  8
0
  5
AABA
 10
87.5218
 20
1.38601
 30
-3.11956e-16
  70
    32
  0
VERTEX
  8
0
  5
AABB
 10
87.5153
 20
1.38234
 30
-3.11246e-16
  70
    32
  0
VERTEX
  8
0
  5
AABC
 10
87.5087
 20
1.37869
 30
-3.10565e-16
  70
    32
  0
VERTEX
  8
0
  5
AABD
 10
87.5022
 20
1.37506
 30
-3.09911e-16
  70
    32
  0
VERTEX
  8
0
  5
AABE
 10
87.4956
 20
1.37145
 30
-3.09286e-16
  70
    32
  0
VERTEX
  8
0
  5
AABF
 10
87.4891
 20
1.36785
 30
-3.08687e-16
  70
    32
  0
VERTEX
  8
0
  5
AAC0
 10
87.4825
 20
1.36428
 30
-3.08114e-16
  70
    32
  0
VERTEX
  8
0
  5
AAC1
 10
87.4759
 20
1.36073
 30
-3.07567e-16
  70
    32
  0
VERTEX
  8
0
  5
AAC2
 10
87.4694
 20
1.35719
 30
-3.07046e-16
  70
    32
  0
VERTEX
  8
0
  5
AAC3
 10
87.4628
 20
1.35368
 30
-3.06548e-16
  70
    32
  0
VERTEX
  8
0
  5
AAC4
 10
87.4562
 20
1.35018
 30
-3.06075e-16
  70
    32
  0
VERTEX
  8
0
  5
AAC5
 10
87.4497
 20
1.34670
 30
-3.05625e-16
  70
    32
  0
VERTEX
  8
0
  5
AAC6
 10
87.4431
 20
1.34325
 30
-3.05198e-16
  70
    32
  0
VERTEX
  8
0
  5
AAC7
 10
87.4365
 20
1.33981
 30
-3.04793e-16
  70
    32
  0
VERTEX
  8
0
  5
AAC8
 10
87.4300
 20
1.33639
 30
-3.04410e-16
  70
    32
  0
VERTEX
  8
0
  5
AAC9
 10
87.4234
 20
1.33299
 30
-3.04048e-16
  70
    32
  0
VERTEX
  8
0
  5
AACA
 10
87.4168
 20
1.32962
 30
-3.03706e-16
  70
    32
  0
VERTEX
  8
0
  5
AACB
 10
87.4102
 20
1.32626
 30
-3.03384e-16
  70
    32
  0
VERTEX
  8
0
  5
AACC
 10
87.4037
 20
1.32292
 30
-3.03081e-16
  70
    32
  0
VERTEX
  8
0
  5
AACD
 10
87.3971
 20
1.31960
 30
-3.02797e-16
  70
    32
  0
VERTEX
  8
0
  5
AACE
 10
87.3905
 20
1.31630
 30
-3.02531e-16
  70
    32
  0
VERTEX
  8
0
  5
AACF
 10
87.3839
 20
1.31303
 30
-3.02282e-16
  70
    32
  0
VERTEX
  8
0
  5
AAD0
 10
87.3774
 20
1.30977
 30
-3.02050e-16
  70
    32
  0
VERTEX
  8
0
  5
AAD1
 10
87.3708
 20
1.30653
 30
-3.01834e-16
  70
    32
  0
VERTEX
  8
0
  5
AAD2
 10
87.3642
 20
1.30331
 30
-3.01635e-16
  70
    32
  0
VERTEX
  8
0
  5
AAD3
 10
87.3577
 20
1.30012
 30
-3.01450e-16
  70
    32
  0
VERTEX
  8
0
  5
AAD4
 10
87.3511
 20
1.29694
 30
-3.01279e-16
  70
    32
  0
VERTEX
  8
0
  5
AAD5
 10
87.3446
 20
1.29379
 30
-3.01123e-16
  70
    32
  0
VERTEX
  8
0
  5
AAD6
 10
87.3380
 20
1.29065
 30
-3.00980e-16
  70
    32
  0
VERTEX
  8
0
  5
AAD7
 10
87.3315
 20
1.28754
 30
-3.00849e-16
  70
    32
  0
VERTEX
  8
0
  5
AAD8
 10
87.3249
 20
1.28444
 30
-3.00731e-16
  70
    32
  0
VERTEX
  8
0
  5
AAD9
 10
87.3184
 20
1.28137
 30
-3.00624e-16
  70
    32
  0
VERTEX
  8
0
  5
AADA
 10
87.3118
 20
1.27832
 30
-3.00528e-16
  70
    32
  0
VERTEX
  8
0
  5
AADB
 10
87.3053
 20
1.27529
 30
-3.00443e-16
  70
    32
  0
VERTEX
  8
0
  5
AADC
 10
87.2987
 20
1.27228
 30
-3.00367e-16
  70
    32
  0
VERTEX
  8
0
  5
AADD
 10
87.2922
 20
1.26929
 30
-3.00301e-16
  70
    32
  0
VERTEX
  8
0
  5
AADE
 10
87.2857
 20
1.26632
 30
-3.00243e-16
  70
    32
  0
VERTEX
  8
0
  5
AADF
 10
87.2792
 20
1.26338
 30
-3.00193e-16
  70
    32
  0
VERTEX
  8
0
  5
AAE0
 10
87.2726
 20
1.26045
 30
-3.00150e-16
  70
    32
  0
VERTEX
  8
0
  5
AAE1
 10
87.2661
 20
1.25755
 30
-3.00114e-16
  70
    32
  0
VERTEX
  8
0
  5
AAE2
 10
87.2596
 20
1.25466
 30
-3.00085e-16
  70
    32
  0
VERTEX
  8
0
  5
AAE3
 10
87.2531
 20
1.25180
 30
-3.00061e-16
  70
    32
  0
VERTEX
  8
0
  5
AAE4
 10
87.2466
 20
1.24896
 30
-3.00042e-16
  70
    32
  0
VERTEX
  8
0
  5
AAE5
 10
87.2402
 20
1.24615
 30
-3.00027e-16
  70
    32
  0
VERTEX
  8
0
  5
AAE6
 10
87.2337
 20
1.24335
 30
-3.00016e-16
  70
    32
  0
VERTEX
  8
0
  5
AAE7
 10
87.2272
 20
1.24058
 30
-3.00009e-16
  70
    32
  0
VERTEX
  8
0
  5
AAE8
 10
87.2207
 20
1.23782
 30
-3.00004e-16
  70
    32
  0
VERTEX
  8
0
  5
AAE9
 10
87.2143
 20
1.23509
 30
-3.00002e-16
  70
    32
  0
VERTEX
  8
0
  5
AAEA
 10
87.2078
 20
1.23238
 30
-3.00000e-16
  70
    32
  0
VERTEX
  8
0
  5
AAEB
 10
87.2014
 20
1.22970
 30
-3.00000e-16
  70
    32
  0
VERTEX
  8
0
  5
AAEC
 10
87.1950
 20
1.22703
 30
-2.99988e-16
  70
    32
  0
VERTEX
  8
0
  5
AAED
 10
87.1885
 20
1.22437
 30
-2.99895e-16
  70
    32
  0
VERTEX
  8
0
  5
AAEE
 10
87.1820
 20
1.22173
 30
-2.99711e-16
  70
    32
  0
VERTEX
  8
0
  5
AAEF
 10
87.1755
 20
1.21909
 30
-2.99439e-16
  70
    32
  0
VERTEX
  8
0
  5
AAF0
 10
87.1690
 20
1.21647
 30
-2.99081e-16
  70
    32
  0
VERTEX
  8
0
  5
AAF1
 10
87.1625
 20
1.21386
 30
-2.98639e-16
  70
    32
  0
VERTEX
  8
0
  5
AAF2
 10
87.1559
 20
1.21125
 30
-2.98115e-16
  70
    32
  0
VERTEX
  8
0
  5
AAF3
 10
87.1493
 20
1.20866
 30
-2.97513e-16
  70
    32
  0
VERTEX
  8
0
  5
AAF4
 10
87.1427
 20
1.20608
 30
-2.96834e-16
  70
    32
  0
VERTEX
  8
0
  5
AAF5
 10
87.1361
 20
1.20350
 30
-2.96081e-16
  70
    32
  0
VERTEX
  8
0
  5
AAF6
 10
87.1295
 20
1.20094
 30
-2.95256e-16
  70
    32
  0
VERTEX
  8
0
  5
AAF7
 10
87.1228
 20
1.19839
 30
-2.94361e-16
  70
    32
  0
VERTEX
  8
0
  5
AAF8
 10
87.1161
 20
1.19585
 30
-2.93400e-16
  70
    32
  0
VERTEX
  8
0
  5
AAF9
 10
87.1095
 20
1.19333
 30
-2.92373e-16
  70
    32
  0
VERTEX
  8
0
  5
AAFA
 10
87.1027
 20
1.19081
 30
-2.91285e-16
  70
    32
  0
VERTEX
  8
0
  5
AAFB
 10
87.0960
 20
1.18831
 30
-2.90136e-16
  70
    32
  0
VERTEX
  8
0
  5
AAFC
 10
87.0893
 20
1.18581
 30
-2.88929e-16
  70
    32
  0
VERTEX
  8
0
  5
AAFD
 10
87.0825
 20
1.18333
 30
-2.87667e-16
  70
    32
  0
VERTEX
  8
0
  5
AAFE
 10
87.0757
 20
1.18087
 30
-2.86353e-16
  70
    32
  0
VERTEX
  8
0
  5
AAFF
 10
87.0689
 20
1.17841
 30
-2.84987e-16
  70
    32
  0
VERTEX
  8
0
  5
AB00
 10
87.0621
 20
1.17596
 30
-2.83574e-16
  70
    32
  0
VERTEX
  8
0
  5
AB01
 10
87.0553
 20
1.17353
 30
-2.82115e-16
  70
    32
  0
VERTEX
  8
0
  5
AB02
 10
87.0484
 20
1.17111
 30
-2.80612e-16
  70
    32
  0
VERTEX
  8
0
  5
AB03
 10
87.0415
 20
1.16871
 30
-2.79068e-16
  70
    32
  0
VERTEX
  8
0
  5
AB04
 10
87.0346
 20
1.16631
 30
-2.77485e-16
  70
    32
  0
VERTEX
  8
0
  5
AB05
 10
87.0277
 20
1.16393
 30
-2.75866e-16
  70
    32
  0
VERTEX
  8
0
  5
AB06
 10
87.0208
 20
1.16156
 30
-2.74213e-16
  70
    32
  0
VERTEX
  8
0
  5
AB07
 10
87.0139
 20
1.15921
 30
-2.72528e-16
  70
    32
  0
VERTEX
  8
0
  5
AB08
 10
87.0069
 20
1.15687
 30
-2.70814e-16
  70
    32
  0
VERTEX
  8
0
  5
AB09
 10
87.0000
 20
1.15454
 30
-2.69074e-16
  70
    32
  0
VERTEX
  8
0
  5
AB0A
 10
86.9930
 20
1.15222
 30
-2.67308e-16
  70
    32
  0
VERTEX
  8
0
  5
AB0B
 10
86.9860
 20
1.14992
 30
-2.65521e-16
  70
    32
  0
VERTEX
  8
0
  5
AB0C
 10
86.9790
 20
1.14764
 30
-2.63713e-16
  70
    32
  0
VERTEX
  8
0
  5
AB0D
 10
86.9720
 20
1.14536
 30
-2.61888e-16
  70
    32
  0
VERTEX
  8
0
  5
AB0E
 10
86.9649
 20
1.14310
 30
-2.60048e-16
  70
    32
  0
VERTEX
  8
0
  5
AB0F
 10
86.9579
 20
1.14086
 30
-2.58196e-16
  70
    32
  0
VERTEX
  8
0
  5
AB10
 10
86.9508
 20
1.13863
 30
-2.56333e-16
  70
    32
  0
VERTEX
  8
0
  5
AB11
 10
86.9438
 20
1.13641
 30
-2.54462e-16
  70
    32
  0
VERTEX
  8
0
  5
AB12
 10
86.9367
 20
1.13421
 30
-2.52585e-16
  70
    32
  0
VERTEX
  8
0
  5
AB13
 10
86.9296
 20
1.13202
 30
-2.50705e-16
  70
    32
  0
VERTEX
  8
0
  5
AB14
 10
86.9224
 20
1.12985
 30
-2.48824e-16
  70
    32
  0
VERTEX
  8
0
  5
AB15
 10
86.9153
 20
1.12769
 30
-2.46945e-16
  70
    32
  0
VERTEX
  8
0
  5
AB16
 10
86.9082
 20
1.12555
 30
-2.45070e-16
  70
    32
  0
VERTEX
  8
0
  5
AB17
 10
86.9010
 20
1.12342
 30
-2.43200e-16
  70
    32
  0
VERTEX
  8
0
  5
AB18
 10
86.8938
 20
1.12131
 30
-2.41340e-16
  70
    32
  0
VERTEX
  8
0
  5
AB19
 10
86.8867
 20
1.11921
 30
-2.39490e-16
  70
    32
  0
VERTEX
  8
0
  5
AB1A
 10
86.8795
 20
1.11713
 30
-2.37654e-16
  70
    32
  0
VERTEX
  8
0
  5
AB1B
 10
86.8723
 20
1.11507
 30
-2.35833e-16
  70
    32
  0
VERTEX
  8
0
  5
AB1C
 10
86.8651
 20
1.11302
 30
-2.34030e-16
  70
    32
  0
VERTEX
  8
0
  5
AB1D
 10
86.8579
 20
1.11098
 30
-2.32248e-16
  70
    32
  0
VERTEX
  8
0
  5
AB1E
 10
86.8506
 20
1.10896
 30
-2.30488e-16
  70
    32
  0
VERTEX
  8
0
  5
AB1F
 10
86.8434
 20
1.10696
 30
-2.28754e-16
  70
    32
  0
VERTEX
  8
0
  5
AB20
 10
86.8361
 20
1.10498
 30
-2.27047e-16
  70
    32
  0
VERTEX
  8
0
  5
AB21
 10
86.8289
 20
1.10301
 30
-2.25370e-16
  70
    32
  0
VERTEX
  8
0
  5
AB22
 10
86.8216
 20
1.10106
 30
-2.23725e-16
  70
    32
  0
VERTEX
  8
0
  5
AB23
 10
86.8143
 20
1.09912
 30
-2.22115e-16
  70
    32
  0
VERTEX
  8
0
  5
AB24
 10
86.8070
 20
1.09720
 30
-2.20542e-16
  70
    32
  0
VERTEX
  8
0
  5
AB25
 10
86.7997
 20
1.09530
 30
-2.19008e-16
  70
    32
  0
VERTEX
  8
0
  5
AB26
 10
86.7924
 20
1.09342
 30
-2.17516e-16
  70
    32
  0
VERTEX
  8
0
  5
AB27
 10
86.7851
 20
1.09155
 30
-2.16068e-16
  70
    32
  0
VERTEX
  8
0
  5
AB28
 10
86.7778
 20
1.08970
 30
-2.14666e-16
  70
    32
  0
VERTEX
  8
0
  5
AB29
 10
86.7704
 20
1.08787
 30
-2.13313e-16
  70
    32
  0
VERTEX
  8
0
  5
AB2A
 10
86.7631
 20
1.08605
 30
-2.12012e-16
  70
    32
  0
VERTEX
  8
0
  5
AB2B
 10
86.7557
 20
1.08426
 30
-2.10764e-16
  70
    32
  0
VERTEX
  8
0
  5
AB2C
 10
86.7484
 20
1.08248
 30
-2.09571e-16
  70
    32
  0
VERTEX
  8
0
  5
AB2D
 10
86.7410
 20
1.08071
 30
-2.08437e-16
  70
    32
  0
VERTEX
  8
0
  5
AB2E
 10
86.7336
 20
1.07897
 30
-2.07364e-16
  70
    32
  0
VERTEX
  8
0
  5
AB2F
 10
86.7263
 20
1.07725
 30
-2.06353e-16
  70
    32
  0
VERTEX
  8
0
  5
AB30
 10
86.7189
 20
1.07554
 30
-2.05408e-16
  70
    32
  0
VERTEX
  8
0
  5
AB31
 10
86.7115
 20
1.07385
 30
-2.04531e-16
  70
    32
  0
VERTEX
  8
0
  5
AB32
 10
86.7041
 20
1.07218
 30
-2.03724e-16
  70
    32
  0
VERTEX
  8
0
  5
AB33
 10
86.6967
 20
1.07053
 30
-2.02989e-16
  70
    32
  0
VERTEX
  8
0
  5
AB34
 10
86.6893
 20
1.06890
 30
-2.02329e-16
  70
    32
  0
VERTEX
  8
0
  5
AB35
 10
86.6819
 20
1.06729
 30
-2.01746e-16
  70
    32
  0
VERTEX
  8
0
  5
AB36
 10
86.6744
 20
1.06569
 30
-2.01243e-16
  70
    32
  0
VERTEX
  8
0
  5
AB37
 10
86.6670
 20
1.06412
 30
-2.00822e-16
  70
    32
  0
VERTEX
  8
0
  5
AB38
 10
86.6596
 20
1.06256
 30
-2.00485e-16
  70
    32
  0
VERTEX
  8
0
  5
AB39
 10
86.6521
 20
1.06103
 30
-2.00234e-16
  70
    32
  0
VERTEX
  8
0
  5
AB3A
 10
86.6447
 20
1.05951
 30
-2.00073e-16
  70
    32
  0
VERTEX
  8
0
  5
AB3B
 10
86.6373
 20
1.05802
 30
-2.00003e-16
  70
    32
  0
VERTEX
  8
0
  5
AB3C
 10
86.6298
 20
1.05654
 30
-2.00000e-16
  70
    32
  0
VERTEX
  8
0
  5
AB3D
 10
86.6224
 20
1.05508
 30
-2.00000e-16
  70
    32
  0
VERTEX
  8
0
  5
AB3E
 10
86.6149
 20
1.05365
 30
-2.00000e-16
  70
    32
  0
VERTEX
  8
0
  5
AB3F
 10
86.6074
 20
1.05223
 30
-2.00000e-16
  70
    32
  0
VERTEX
  8
0
  5
AB40
 10
86.6000
 20
1.05083
 30
-2.00000e-16
  70
    32
  0
VERTEX
  8
0
  5
AB41
 10
86.5925
 20
1.04945
 30
-2.00000e-16
  70
    32
  0
VERTEX
  8
0
  5
AB42
 10
86.5850
 20
1.04810
 30
-2.00000e-16
  70
    32
  0
VERTEX
  8
0
  5
AB43
 10
86.5776
 20
1.04676
 30
-2.00000e-16
  70
    32
  0
VERTEX
  8
0
  5
AB44
 10
86.5701
 20
1.04544
 30
-2.00000e-16
  70
    32
  0
VERTEX
  8
0
  5
AB45
 10
86.5626
 20
1.04414
 30
-2.00000e-16
  70
    32
  0
VERTEX
  8
0
  5
AB46
 10
86.5552
 20
1.04286
 30
-2.00000e-16
  70
    32
  0
VERTEX
  8
0
  5
AB47
 10
86.5477
 20
1.04160
 30
-2.00000e-16
  70
    32
  0
VERTEX
  8
0
  5
AB48
 10
86.5402
 20
1.04036
 30
-2.00000e-16
  70
    32
  0
VERTEX
  8
0
  5
AB49
 10
86.5327
 20
1.03914
 30
-2.00000e-16
  70
    32
  0
VERTEX
  8
0
  5
AB4A
 10
86.5252
 20
1.03794
 30
-2.00000e-16
  70
    32
  0
VERTEX
  8
0
  5
AB4B
 10
86.5178
 20
1.03676
 30
-2.00000e-16
  70
    32
  0
VERTEX
  8
0
  5
AB4C
 10
86.5103
 20
1.03560
 30
-2.00000e-16
  70
    32
  0
VERTEX
  8
0
  5
AB4D
 10
86.5028
 20
1.03446
 30
-2.00000e-16
  70
    32
  0
VERTEX
  8
0
  5
AB4E
 10
86.4953
 20
1.03333
 30
-2.00000e-16
  70
    32
  0
VERTEX
  8
0
  5
AB4F
 10
86.4879
 20
1.03223
 30
-2.00000e-16
  70
    32
  0
VERTEX
  8
0
  5
AB50
 10
86.4804
 20
1.03114
 30
-2.00000e-16
  70
    32
  0
VERTEX
  8
0
  5
AB51
 10
86.4729
 20
1.03008
 30
-2.00000e-16
  70
    32
  0
VERTEX
  8
0
  5
AB52
 10
86.4654
 20
1.02903
 30
-2.00000e-16
  70
    32
  0
VERTEX
  8
0
  5
AB53
 10
86.4580
 20
1.02800
 30
-2.00000e-16
  70
    32
  0
VERTEX
  8
0
  5
AB54
 10
86.4505
 20
1.02700
 30
-2.00000e-16
  70
    32
  0
VERTEX
  8
0
  5
AB55
 10
86.4430
 20
1.02601
 30
-2.00000e-16
  70
    32
  0
VERTEX
  8
0
  5
AB56
 10
86.4356
 20
1.02504
 30
-2.00000e-16
  70
    32
  0
VERTEX
  8
0
  5
AB57
 10
86.4281
 20
1.02409
 30
-2.00000e-16
  70
    32
  0
VERTEX
  8
0
  5
AB58
 10
86.4206
 20
1.02315
 30
-2.00000e-16
  70
    32
  0
VERTEX
  8
0
  5
AB59
 10
86.4132
 20
1.02224
 30
-2.00000e-16
  70
    32
  0
VERTEX
  8
0
  5
AB5A
 10
86.4057
 20
1.02135
 30
-2.00000e-16
  70
    32
  0
VERTEX
  8
0
  5
AB5B
 10
86.3983
 20
1.02047
 30
-2.00000e-16
  70
    32
  0
VERTEX
  8
0
  5
AB5C
 10
86.3908
 20
1.01961
 30
-2.00000e-16
  70
    32
  0
VERTEX
  8
0
  5
AB5D
 10
86.3834
 20
1.01878
 30
-2.00000e-16
  70
    32
  0
VERTEX
  8
0
  5
AB5E
 10
86.3760
 20
1.01796
 30
-2.00000e-16
  70
    32
  0
VERTEX
  8
0
  5
AB5F
 10
86.3685
 20
1.01716
 30
-2.00000e-16
  70
    32
  0
VERTEX
  8
0
  5
AB60
 10
86.3611
 20
1.01638
 30
-2.00000e-16
  70
    32
  0
VERTEX
  8
0
  5
AB61
 10
86.3537
 20
1.01561
 30
-2.00000e-16
  70
    32
  0
VERTEX
  8
0
  5
AB62
 10
86.3463
 20
1.01487
 30
-2.00000e-16
  70
    32
  0
VERTEX
  8
0
  5
AB63
 10
86.3389
 20
1.01414
 30
-2.00000e-16
  70
    32
  0
VERTEX
  8
0
  5
AB64
 10
86.3315
 20
1.01344
 30
-2.00000e-16
  70
    32
  0
VERTEX
  8
0
  5
AB65
 10
86.3241
 20
1.01275
 30
-2.00000e-16
  70
    32
  0
VERTEX
  8
0
  5
AB66
 10
86.3167
 20
1.01208
 30
-2.00000e-16
  70
    32
  0
VERTEX
  8
0
  5
AB67
 10
86.3093
 20
1.01143
 30
-2.00000e-16
  70
    32
  0
VERTEX
  8
0
  5
AB68
 10
86.3019
 20
1.01079
 30
-2.00000e-16
  70
    32
  0
VERTEX
  8
0
  5
AB69
 10
86.2945
 20
1.01018
 30
-2.00000e-16
  70
    32
  0
VERTEX
  8
0
  5
AB6A
 10
86.2872
 20
1.00958
 30
-2.00000e-16
  70
    32
  0
VERTEX
  8
0
  5
AB6B
 10
86.2798
 20
1.00901
 30
-2.00000e-16
  70
    32
  0
VERTEX
  8
0
  5
AB6C
 10
86.2725
 20
1.00845
 30
-2.00000e-16
  70
    32
  0
VERTEX
  8
0
  5
AB6D
 10
86.2651
 20
1.00791
 30
-2.00000e-16
  70
    32
  0
VERTEX
  8
0
  5
AB6E
 10
86.2578
 20
1.00738
 30
-2.00000e-16
  70
    32
  0
VERTEX
  8
0
  5
AB6F
 10
86.2505
 20
1.00688
 30
-2.00000e-16
  70
    32
  0
VERTEX
  8
0
  5
AB70
 10
86.2432
 20
1.00639
 30
-2.00000e-16
  70
    32
  0
VERTEX
  8
0
  5
AB71
 10
86.2359
 20
1.00592
 30
-2.00000e-16
  70
    32
  0
VERTEX
  8
0
  5
AB72
 10
86.2286
 20
1.00547
 30
-2.00000e-16
  70
    32
  0
VERTEX
  8
0
  5
AB73
 10
86.2213
 20
1.00504
 30
-2.00000e-16
  70
    32
  0
VERTEX
  8
0
  5
AB74
 10
86.2140
 20
1.00463
 30
-2.00000e-16
  70
    32
  0
VERTEX
  8
0
  5
AB75
 10
86.2068
 20
1.00423
 30
-2.00000e-16
  70
    32
  0
VERTEX
  8
0
  5
AB76
 10
86.1995
 20
1.00385
 30
-2.00000e-16
  70
    32
  0
VERTEX
  8
0
  5
AB77
 10
86.1923
 20
1.00349
 30
-2.00000e-16
  70
    32
  0
VERTEX
  8
0
  5
AB78
 10
86.1851
 20
1.00315
 30
-2.00000e-16
  70
    32
  0
VERTEX
  8
0
  5
AB79
 10
86.1778
 20
1.00282
 30
-2.00000e-16
  70
    32
  0
VERTEX
  8
0
  5
AB7A
 10
86.1706
 20
1.00252
 30
-2.00000e-16
  70
    32
  0
VERTEX
  8
0
  5
AB7B
 10
86.1634
 20
1.00223
 30
-2.00000e-16
  70
    32
  0
VERTEX
  8
0
  5
AB7C
 10
86.1562
 20
1.00196
 30
-2.00000e-16
  70
    32
  0
VERTEX
  8
0
  5
AB7D
 10
86.1491
 20
1.00170
 30
-2.00000e-16
  70
    32
  0
VERTEX
  8
0
  5
AB7E
 10
86.1419
 20
1.00147
 30
-2.00000e-16
  70
    32
  0
VERTEX
  8
0
  5
AB7F
 10
86.1348
 20
1.00125
 30
-2.00000e-16
  70
    32
  0
VERTEX
  8
0
  5
AB80
 10
86.1276
 20
1.00105
 30
-2.00000e-16
  70
    32
  0
VERTEX
  8
0
  5
AB81
 10
86.1205
 20
1.00087
 30
-2.00000e-16
  70
    32
  0
VERTEX
  8
0
  5
AB82
 10
86.1134
 20
1.00070
 30
-2.00000e-16
  70
    32
  0
VERTEX
  8
0
  5
AB83
 10
86.1063
 20
1.00055
 30
-2.00000e-16
  70
    32
  0
VERTEX
  8
0
  5
AB84
 10
86.0992
 20
1.00042
 30
-2.00000e-16
  70
    32
  0
VERTEX
  8
0
  5
AB85
 10
86.0922
 20
1.00031
 30
-2.00000e-16
  70
    32
  0
VERTEX
  8
0
  5
AB86
 10
86.0851
 20
1.00022
 30
-2.00000e-16
  70
    32
  0
VERTEX
  8
0
  5
AB87
 10
86.0781
 20
1.00014
 30
-2.00000e-16
  70
    32
  0
VERTEX
  8
0
  5
AB88
 10
86.0711
 20
1.00008
 30
-2.00000e-16
  70
    32
  0
VERTEX
  8
0
  5
AB89
 10
86.0641
 20
1.00003
 30
-2.00000e-16
  70
    32
  0
VERTEX
  8
0
  5
AB8A
 10
86.0571
 20
1.00001
 30
-2.00000e-16
  70
    32
  0
VERTEX
  8
0
  5
AB8B
 10
86.0501
 20
1.00000
 30
-2.00000e-16
  70
    32
  0
SEQEND
  8
0
  5
AB8C
  0
LINE
  5
9E88
  8
0
  6
HIDDEN2
 62
     1
 10
-86.0501217940350358
 20
1.000000000000105
 30
-0.0000000000000002
 11
86.0501217940350358
 21
1.0000000000000291
 31
-0.0000000000000002
210
0.0000000000000002
220
1.0
230
-0.0000000000000002
  0
LINE
  5
9E89
  8
0
  6
HIDDEN2
 62
     1
 10
82.5
 20
1.00000000000005
 30
-0.0000000000000002
 11
82.5
 21
-0.0000000000000041
 31
0.0
210
0.0000000000000002
220
1.0
230
-0.0000000000000002
  0
LINE
  5
9E8A
  8
0
  6
HIDDEN2
 62
     1
 10
62.8499999999999091
 20
0.0000000000000003
 30
0.0
 11
62.8499999999999091
 21
0.9999999999998866
 31
-0.0000000000000002
210
0.0000000000000002
220
1.0
230
-0.0000000000000002
  0
LINE
  5
9E8B
  8
0
  6
HIDDEN2
 62
     1
 10
59.1499999999999773
 20
0.9999999999998876
 30
-0.0000000000000002
 11
59.1499999999999773
 21
0.0000000000000011
 31
0.0
210
0.0000000000000002
220
1.0
230
-0.0000000000000002
  0
LINE
  5
9E8C
  8
0
  6
HIDDEN2
 62
     1
 10
58.8499999999999019
 20
0.9999999999998876
 30
-0.0000000000000002
 11
58.8499999999999019
 21
0.0000000000000011
 31
0.0
210
0.0000000000000002
220
1.0
230
-0.0000000000000002
  0
LINE
  5
9E8D
  8
0
  6
HIDDEN2
 62
     1
 10
63.1499999999999702
 20
0.0000000000000002
 30
0.0
 11
63.1499999999999702
 21
0.9999999999998866
 31
-0.0000000000000002
210
0.0000000000000002
220
1.0
230
-0.0000000000000002
  0
LINE
  5
9E8E
  8
0
  6
HIDDEN2
 62
     1
 10
81.5
 20
-0.0000000000000039
 30
0.0
 11
81.5
 21
0.9999999999998825
 31
-0.0000000000000002
210
0.0000000000000002
220
1.0
230
-0.0000000000000002
  0
LINE
  5
9E8F
  8
0
  6
HIDDEN2
 62
     1
 10
31.9996484355687585
 20
1.0000000000000071
 30
-0.0000000000000002
 11
31.9996484355687585
 21
0.0000000000000071
 31
0.0
210
0.0000000000000002
220
1.0
230
-0.0000000000000002
  0
LINE
  5
9E90
  8
0
  6
HIDDEN2
 62
     1
 10
-31.9996484355687585
 20
1.0000000000000211
 30
-0.0000000000000002
 11
-31.9996484355687585
 21
0.0000000000000213
 31
0.0
210
0.0000000000000002
220
1.0
230
-0.0000000000000002
  0
LINE
  5
9E91
  8
0
  6
HIDDEN2
 62
     1
 10
-82.5
 20
1.000000000000087
 30
-0.0000000000000002
 11
-82.5
 21
0.0000000000000325
 31
0.0
210
0.0000000000000002
220
1.0
230
-0.0000000000000002
  0
LINE
  5
9E92
  8
0
  6
HIDDEN2
 62
     1
 10
-62.8499999999999091
 20
0.0000000000000282
 30
0.0
 11
-62.8499999999999091
 21
0.9999999999999147
 31
-0.0000000000000002
210
0.0000000000000002
220
1.0
230
-0.0000000000000002
  0
LINE
  5
9E93
  8
0
  6
HIDDEN2
 62
     1
 10
-59.1499999999999773
 20
0.9999999999999138
 30
-0.0000000000000002
 11
-59.1499999999999773
 21
0.0000000000000273
 31
0.0
210
0.0000000000000002
220
1.0
230
-0.0000000000000002
  0
LINE
  5
9E94
  8
0
  6
HIDDEN2
 62
     1
 10
-58.8499999999999019
 20
0.9999999999999138
 30
-0.0000000000000002
 11
-58.8499999999999019
 21
0.0000000000000273
 31
0.0
210
0.0000000000000002
220
1.0
230
-0.0000000000000002
  0
LINE
  5
9E95
  8
0
  6
HIDDEN2
 62
     1
 10
-63.1499999999999702
 20
0.0000000000000282
 30
0.0
 11
-63.1499999999999702
 21
0.9999999999999147
 31
-0.0000000000000002
210
0.0000000000000002
220
1.0
230
-0.0000000000000002
  0
LINE
  5
9E96
  8
0
  6
HIDDEN2
 62
     1
 10
-81.5
 20
0.0000000000000323
 30
0.0
 11
-81.5
 21
0.9999999999999188
 31
-0.0000000000000002
210
0.0000000000000002
220
1.0
230
-0.0000000000000002
  0
LINE
  5
9E97
  8
0
  6
HIDDEN2
 62
     1
 10
57.6499999999999275
 20
0.0000000000000583
 30
0.0
 11
57.6499999999999275
 21
1.000000000000054
 31
-0.0000000000000002
210
0.0000000000000002
220
1.0
230
-0.0000000000000002
  0
LINE
  5
9E98
  8
0
  6
HIDDEN2
 62
     1
 10
64.3499999999998522
 20
0.0000000000000568
 30
0.0
 11
64.3499999999998522
 21
1.0000000000000531
 31
-0.0000000000000002
210
0.0000000000000002
220
1.0
230
-0.0000000000000002
  0
LINE
  5
9E99
  8
0
  6
HIDDEN2
 62
     1
 10
57.3499999999998806
 20
0.0000000000000583
 30
0.0
 11
57.3499999999998806
 21
1.0000000000000551
 31
-0.0000000000000002
210
0.0000000000000002
220
1.0
230
-0.0000000000000002
  0
LINE
  5
9E9A
  8
0
  6
HIDDEN2
 62
     1
 10
64.649999999999892
 20
0.0000000000000567
 30
0.0
 11
64.649999999999892
 21
1.0000000000000531
 31
-0.0000000000000002
210
0.0000000000000002
220
1.0
230
-0.0000000000000002
  0
LINE
  5
9E9B
  8
0
  6
HIDDEN2
 62
     1
 10
-57.6499999999999275
 20
1.0000000000000799
 30
-0.0000000000000002
 11
-57.6499999999999275
 21
0.0000000000000839
 31
0.0
210
0.0000000000000002
220
1.0
230
-0.0000000000000002
  0
LINE
  5
9E9C
  8
0
  6
HIDDEN2
 62
     1
 10
-64.3499999999998522
 20
1.000000000000081
 30
-0.0000000000000002
 11
-64.3499999999998522
 21
0.0000000000000853
 31
0.0
210
0.0000000000000002
220
1.0
230
-0.0000000000000002
  0
LINE
  5
9E9D
  8
0
  6
HIDDEN2
 62
     1
 10
-57.3499999999998806
 20
1.0000000000000799
 30
-0.0000000000000002
 11
-57.3499999999998806
 21
0.0000000000000838
 31
0.0
210
0.0000000000000002
220
1.0
230
-0.0000000000000002
  0
LINE
  5
9E9E
  8
0
  6
HIDDEN2
 62
     1
 10
-64.649999999999892
 20
1.0000000000000819
 30
-0.0000000000000002
 11
-64.649999999999892
 21
0.0000000000000854
 31
0.0
210
0.0000000000000002
220
1.0
230
-0.0000000000000002
  0
ENDBLK
  5
9EA0
  8
0
  0
ENDSEC
  0
SECTION
  2
ENTITIES
  0
TEXT
  5
69BF
  8
VOLL
 10
78.076754716981128
 20
31.025947764705851
 30
0.0
 40
1.8
  1

  7
GREEKS
  0
INSERT
  5
69C0
  8
ADSK_ASSOC_ENTITY_BACKUPS
  2
*S7
 10
0.0
 20
0.0
 30
0.0
  0
INSERT
  5
9E53
  8
STEMPEL
  2
A$C107F1E0B
 10
90.0004106486757962
 20
-142.2919044438503136
 30
-0.0000000000000296
 50
89.7314250499755133
  0
INSERT
  5
9E78
  8
STEMPEL
  2
A$CABDEDDE8
 10
89.9999999999995453
 20
-2.29289321881356
 30
0.0000000000000005
  0
INSERT
  5
9EA1
  8
STEMPEL
  2
A$C2BF945A1
 10
319.9998749999119241
 20
-2.292893218813588
 30
0.0000000000000005
  0
VIEWPORT
  5
1571
 67
     1
  8
0
 10
407.1348569045115937
 20
76.6827086731224767
 30
0.0
 40
1279.7806378772670541
 41
786.2105156470769316
 68
     1
 69
     1
1001
ACAD
1000
MVIEW
1002
{
1070
    16
1010
0.0
1020
0.0
1030
0.0
1010
0.0
1020
0.0
1030
1.0
1040
0.0
1040
786.2105156470769316
1040
407.1348569045115937
1040
76.6827086731224767
1040
50.0
1040
0.0
1040
0.0
1070
     0
1070
  1500
1070
     1
1070
     1
1070
     0
1070
     0
1070
     0
1070
     0
1040
0.0
1040
0.0
1040
0.0
1040
10.0
1040
10.0
1040
10.0
1040
10.0
1070
     0
1002
{
1002
}
1002
}
1001
GENIUS_GENOBJ-N-SDF_13
1002
{
1000
OWNER
1000
GEN
1002
}
1001
GENIUS_GENODEF_13
1002
{
1000
HIER
1070
     0
1002
}
1002
{
1000
MANEDIT
1070
     0
1002
}
1002
{
1000
NOSEL
1070
     0
1002
}
1002
{
1000
BEHIND
1070
     0
1002
}
1002
{
1000
OTHER
1070
     0
1002
}
1002
{
1000
REACTOR
1002
}
1001
GENIUS_GENSCREG_15
1000
PF
1040
1.0
1000
DF
1040
1.0
1000
MIN
1011
-98.3237311841076007
1021
0.0
1031
0.0
1021
-84.5929851452383446
1031
0.0
1000
MAX
1011
756.7695330154733711
1021
0.0
1031
0.0
1021
339.8977580961391141
1031
0.0
1000
FLAGS
1070
     4
  0
ENDSEC
  0
EOF
