  0
SECTION
  2
HEADER
  9
$ACADVER
  1
AC1009
  9
$INSBASE
 10
0.0
 20
0.0
 30
0.0
  9
$EXTMIN
 10
-90.0000000000002274
 20
-89.9999861111101751
 30
-0.0000000000000012
  9
$EXTMAX
 10
90.0000000000001137
 20
152.999999999996902
 30
0.0
  9
$LIMMIN
 10
0.0
 20
0.0
  9
$LIMMAX
 10
595.0
 20
421.0
  9
$ORTHOMODE
 70
     1
  9
$REGENMODE
 70
     1
  9
$FILLMODE
 70
     1
  9
$QTEXTMODE
 70
     0
  9
$MIRRTEXT
 70
     1
  9
$DRAGMODE
 70
     2
  9
$LTSCALE
 40
10.0
  9
$OSMODE
 70
   511
  9
$ATTMODE
 70
     1
  9
$TEXTSIZE
 40
3.5
  9
$TRACEWID
 40
1.0
  9
$TEXTSTYLE
  7
STANDARD
  9
$CLAYER
  8
BEM
  9
$CELTYPE
  6
BYLAYER
  9
$CECOLOR
 62
   256
  9
$DIMSCALE
 40
1.0
  9
$DIMASZ
 40
3.5
  9
$DIMEXO
 40
1.0
  9
$DIMDLI
 40
7.0
  9
$DIMRND
 40
0.0
  9
$DIMDLE
 40
0.0
  9
$DIMEXE
 40
1.0
  9
$DIMTP
 40
0.0
  9
$DIMTM
 40
0.0
  9
$DIMTXT
 40
3.5
  9
$DIMCEN
 40
1.5
  9
$DIMTSZ
 40
0.0
  9
$DIMTOL
 70
     0
  9
$DIMLIM
 70
     0
  9
$DIMTIH
 70
     0
  9
$DIMTOH
 70
     0
  9
$DIMSE1
 70
     0
  9
$DIMSE2
 70
     0
  9
$DIMTAD
 70
     1
  9
$DIMZIN
 70
     8
  9
$DIMBLK
  1

  9
$DIMASO
 70
     1
  9
$DIMSHO
 70
     0
  9
$DIMPOST
  1

  9
$DIMAPOST
  1

  9
$DIMALT
 70
     0
  9
$DIMALTD
 70
     2
  9
$DIMALTF
 40
25.3999999999999986
  9
$DIMLFAC
 40
2.0
  9
$DIMTOFL
 70
     1
  9
$DIMTVP
 40
0.0
  9
$DIMTIX
 70
     0
  9
$DIMSOXD
 70
     0
  9
$DIMSAH
 70
     0
  9
$DIMBLK1
  1

  9
$DIMBLK2
  1

  9
$DIMSTYLE
  2
STANDARD
  9
$DIMCLRD
 70
     0
  9
$DIMCLRE
 70
     0
  9
$DIMCLRT
 70
     1
  9
$DIMTFAC
 40
0.5142857142857143
  9
$DIMGAP
 40
1.5
  9
$LUNITS
 70
     2
  9
$LUPREC
 70
     2
  9
$SKETCHINC
 40
1.0
  9
$FILLETRAD
 40
0.25
  9
$AUNITS
 70
     0
  9
$AUPREC
 70
     0
  9
$MENU
  1
ACAD
  9
$ELEVATION
 40
0.0
  9
$PELEVATION
 40
0.0
  9
$THICKNESS
 40
0.0
  9
$LIMCHECK
 70
     0
  9
$BLIPMODE
 70
     0
  9
$CHAMFERA
 40
0.0
  9
$CHAMFERB
 40
0.0
  9
$SKPOLY
 70
     0
  9
$TDCREATE
 40
2458092.4117013891227543
  9
$TDUPDATE
 40
2460581.4709953712299466
  9
$TDINDWG
 40
0.2180092593
  9
$TDUSRTIMER
 40
0.2180092593
  9
$USRTIMER
 70
     1
  9
$ANGBASE
 50
0.0
  9
$ANGDIR
 70
     0
  9
$PDMODE
 70
     0
  9
$PDSIZE
 40
0.0
  9
$PLINEWID
 40
0.0
  9
$COORDS
 70
     1
  9
$SPLFRAME
 70
     0
  9
$SPLINETYPE
 70
     6
  9
$SPLINESEGS
 70
     8
  9
$ATTDIA
 70
     1
  9
$ATTREQ
 70
     1
  9
$HANDLING
 70
     1
  9
$HANDSEED
  5
2D60
  9
$SURFTAB1
 70
     6
  9
$SURFTAB2
 70
     6
  9
$SURFTYPE
 70
     6
  9
$SURFU
 70
     6
  9
$SURFV
 70
     6
  9
$UCSNAME
  2

  9
$UCSORG
 10
0.0
 20
0.0
 30
0.0
  9
$UCSXDIR
 10
1.0
 20
0.0
 30
0.0
  9
$UCSYDIR
 10
0.0
 20
1.0
 30
0.0
  9
$PUCSNAME
  2

  9
$PUCSORG
 10
0.0
 20
0.0
 30
0.0
  9
$PUCSXDIR
 10
1.0
 20
0.0
 30
0.0
  9
$PUCSYDIR
 10
0.0
 20
1.0
 30
0.0
  9
$USERI1
 70
     0
  9
$USERI2
 70
     0
  9
$USERI3
 70
     0
  9
$USERI4
 70
     0
  9
$USERI5
 70
     0
  9
$USERR1
 40
0.0
  9
$USERR2
 40
0.0
  9
$USERR3
 40
0.0
  9
$USERR4
 40
0.0
  9
$USERR5
 40
0.0
  9
$WORLDVIEW
 70
     1
  9
$SHADEDGE
 70
     3
  9
$SHADEDIF
 70
    70
  9
$TILEMODE
 70
     1
  9
$MAXACTVP
 70
    16
  9
$PLIMCHECK
 70
     0
  9
$PEXTMIN
 10
1.0000000000000000E+20
 20
1.0000000000000000E+20
 30
1.0000000000000000E+20
  9
$PEXTMAX
 10
-1.0000000000000000E+20
 20
-1.0000000000000000E+20
 30
-1.0000000000000000E+20
  9
$PLIMMIN
 10
-5.027082920074462
 20
-5.027099609375
  9
$PLIMMAX
 10
204.9462447166442871
 20
291.898895263671875
  9
$UNITMODE
 70
     0
  9
$VISRETAIN
 70
     0
  9
$PLINEGEN
 70
     0
  9
$PSLTSCALE
 70
     1
  0
ENDSEC
  0
SECTION
  2
TABLES
  0
TABLE
  2
VPORT
 70
     1
  0
VPORT
  2
*ACTIVE
 70
     0
 10
0.0
 20
0.0
 11
1.0
 21
1.0
 12
-480.1340165905497201
 22
-152.7188131212649864
 13
0.0
 23
0.0
 14
1.0
 24
1.0
 15
10.0
 25
10.0
 16
-0.0000000000004547
 26
0.0
 36
1798.0169501713730824
 17
480.1340165905497201
 27
184.2188200657083996
 37
-0.0000000000014933
 40
244.2525633591025098
 41
1.8847807394668961
 42
50.0
 43
0.0
 44
0.0
 50
0.0
 51
0.0
 71
     0
 72
  1500
 73
     1
 74
     1
 75
     0
 76
     0
 77
     0
 78
     0
  0
ENDTAB
  0
TABLE
  2
LTYPE
 70
     2
  0
LTYPE
  2
CONTINUOUS
 70
     0
  3
Solid line
 72
    65
 73
     0
 40
0.0
  0
LTYPE
  2
VERDECKT
 70
     0
  3
Verdeckt __ __ __ __ __ __ __ __ __ __ __ __ __
 72
    65
 73
     2
 40
9.5249999999999986
 49
6.3499999999999988
 49
-3.1749999999999989
  0
ENDTAB
  0
TABLE
  2
LAYER
 70
     4
  0
LAYER
  2
0
 70
     0
 62
     7
  6
CONTINUOUS
  0
LAYER
  2
BEM
 70
     0
 62
     7
  6
CONTINUOUS
  0
LAYER
  2
ADSK_ASSOC_ENTITY_BACKUPS
 70
     1
 62
    -7
  6
CONTINUOUS
  0
LAYER
  2
ABDECKROSETTE
 70
     0
 62
   253
  6
CONTINUOUS
  0
ENDTAB
  0
TABLE
  2
STYLE
 70
     3
  0
STYLE
  2
STANDARD
 70
     0
 40
0.0
 41
0.8
 50
0.0
 71
     0
 42
3.5
  3
simplex.shx
  4

  0
STYLE
  2
GREEKS
 70
     0
 40
0.0
 41
0.8
 50
0.0
 71
     0
 42
2.5
  3
SIMPLEX.shx
  4

  0
STYLE
  2

 70
     1
 40
0.0
 41
1.0
 50
0.0
 71
     0
 42
3.5
  3
ltypeshp.shx
  4

  0
ENDTAB
  0
TABLE
  2
VIEW
 70
     0
  0
ENDTAB
  0
TABLE
  2
UCS
 70
     0
  0
ENDTAB
  0
TABLE
  2
APPID
 70
    23
  0
APPID
  2
ACAD
 70
     0
  0
APPID
  2
ACAD_NAV_VCDISPLAY
 70
     0
  0
APPID
  2
ACAD_EXEMPT_FROM_CAD_STANDARDS
 70
     0
  0
APPID
  2
ACAD_PSEXT
 70
     0
  0
APPID
  2
ACAUTHENVIRON
 70
     0
  0
APPID
  2
ACDBDYNAMICBLOCKTRUENAME
 70
     0
  0
APPID
  2
ACDBDYNAMICBLOCKGUID
 70
     0
  0
APPID
  2
ACAECLAYERSTANDARD
 70
     0
  0
APPID
  2
ACCMTRANSPARENCY
 70
     0
  0
APPID
  2
ACAD_STEPID
 70
     0
  0
APPID
  2
ACSYNERGY
 70
     0
  0
APPID
  2
SYNERGY_BODY_TBR_ID
 70
     0
  0
APPID
  2
ACAD_VIEW_EDGE_ID
 70
     0
  0
APPID
  2
ACAD_DSTYLE_DIMJAG
 70
     0
  0
APPID
  2
ACAD_DSTYLE_DIMTALN
 70
     0
  0
APPID
  2
ACADANNOMONITORALERTICONDI
 70
     0
  0
APPID
  2
ACSYNERGYSKETCH
 70
     0
  0
APPID
  2
ACAD_MODELDOC_XFORM
 70
     0
  0
APPID
  2
ACAD_DIMASSOC_CALC_DIMLFAC
 70
     0
  0
APPID
  2
ACAD_DIMASSOC_DIMLFAC
 70
     0
  0
APPID
  2
ACAD_DIMASSOC_OVERRIDDEN_D
 70
     0
  0
APPID
  2
ACAD_DSTYLE_DIMRADIAL_EXTENSION
 70
     0
  0
APPID
  2
ACAD_MLEADERVER
 70
     0
  0
ENDTAB
  0
TABLE
  2
DIMSTYLE
 70
     1
  0
DIMSTYLE
  2
STANDARD
 70
     0
  3

  4

  5

  6

  7

 40
1.0
 41
0.18
 42
0.0625
 43
0.38
 44
0.18
 45
0.0
 46
0.0
 47
0.0
 48
0.0
140
0.18
141
0.09
142
0.0
143
25.3999999999999986
144
1.0
145
0.0
146
1.0
147
0.09
 71
     0
 72
     0
 73
     1
 74
     1
 75
     0
 76
     0
 77
     0
 78
     0
170
     0
171
     2
172
     0
173
     0
174
     0
175
     0
176
     0
177
     0
178
     0
  0
ENDTAB
  0
ENDSEC
  0
SECTION
  2
BLOCKS
  0
BLOCK
  8
0
  2
$MODEL_SPACE
 70
     0
 10
0.0
 20
0.0
 30
0.0
  3
$MODEL_SPACE
  1

  0
ENDBLK
  5
38
  8
0
  0
BLOCK
 67
     1
  8
0
  2
$PAPER_SPACE
 70
     0
 10
0.0
 20
0.0
 30
0.0
  3
$PAPER_SPACE
  1

  0
ENDBLK
  5
5FE
 67
     1
  8
0
  0
BLOCK
  8
0
  2
*S0
 70
     1
 10
0.0
 20
0.0
 30
0.0
  3
*S0
  1

  0
ENDBLK
  5
571
  8
0
  0
BLOCK
  8
0
  2
A$CED30A377
 70
     0
 10
0.0
 20
0.0
 30
0.0
  3
A$CED30A377
  1

  0
LINE
  5
254A
  8
0
  6
CONTINUOUS
 62
     3
 10
0.0500000000000682
 20
86.464451637260467
 30
0.0
 11
0.0500000000000682
 21
80.5
 31
0.0
  0
POLYLINE
  8
0
  5
25D4
  62
3
  66
     1
 10
0.000000
 20
0.000000
 30
0.000000
  70
     8
  0
VERTEX
  8
0
  5
25D5
 10
0.0500000
 20
87.8787
 30
0.000000
  70
    32
  0
VERTEX
  8
0
  5
25D6
 10
0.0500000
 20
87.8754
 30
0.000000
  70
    32
  0
VERTEX
  8
0
  5
25D7
 10
0.0500000
 20
87.8721
 30
0.000000
  70
    32
  0
VERTEX
  8
0
  5
25D8
 10
0.0500000
 20
87.8687
 30
0.000000
  70
    32
  0
VERTEX
  8
0
  5
25D9
 10
0.0500000
 20
87.8654
 30
0.000000
  70
    32
  0
VERTEX
  8
0
  5
25DA
 10
0.0500000
 20
87.8621
 30
0.000000
  70
    32
  0
VERTEX
  8
0
  5
25DB
 10
0.0500000
 20
87.8587
 30
0.000000
  70
    32
  0
VERTEX
  8
0
  5
25DC
 10
0.0500000
 20
87.8553
 30
0.000000
  70
    32
  0
VERTEX
  8
0
  5
25DD
 10
0.0500000
 20
87.8519
 30
0.000000
  70
    32
  0
VERTEX
  8
0
  5
25DE
 10
0.0500000
 20
87.8485
 30
0.000000
  70
    32
  0
VERTEX
  8
0
  5
25DF
 10
0.0500000
 20
87.8451
 30
0.000000
  70
    32
  0
VERTEX
  8
0
  5
25E0
 10
0.0500000
 20
87.8416
 30
0.000000
  70
    32
  0
VERTEX
  8
0
  5
25E1
 10
0.0500000
 20
87.8382
 30
0.000000
  70
    32
  0
VERTEX
  8
0
  5
25E2
 10
0.0500000
 20
87.8347
 30
0.000000
  70
    32
  0
VERTEX
  8
0
  5
25E3
 10
0.0500000
 20
87.8312
 30
0.000000
  70
    32
  0
VERTEX
  8
0
  5
25E4
 10
0.0500000
 20
87.8277
 30
0.000000
  70
    32
  0
VERTEX
  8
0
  5
25E5
 10
0.0500000
 20
87.8242
 30
0.000000
  70
    32
  0
VERTEX
  8
0
  5
25E6
 10
0.0500000
 20
87.8207
 30
0.000000
  70
    32
  0
VERTEX
  8
0
  5
25E7
 10
0.0500000
 20
87.8171
 30
0.000000
  70
    32
  0
VERTEX
  8
0
  5
25E8
 10
0.0500000
 20
87.8136
 30
0.000000
  70
    32
  0
VERTEX
  8
0
  5
25E9
 10
0.0500000
 20
87.8100
 30
0.000000
  70
    32
  0
VERTEX
  8
0
  5
25EA
 10
0.0500000
 20
87.8064
 30
0.000000
  70
    32
  0
VERTEX
  8
0
  5
25EB
 10
0.0500000
 20
87.8028
 30
0.000000
  70
    32
  0
VERTEX
  8
0
  5
25EC
 10
0.0500000
 20
87.7992
 30
0.000000
  70
    32
  0
VERTEX
  8
0
  5
25ED
 10
0.0500000
 20
87.7956
 30
0.000000
  70
    32
  0
VERTEX
  8
0
  5
25EE
 10
0.0500000
 20
87.7920
 30
0.000000
  70
    32
  0
VERTEX
  8
0
  5
25EF
 10
0.0500000
 20
87.7883
 30
0.000000
  70
    32
  0
VERTEX
  8
0
  5
25F0
 10
0.0500000
 20
87.7846
 30
0.000000
  70
    32
  0
VERTEX
  8
0
  5
25F1
 10
0.0500000
 20
87.7810
 30
0.000000
  70
    32
  0
VERTEX
  8
0
  5
25F2
 10
0.0500000
 20
87.7773
 30
0.000000
  70
    32
  0
VERTEX
  8
0
  5
25F3
 10
0.0500000
 20
87.7736
 30
0.000000
  70
    32
  0
VERTEX
  8
0
  5
25F4
 10
0.0500000
 20
87.7699
 30
0.000000
  70
    32
  0
VERTEX
  8
0
  5
25F5
 10
0.0500000
 20
87.7661
 30
0.000000
  70
    32
  0
VERTEX
  8
0
  5
25F6
 10
0.0500000
 20
87.7624
 30
0.000000
  70
    32
  0
VERTEX
  8
0
  5
25F7
 10
0.0500000
 20
87.7586
 30
0.000000
  70
    32
  0
VERTEX
  8
0
  5
25F8
 10
0.0500000
 20
87.7549
 30
0.000000
  70
    32
  0
VERTEX
  8
0
  5
25F9
 10
0.0500000
 20
87.7511
 30
0.000000
  70
    32
  0
VERTEX
  8
0
  5
25FA
 10
0.0500000
 20
87.7473
 30
0.000000
  70
    32
  0
VERTEX
  8
0
  5
25FB
 10
0.0500000
 20
87.7435
 30
0.000000
  70
    32
  0
VERTEX
  8
0
  5
25FC
 10
0.0500000
 20
87.7397
 30
0.000000
  70
    32
  0
VERTEX
  8
0
  5
25FD
 10
0.0500000
 20
87.7359
 30
0.000000
  70
    32
  0
VERTEX
  8
0
  5
25FE
 10
0.0500000
 20
87.7320
 30
0.000000
  70
    32
  0
VERTEX
  8
0
  5
25FF
 10
0.0500000
 20
87.7282
 30
0.000000
  70
    32
  0
VERTEX
  8
0
  5
2600
 10
0.0500000
 20
87.7243
 30
0.000000
  70
    32
  0
VERTEX
  8
0
  5
2601
 10
0.0500000
 20
87.7205
 30
0.000000
  70
    32
  0
VERTEX
  8
0
  5
2602
 10
0.0500000
 20
87.7166
 30
0.000000
  70
    32
  0
VERTEX
  8
0
  5
2603
 10
0.0500000
 20
87.7127
 30
0.000000
  70
    32
  0
VERTEX
  8
0
  5
2604
 10
0.0500000
 20
87.7088
 30
0.000000
  70
    32
  0
VERTEX
  8
0
  5
2605
 10
0.0500000
 20
87.7049
 30
0.000000
  70
    32
  0
VERTEX
  8
0
  5
2606
 10
0.0500000
 20
87.7010
 30
0.000000
  70
    32
  0
VERTEX
  8
0
  5
2607
 10
0.0500000
 20
87.6970
 30
0.000000
  70
    32
  0
VERTEX
  8
0
  5
2608
 10
0.0500000
 20
87.6931
 30
0.000000
  70
    32
  0
VERTEX
  8
0
  5
2609
 10
0.0500000
 20
87.6891
 30
0.000000
  70
    32
  0
VERTEX
  8
0
  5
260A
 10
0.0500000
 20
87.6852
 30
0.000000
  70
    32
  0
VERTEX
  8
0
  5
260B
 10
0.0500000
 20
87.6812
 30
0.000000
  70
    32
  0
VERTEX
  8
0
  5
260C
 10
0.0500000
 20
87.6772
 30
0.000000
  70
    32
  0
VERTEX
  8
0
  5
260D
 10
0.0500000
 20
87.6732
 30
0.000000
  70
    32
  0
VERTEX
  8
0
  5
260E
 10
0.0500000
 20
87.6692
 30
0.000000
  70
    32
  0
VERTEX
  8
0
  5
260F
 10
0.0500000
 20
87.6652
 30
0.000000
  70
    32
  0
VERTEX
  8
0
  5
2610
 10
0.0500000
 20
87.6612
 30
0.000000
  70
    32
  0
VERTEX
  8
0
  5
2611
 10
0.0500000
 20
87.6571
 30
0.000000
  70
    32
  0
VERTEX
  8
0
  5
2612
 10
0.0500000
 20
87.6531
 30
0.000000
  70
    32
  0
VERTEX
  8
0
  5
2613
 10
0.0500000
 20
87.6490
 30
0.000000
  70
    32
  0
VERTEX
  8
0
  5
2614
 10
0.0500000
 20
87.6450
 30
0.000000
  70
    32
  0
VERTEX
  8
0
  5
2615
 10
0.0500000
 20
87.6409
 30
0.000000
  70
    32
  0
VERTEX
  8
0
  5
2616
 10
0.0500000
 20
87.6368
 30
0.000000
  70
    32
  0
VERTEX
  8
0
  5
2617
 10
0.0500000
 20
87.6327
 30
0.000000
  70
    32
  0
VERTEX
  8
0
  5
2618
 10
0.0500000
 20
87.6286
 30
0.000000
  70
    32
  0
VERTEX
  8
0
  5
2619
 10
0.0500000
 20
87.6245
 30
0.000000
  70
    32
  0
VERTEX
  8
0
  5
261A
 10
0.0500000
 20
87.6204
 30
0.000000
  70
    32
  0
VERTEX
  8
0
  5
261B
 10
0.0500000
 20
87.6163
 30
0.000000
  70
    32
  0
VERTEX
  8
0
  5
261C
 10
0.0500000
 20
87.6121
 30
0.000000
  70
    32
  0
VERTEX
  8
0
  5
261D
 10
0.0500000
 20
87.6080
 30
0.000000
  70
    32
  0
VERTEX
  8
0
  5
261E
 10
0.0500000
 20
87.6038
 30
0.000000
  70
    32
  0
VERTEX
  8
0
  5
261F
 10
0.0500000
 20
87.5997
 30
0.000000
  70
    32
  0
VERTEX
  8
0
  5
2620
 10
0.0500000
 20
87.5955
 30
0.000000
  70
    32
  0
VERTEX
  8
0
  5
2621
 10
0.0500000
 20
87.5913
 30
0.000000
  70
    32
  0
VERTEX
  8
0
  5
2622
 10
0.0500000
 20
87.5871
 30
0.000000
  70
    32
  0
VERTEX
  8
0
  5
2623
 10
0.0500000
 20
87.5829
 30
0.000000
  70
    32
  0
VERTEX
  8
0
  5
2624
 10
0.0500000
 20
87.5787
 30
0.000000
  70
    32
  0
VERTEX
  8
0
  5
2625
 10
0.0500000
 20
87.5745
 30
0.000000
  70
    32
  0
VERTEX
  8
0
  5
2626
 10
0.0500000
 20
87.5703
 30
0.000000
  70
    32
  0
VERTEX
  8
0
  5
2627
 10
0.0500000
 20
87.5661
 30
0.000000
  70
    32
  0
VERTEX
  8
0
  5
2628
 10
0.0500000
 20
87.5619
 30
0.000000
  70
    32
  0
VERTEX
  8
0
  5
2629
 10
0.0500000
 20
87.5576
 30
0.000000
  70
    32
  0
VERTEX
  8
0
  5
262A
 10
0.0500000
 20
87.5534
 30
0.000000
  70
    32
  0
VERTEX
  8
0
  5
262B
 10
0.0500000
 20
87.5491
 30
0.000000
  70
    32
  0
VERTEX
  8
0
  5
262C
 10
0.0500000
 20
87.5449
 30
0.000000
  70
    32
  0
VERTEX
  8
0
  5
262D
 10
0.0500000
 20
87.5406
 30
0.000000
  70
    32
  0
VERTEX
  8
0
  5
262E
 10
0.0500000
 20
87.5364
 30
0.000000
  70
    32
  0
VERTEX
  8
0
  5
262F
 10
0.0500000
 20
87.5321
 30
0.000000
  70
    32
  0
VERTEX
  8
0
  5
2630
 10
0.0500000
 20
87.5278
 30
0.000000
  70
    32
  0
VERTEX
  8
0
  5
2631
 10
0.0500000
 20
87.5235
 30
0.000000
  70
    32
  0
VERTEX
  8
0
  5
2632
 10
0.0500000
 20
87.5192
 30
0.000000
  70
    32
  0
VERTEX
  8
0
  5
2633
 10
0.0500000
 20
87.5149
 30
0.000000
  70
    32
  0
VERTEX
  8
0
  5
2634
 10
0.0500000
 20
87.5106
 30
0.000000
  70
    32
  0
VERTEX
  8
0
  5
2635
 10
0.0500000
 20
87.5063
 30
0.000000
  70
    32
  0
VERTEX
  8
0
  5
2636
 10
0.0500000
 20
87.5020
 30
0.000000
  70
    32
  0
VERTEX
  8
0
  5
2637
 10
0.0500000
 20
87.4977
 30
0.000000
  70
    32
  0
VERTEX
  8
0
  5
2638
 10
0.0500000
 20
87.4934
 30
0.000000
  70
    32
  0
VERTEX
  8
0
  5
2639
 10
0.0500000
 20
87.4890
 30
0.000000
  70
    32
  0
VERTEX
  8
0
  5
263A
 10
0.0500000
 20
87.4847
 30
0.000000
  70
    32
  0
VERTEX
  8
0
  5
263B
 10
0.0500000
 20
87.4804
 30
0.000000
  70
    32
  0
VERTEX
  8
0
  5
263C
 10
0.0500000
 20
87.4760
 30
0.000000
  70
    32
  0
VERTEX
  8
0
  5
263D
 10
0.0500000
 20
87.4717
 30
0.000000
  70
    32
  0
VERTEX
  8
0
  5
263E
 10
0.0500000
 20
87.4674
 30
0.000000
  70
    32
  0
VERTEX
  8
0
  5
263F
 10
0.0500000
 20
87.4630
 30
0.000000
  70
    32
  0
VERTEX
  8
0
  5
2640
 10
0.0500000
 20
87.4587
 30
0.000000
  70
    32
  0
VERTEX
  8
0
  5
2641
 10
0.0500000
 20
87.4543
 30
0.000000
  70
    32
  0
VERTEX
  8
0
  5
2642
 10
0.0500000
 20
87.4499
 30
0.000000
  70
    32
  0
VERTEX
  8
0
  5
2643
 10
0.0500000
 20
87.4456
 30
0.000000
  70
    32
  0
VERTEX
  8
0
  5
2644
 10
0.0500000
 20
87.4412
 30
0.000000
  70
    32
  0
VERTEX
  8
0
  5
2645
 10
0.0500000
 20
87.4369
 30
0.000000
  70
    32
  0
VERTEX
  8
0
  5
2646
 10
0.0500000
 20
87.4325
 30
0.000000
  70
    32
  0
VERTEX
  8
0
  5
2647
 10
0.0500000
 20
87.4281
 30
0.000000
  70
    32
  0
VERTEX
  8
0
  5
2648
 10
0.0500000
 20
87.4237
 30
0.000000
  70
    32
  0
VERTEX
  8
0
  5
2649
 10
0.0500000
 20
87.4194
 30
0.000000
  70
    32
  0
VERTEX
  8
0
  5
264A
 10
0.0500000
 20
87.4150
 30
0.000000
  70
    32
  0
VERTEX
  8
0
  5
264B
 10
0.0500000
 20
87.4106
 30
0.000000
  70
    32
  0
VERTEX
  8
0
  5
264C
 10
0.0500000
 20
87.4062
 30
0.000000
  70
    32
  0
VERTEX
  8
0
  5
264D
 10
0.0500000
 20
87.4019
 30
0.000000
  70
    32
  0
VERTEX
  8
0
  5
264E
 10
0.0500000
 20
87.3975
 30
0.000000
  70
    32
  0
VERTEX
  8
0
  5
264F
 10
0.0500000
 20
87.3931
 30
0.000000
  70
    32
  0
VERTEX
  8
0
  5
2650
 10
0.0500000
 20
87.3887
 30
0.000000
  70
    32
  0
VERTEX
  8
0
  5
2651
 10
0.0500000
 20
87.3843
 30
0.000000
  70
    32
  0
VERTEX
  8
0
  5
2652
 10
0.0500000
 20
87.3800
 30
0.000000
  70
    32
  0
VERTEX
  8
0
  5
2653
 10
0.0500000
 20
87.3756
 30
0.000000
  70
    32
  0
VERTEX
  8
0
  5
2654
 10
0.0500000
 20
87.3712
 30
0.000000
  70
    32
  0
VERTEX
  8
0
  5
2655
 10
0.0500000
 20
87.3668
 30
0.000000
  70
    32
  0
VERTEX
  8
0
  5
2656
 10
0.0500000
 20
87.3624
 30
0.000000
  70
    32
  0
VERTEX
  8
0
  5
2657
 10
0.0500000
 20
87.3580
 30
0.000000
  70
    32
  0
VERTEX
  8
0
  5
2658
 10
0.0500000
 20
87.3537
 30
0.000000
  70
    32
  0
VERTEX
  8
0
  5
2659
 10
0.0500000
 20
87.3493
 30
0.000000
  70
    32
  0
VERTEX
  8
0
  5
265A
 10
0.0500000
 20
87.3449
 30
0.000000
  70
    32
  0
VERTEX
  8
0
  5
265B
 10
0.0500000
 20
87.3405
 30
0.000000
  70
    32
  0
VERTEX
  8
0
  5
265C
 10
0.0500000
 20
87.3362
 30
0.000000
  70
    32
  0
VERTEX
  8
0
  5
265D
 10
0.0500000
 20
87.3318
 30
0.000000
  70
    32
  0
VERTEX
  8
0
  5
265E
 10
0.0500000
 20
87.3274
 30
0.000000
  70
    32
  0
VERTEX
  8
0
  5
265F
 10
0.0500000
 20
87.3230
 30
0.000000
  70
    32
  0
VERTEX
  8
0
  5
2660
 10
0.0500000
 20
87.3187
 30
0.000000
  70
    32
  0
VERTEX
  8
0
  5
2661
 10
0.0500000
 20
87.3143
 30
0.000000
  70
    32
  0
VERTEX
  8
0
  5
2662
 10
0.0500000
 20
87.3099
 30
0.000000
  70
    32
  0
VERTEX
  8
0
  5
2663
 10
0.0500000
 20
87.3056
 30
0.000000
  70
    32
  0
VERTEX
  8
0
  5
2664
 10
0.0500000
 20
87.3012
 30
0.000000
  70
    32
  0
VERTEX
  8
0
  5
2665
 10
0.0500000
 20
87.2969
 30
0.000000
  70
    32
  0
VERTEX
  8
0
  5
2666
 10
0.0500000
 20
87.2925
 30
0.000000
  70
    32
  0
VERTEX
  8
0
  5
2667
 10
0.0500000
 20
87.2882
 30
0.000000
  70
    32
  0
VERTEX
  8
0
  5
2668
 10
0.0500000
 20
87.2838
 30
0.000000
  70
    32
  0
VERTEX
  8
0
  5
2669
 10
0.0500000
 20
87.2795
 30
0.000000
  70
    32
  0
VERTEX
  8
0
  5
266A
 10
0.0500000
 20
87.2751
 30
0.000000
  70
    32
  0
VERTEX
  8
0
  5
266B
 10
0.0500000
 20
87.2708
 30
0.000000
  70
    32
  0
VERTEX
  8
0
  5
266C
 10
0.0500000
 20
87.2665
 30
0.000000
  70
    32
  0
VERTEX
  8
0
  5
266D
 10
0.0500000
 20
87.2621
 30
0.000000
  70
    32
  0
VERTEX
  8
0
  5
266E
 10
0.0500000
 20
87.2578
 30
0.000000
  70
    32
  0
VERTEX
  8
0
  5
266F
 10
0.0500000
 20
87.2535
 30
0.000000
  70
    32
  0
VERTEX
  8
0
  5
2670
 10
0.0500000
 20
87.2492
 30
0.000000
  70
    32
  0
VERTEX
  8
0
  5
2671
 10
0.0500000
 20
87.2449
 30
0.000000
  70
    32
  0
VERTEX
  8
0
  5
2672
 10
0.0500000
 20
87.2406
 30
0.000000
  70
    32
  0
VERTEX
  8
0
  5
2673
 10
0.0500000
 20
87.2363
 30
0.000000
  70
    32
  0
VERTEX
  8
0
  5
2674
 10
0.0500000
 20
87.2320
 30
0.000000
  70
    32
  0
VERTEX
  8
0
  5
2675
 10
0.0500000
 20
87.2277
 30
0.000000
  70
    32
  0
VERTEX
  8
0
  5
2676
 10
0.0500000
 20
87.2234
 30
0.000000
  70
    32
  0
VERTEX
  8
0
  5
2677
 10
0.0500000
 20
87.2191
 30
0.000000
  70
    32
  0
VERTEX
  8
0
  5
2678
 10
0.0500000
 20
87.2147
 30
0.000000
  70
    32
  0
VERTEX
  8
0
  5
2679
 10
0.0500000
 20
87.2104
 30
0.000000
  70
    32
  0
VERTEX
  8
0
  5
267A
 10
0.0500000
 20
87.2060
 30
0.000000
  70
    32
  0
VERTEX
  8
0
  5
267B
 10
0.0500000
 20
87.2016
 30
0.000000
  70
    32
  0
VERTEX
  8
0
  5
267C
 10
0.0500000
 20
87.1973
 30
0.000000
  70
    32
  0
VERTEX
  8
0
  5
267D
 10
0.0500000
 20
87.1929
 30
0.000000
  70
    32
  0
VERTEX
  8
0
  5
267E
 10
0.0500000
 20
87.1884
 30
0.000000
  70
    32
  0
VERTEX
  8
0
  5
267F
 10
0.0500000
 20
87.1840
 30
0.000000
  70
    32
  0
VERTEX
  8
0
  5
2680
 10
0.0500000
 20
87.1796
 30
0.000000
  70
    32
  0
VERTEX
  8
0
  5
2681
 10
0.0500000
 20
87.1751
 30
0.000000
  70
    32
  0
VERTEX
  8
0
  5
2682
 10
0.0500000
 20
87.1707
 30
0.000000
  70
    32
  0
VERTEX
  8
0
  5
2683
 10
0.0500000
 20
87.1662
 30
0.000000
  70
    32
  0
VERTEX
  8
0
  5
2684
 10
0.0500000
 20
87.1617
 30
0.000000
  70
    32
  0
VERTEX
  8
0
  5
2685
 10
0.0500000
 20
87.1572
 30
0.000000
  70
    32
  0
VERTEX
  8
0
  5
2686
 10
0.0500000
 20
87.1527
 30
0.000000
  70
    32
  0
VERTEX
  8
0
  5
2687
 10
0.0500000
 20
87.1482
 30
0.000000
  70
    32
  0
VERTEX
  8
0
  5
2688
 10
0.0500000
 20
87.1436
 30
0.000000
  70
    32
  0
VERTEX
  8
0
  5
2689
 10
0.0500000
 20
87.1391
 30
0.000000
  70
    32
  0
VERTEX
  8
0
  5
268A
 10
0.0500000
 20
87.1345
 30
0.000000
  70
    32
  0
VERTEX
  8
0
  5
268B
 10
0.0500000
 20
87.1300
 30
0.000000
  70
    32
  0
VERTEX
  8
0
  5
268C
 10
0.0500000
 20
87.1254
 30
0.000000
  70
    32
  0
VERTEX
  8
0
  5
268D
 10
0.0500000
 20
87.1208
 30
0.000000
  70
    32
  0
VERTEX
  8
0
  5
268E
 10
0.0500000
 20
87.1162
 30
0.000000
  70
    32
  0
VERTEX
  8
0
  5
268F
 10
0.0500000
 20
87.1116
 30
0.000000
  70
    32
  0
VERTEX
  8
0
  5
2690
 10
0.0500000
 20
87.1070
 30
0.000000
  70
    32
  0
VERTEX
  8
0
  5
2691
 10
0.0500000
 20
87.1023
 30
0.000000
  70
    32
  0
VERTEX
  8
0
  5
2692
 10
0.0500000
 20
87.0977
 30
0.000000
  70
    32
  0
VERTEX
  8
0
  5
2693
 10
0.0500000
 20
87.0930
 30
0.000000
  70
    32
  0
VERTEX
  8
0
  5
2694
 10
0.0500000
 20
87.0884
 30
0.000000
  70
    32
  0
VERTEX
  8
0
  5
2695
 10
0.0500000
 20
87.0837
 30
0.000000
  70
    32
  0
VERTEX
  8
0
  5
2696
 10
0.0500000
 20
87.0790
 30
0.000000
  70
    32
  0
VERTEX
  8
0
  5
2697
 10
0.0500000
 20
87.0743
 30
0.000000
  70
    32
  0
VERTEX
  8
0
  5
2698
 10
0.0500000
 20
87.0696
 30
0.000000
  70
    32
  0
VERTEX
  8
0
  5
2699
 10
0.0500000
 20
87.0649
 30
0.000000
  70
    32
  0
VERTEX
  8
0
  5
269A
 10
0.0500000
 20
87.0602
 30
0.000000
  70
    32
  0
VERTEX
  8
0
  5
269B
 10
0.0500000
 20
87.0555
 30
0.000000
  70
    32
  0
VERTEX
  8
0
  5
269C
 10
0.0500000
 20
87.0507
 30
0.000000
  70
    32
  0
VERTEX
  8
0
  5
269D
 10
0.0500000
 20
87.0460
 30
0.000000
  70
    32
  0
VERTEX
  8
0
  5
269E
 10
0.0500000
 20
87.0412
 30
0.000000
  70
    32
  0
VERTEX
  8
0
  5
269F
 10
0.0500000
 20
87.0365
 30
0.000000
  70
    32
  0
VERTEX
  8
0
  5
26A0
 10
0.0500000
 20
87.0317
 30
0.000000
  70
    32
  0
VERTEX
  8
0
  5
26A1
 10
0.0500000
 20
87.0269
 30
0.000000
  70
    32
  0
VERTEX
  8
0
  5
26A2
 10
0.0500000
 20
87.0222
 30
0.000000
  70
    32
  0
VERTEX
  8
0
  5
26A3
 10
0.0500000
 20
87.0174
 30
0.000000
  70
    32
  0
VERTEX
  8
0
  5
26A4
 10
0.0500000
 20
87.0126
 30
0.000000
  70
    32
  0
VERTEX
  8
0
  5
26A5
 10
0.0500000
 20
87.0078
 30
0.000000
  70
    32
  0
VERTEX
  8
0
  5
26A6
 10
0.0500000
 20
87.0029
 30
0.000000
  70
    32
  0
VERTEX
  8
0
  5
26A7
 10
0.0500000
 20
86.9981
 30
0.000000
  70
    32
  0
VERTEX
  8
0
  5
26A8
 10
0.0500000
 20
86.9933
 30
0.000000
  70
    32
  0
VERTEX
  8
0
  5
26A9
 10
0.0500000
 20
86.9885
 30
0.000000
  70
    32
  0
VERTEX
  8
0
  5
26AA
 10
0.0500000
 20
86.9836
 30
0.000000
  70
    32
  0
VERTEX
  8
0
  5
26AB
 10
0.0500000
 20
86.9788
 30
0.000000
  70
    32
  0
VERTEX
  8
0
  5
26AC
 10
0.0500000
 20
86.9739
 30
0.000000
  70
    32
  0
VERTEX
  8
0
  5
26AD
 10
0.0500000
 20
86.9690
 30
0.000000
  70
    32
  0
VERTEX
  8
0
  5
26AE
 10
0.0500000
 20
86.9642
 30
0.000000
  70
    32
  0
VERTEX
  8
0
  5
26AF
 10
0.0500000
 20
86.9593
 30
0.000000
  70
    32
  0
VERTEX
  8
0
  5
26B0
 10
0.0500000
 20
86.9544
 30
0.000000
  70
    32
  0
VERTEX
  8
0
  5
26B1
 10
0.0500000
 20
86.9495
 30
0.000000
  70
    32
  0
VERTEX
  8
0
  5
26B2
 10
0.0500000
 20
86.9447
 30
0.000000
  70
    32
  0
VERTEX
  8
0
  5
26B3
 10
0.0500000
 20
86.9398
 30
0.000000
  70
    32
  0
VERTEX
  8
0
  5
26B4
 10
0.0500000
 20
86.9349
 30
0.000000
  70
    32
  0
VERTEX
  8
0
  5
26B5
 10
0.0500000
 20
86.9300
 30
0.000000
  70
    32
  0
VERTEX
  8
0
  5
26B6
 10
0.0500000
 20
86.9250
 30
0.000000
  70
    32
  0
VERTEX
  8
0
  5
26B7
 10
0.0500000
 20
86.9201
 30
0.000000
  70
    32
  0
VERTEX
  8
0
  5
26B8
 10
0.0500000
 20
86.9152
 30
0.000000
  70
    32
  0
VERTEX
  8
0
  5
26B9
 10
0.0500000
 20
86.9103
 30
0.000000
  70
    32
  0
VERTEX
  8
0
  5
26BA
 10
0.0500000
 20
86.9054
 30
0.000000
  70
    32
  0
VERTEX
  8
0
  5
26BB
 10
0.0500000
 20
86.9004
 30
0.000000
  70
    32
  0
VERTEX
  8
0
  5
26BC
 10
0.0500000
 20
86.8955
 30
0.000000
  70
    32
  0
VERTEX
  8
0
  5
26BD
 10
0.0500000
 20
86.8905
 30
0.000000
  70
    32
  0
VERTEX
  8
0
  5
26BE
 10
0.0500000
 20
86.8856
 30
0.000000
  70
    32
  0
VERTEX
  8
0
  5
26BF
 10
0.0500000
 20
86.8807
 30
0.000000
  70
    32
  0
VERTEX
  8
0
  5
26C0
 10
0.0500000
 20
86.8757
 30
0.000000
  70
    32
  0
VERTEX
  8
0
  5
26C1
 10
0.0500000
 20
86.8708
 30
0.000000
  70
    32
  0
VERTEX
  8
0
  5
26C2
 10
0.0500000
 20
86.8658
 30
0.000000
  70
    32
  0
VERTEX
  8
0
  5
26C3
 10
0.0500000
 20
86.8608
 30
0.000000
  70
    32
  0
VERTEX
  8
0
  5
26C4
 10
0.0500000
 20
86.8559
 30
0.000000
  70
    32
  0
VERTEX
  8
0
  5
26C5
 10
0.0500000
 20
86.8509
 30
0.000000
  70
    32
  0
VERTEX
  8
0
  5
26C6
 10
0.0500000
 20
86.8459
 30
0.000000
  70
    32
  0
VERTEX
  8
0
  5
26C7
 10
0.0500000
 20
86.8410
 30
0.000000
  70
    32
  0
VERTEX
  8
0
  5
26C8
 10
0.0500000
 20
86.8360
 30
0.000000
  70
    32
  0
VERTEX
  8
0
  5
26C9
 10
0.0500000
 20
86.8310
 30
0.000000
  70
    32
  0
VERTEX
  8
0
  5
26CA
 10
0.0500000
 20
86.8260
 30
0.000000
  70
    32
  0
VERTEX
  8
0
  5
26CB
 10
0.0500000
 20
86.8211
 30
0.000000
  70
    32
  0
VERTEX
  8
0
  5
26CC
 10
0.0500000
 20
86.8161
 30
0.000000
  70
    32
  0
VERTEX
  8
0
  5
26CD
 10
0.0500000
 20
86.8111
 30
0.000000
  70
    32
  0
VERTEX
  8
0
  5
26CE
 10
0.0500000
 20
86.8061
 30
0.000000
  70
    32
  0
VERTEX
  8
0
  5
26CF
 10
0.0500000
 20
86.8011
 30
0.000000
  70
    32
  0
VERTEX
  8
0
  5
26D0
 10
0.0500000
 20
86.7962
 30
0.000000
  70
    32
  0
VERTEX
  8
0
  5
26D1
 10
0.0500000
 20
86.7912
 30
0.000000
  70
    32
  0
VERTEX
  8
0
  5
26D2
 10
0.0500000
 20
86.7862
 30
0.000000
  70
    32
  0
VERTEX
  8
0
  5
26D3
 10
0.0500000
 20
86.7812
 30
0.000000
  70
    32
  0
VERTEX
  8
0
  5
26D4
 10
0.0500000
 20
86.7762
 30
0.000000
  70
    32
  0
VERTEX
  8
0
  5
26D5
 10
0.0500000
 20
86.7712
 30
0.000000
  70
    32
  0
VERTEX
  8
0
  5
26D6
 10
0.0500000
 20
86.7662
 30
0.000000
  70
    32
  0
VERTEX
  8
0
  5
26D7
 10
0.0500000
 20
86.7613
 30
0.000000
  70
    32
  0
VERTEX
  8
0
  5
26D8
 10
0.0500000
 20
86.7563
 30
0.000000
  70
    32
  0
VERTEX
  8
0
  5
26D9
 10
0.0500000
 20
86.7513
 30
0.000000
  70
    32
  0
VERTEX
  8
0
  5
26DA
 10
0.0500000
 20
86.7463
 30
0.000000
  70
    32
  0
VERTEX
  8
0
  5
26DB
 10
0.0500000
 20
86.7413
 30
0.000000
  70
    32
  0
VERTEX
  8
0
  5
26DC
 10
0.0500000
 20
86.7363
 30
0.000000
  70
    32
  0
VERTEX
  8
0
  5
26DD
 10
0.0500000
 20
86.7314
 30
0.000000
  70
    32
  0
VERTEX
  8
0
  5
26DE
 10
0.0500000
 20
86.7264
 30
0.000000
  70
    32
  0
VERTEX
  8
0
  5
26DF
 10
0.0500000
 20
86.7214
 30
0.000000
  70
    32
  0
VERTEX
  8
0
  5
26E0
 10
0.0500000
 20
86.7164
 30
0.000000
  70
    32
  0
VERTEX
  8
0
  5
26E1
 10
0.0500000
 20
86.7115
 30
0.000000
  70
    32
  0
VERTEX
  8
0
  5
26E2
 10
0.0500000
 20
86.7065
 30
0.000000
  70
    32
  0
VERTEX
  8
0
  5
26E3
 10
0.0500000
 20
86.7015
 30
0.000000
  70
    32
  0
VERTEX
  8
0
  5
26E4
 10
0.0500000
 20
86.6966
 30
0.000000
  70
    32
  0
VERTEX
  8
0
  5
26E5
 10
0.0500000
 20
86.6916
 30
0.000000
  70
    32
  0
VERTEX
  8
0
  5
26E6
 10
0.0500000
 20
86.6866
 30
0.000000
  70
    32
  0
VERTEX
  8
0
  5
26E7
 10
0.0500000
 20
86.6817
 30
0.000000
  70
    32
  0
VERTEX
  8
0
  5
26E8
 10
0.0500000
 20
86.6767
 30
0.000000
  70
    32
  0
VERTEX
  8
0
  5
26E9
 10
0.0500000
 20
86.6718
 30
0.000000
  70
    32
  0
VERTEX
  8
0
  5
26EA
 10
0.0500000
 20
86.6668
 30
0.000000
  70
    32
  0
VERTEX
  8
0
  5
26EB
 10
0.0500000
 20
86.6619
 30
0.000000
  70
    32
  0
VERTEX
  8
0
  5
26EC
 10
0.0500000
 20
86.6569
 30
0.000000
  70
    32
  0
VERTEX
  8
0
  5
26ED
 10
0.0500000
 20
86.6520
 30
0.000000
  70
    32
  0
VERTEX
  8
0
  5
26EE
 10
0.0500000
 20
86.6471
 30
0.000000
  70
    32
  0
VERTEX
  8
0
  5
26EF
 10
0.0500000
 20
86.6422
 30
0.000000
  70
    32
  0
VERTEX
  8
0
  5
26F0
 10
0.0500000
 20
86.6372
 30
0.000000
  70
    32
  0
VERTEX
  8
0
  5
26F1
 10
0.0500000
 20
86.6323
 30
0.000000
  70
    32
  0
VERTEX
  8
0
  5
26F2
 10
0.0500000
 20
86.6274
 30
0.000000
  70
    32
  0
VERTEX
  8
0
  5
26F3
 10
0.0500000
 20
86.6225
 30
0.000000
  70
    32
  0
VERTEX
  8
0
  5
26F4
 10
0.0500000
 20
86.6176
 30
0.000000
  70
    32
  0
VERTEX
  8
0
  5
26F5
 10
0.0500000
 20
86.6127
 30
0.000000
  70
    32
  0
VERTEX
  8
0
  5
26F6
 10
0.0500000
 20
86.6078
 30
0.000000
  70
    32
  0
VERTEX
  8
0
  5
26F7
 10
0.0500000
 20
86.6029
 30
0.000000
  70
    32
  0
VERTEX
  8
0
  5
26F8
 10
0.0500000
 20
86.5980
 30
0.000000
  70
    32
  0
VERTEX
  8
0
  5
26F9
 10
0.0500000
 20
86.5932
 30
0.000000
  70
    32
  0
VERTEX
  8
0
  5
26FA
 10
0.0500000
 20
86.5883
 30
0.000000
  70
    32
  0
VERTEX
  8
0
  5
26FB
 10
0.0500000
 20
86.5834
 30
0.000000
  70
    32
  0
VERTEX
  8
0
  5
26FC
 10
0.0500000
 20
86.5786
 30
0.000000
  70
    32
  0
VERTEX
  8
0
  5
26FD
 10
0.0500000
 20
86.5737
 30
0.000000
  70
    32
  0
VERTEX
  8
0
  5
26FE
 10
0.0500000
 20
86.5689
 30
0.000000
  70
    32
  0
VERTEX
  8
0
  5
26FF
 10
0.0500000
 20
86.5641
 30
0.000000
  70
    32
  0
VERTEX
  8
0
  5
2700
 10
0.0500000
 20
86.5592
 30
0.000000
  70
    32
  0
VERTEX
  8
0
  5
2701
 10
0.0500000
 20
86.5544
 30
0.000000
  70
    32
  0
VERTEX
  8
0
  5
2702
 10
0.0500000
 20
86.5496
 30
0.000000
  70
    32
  0
VERTEX
  8
0
  5
2703
 10
0.0500000
 20
86.5448
 30
0.000000
  70
    32
  0
VERTEX
  8
0
  5
2704
 10
0.0500000
 20
86.5400
 30
0.000000
  70
    32
  0
VERTEX
  8
0
  5
2705
 10
0.0500000
 20
86.5352
 30
0.000000
  70
    32
  0
VERTEX
  8
0
  5
2706
 10
0.0500000
 20
86.5304
 30
0.000000
  70
    32
  0
VERTEX
  8
0
  5
2707
 10
0.0500000
 20
86.5256
 30
0.000000
  70
    32
  0
VERTEX
  8
0
  5
2708
 10
0.0500000
 20
86.5209
 30
0.000000
  70
    32
  0
VERTEX
  8
0
  5
2709
 10
0.0500000
 20
86.5161
 30
0.000000
  70
    32
  0
VERTEX
  8
0
  5
270A
 10
0.0500000
 20
86.5114
 30
0.000000
  70
    32
  0
VERTEX
  8
0
  5
270B
 10
0.0500000
 20
86.5066
 30
0.000000
  70
    32
  0
VERTEX
  8
0
  5
270C
 10
0.0500000
 20
86.5019
 30
0.000000
  70
    32
  0
VERTEX
  8
0
  5
270D
 10
0.0500000
 20
86.4972
 30
0.000000
  70
    32
  0
VERTEX
  8
0
  5
270E
 10
0.0500000
 20
86.4925
 30
0.000000
  70
    32
  0
VERTEX
  8
0
  5
270F
 10
0.0500000
 20
86.4878
 30
0.000000
  70
    32
  0
VERTEX
  8
0
  5
2710
 10
0.0500000
 20
86.4831
 30
0.000000
  70
    32
  0
VERTEX
  8
0
  5
2711
 10
0.0500000
 20
86.4784
 30
0.000000
  70
    32
  0
VERTEX
  8
0
  5
2712
 10
0.0500000
 20
86.4738
 30
0.000000
  70
    32
  0
VERTEX
  8
0
  5
2713
 10
0.0500000
 20
86.4691
 30
0.000000
  70
    32
  0
VERTEX
  8
0
  5
2714
 10
0.0500000
 20
86.4645
 30
0.000000
  70
    32
  0
SEQEND
  8
0
  5
2715
  0
LINE
  5
254C
  8
0
  6
CONTINUOUS
 62
     3
 10
0.0500000000000682
 20
89.2928792199379444
 30
-0.0000000000000001
 11
0.0500000000000682
 21
87.8786654322840235
 31
-0.0000000000000001
  0
LINE
  5
254D
  8
0
  6
CONTINUOUS
 62
     3
 10
0.0500000000000682
 20
89.9999861111100472
 30
0.0
 11
0.0500000000000682
 21
89.2928792199379444
 31
0.0
  0
LINE
  5
254E
  8
0
  6
CONTINUOUS
 62
     3
 10
0.0500000000000682
 20
80.5
 30
0.0
 11
-0.0499999999997272
 21
80.5
 31
0.0
  0
LINE
  5
254F
  8
0
  6
CONTINUOUS
 62
     3
 10
-0.0499999999997272
 20
89.2928792199379444
 30
-0.0000000000000001
 11
-0.0499999999997272
 21
89.9999861111100472
 31
-0.0000000000000001
  0
LINE
  5
2550
  8
0
  6
CONTINUOUS
 62
     3
 10
-0.0499999999997272
 20
87.8786654322840235
 30
0.0
 11
-0.0499999999997272
 21
89.2928792199379444
 31
0.0
  0
POLYLINE
  8
0
  5
2716
  62
3
  66
     1
 10
0.000000
 20
0.000000
 30
0.000000
  70
     8
  0
VERTEX
  8
0
  5
2717
 10
-0.0500000
 20
86.4645
 30
0.000000
  70
    32
  0
VERTEX
  8
0
  5
2718
 10
-0.0500000
 20
86.4691
 30
0.000000
  70
    32
  0
VERTEX
  8
0
  5
2719
 10
-0.0500000
 20
86.4738
 30
0.000000
  70
    32
  0
VERTEX
  8
0
  5
271A
 10
-0.0500000
 20
86.4784
 30
0.000000
  70
    32
  0
VERTEX
  8
0
  5
271B
 10
-0.0500000
 20
86.4831
 30
0.000000
  70
    32
  0
VERTEX
  8
0
  5
271C
 10
-0.0500000
 20
86.4878
 30
0.000000
  70
    32
  0
VERTEX
  8
0
  5
271D
 10
-0.0500000
 20
86.4925
 30
0.000000
  70
    32
  0
VERTEX
  8
0
  5
271E
 10
-0.0500000
 20
86.4972
 30
0.000000
  70
    32
  0
VERTEX
  8
0
  5
271F
 10
-0.0500000
 20
86.5019
 30
0.000000
  70
    32
  0
VERTEX
  8
0
  5
2720
 10
-0.0500000
 20
86.5066
 30
0.000000
  70
    32
  0
VERTEX
  8
0
  5
2721
 10
-0.0500000
 20
86.5114
 30
0.000000
  70
    32
  0
VERTEX
  8
0
  5
2722
 10
-0.0500000
 20
86.5161
 30
0.000000
  70
    32
  0
VERTEX
  8
0
  5
2723
 10
-0.0500000
 20
86.5209
 30
0.000000
  70
    32
  0
VERTEX
  8
0
  5
2724
 10
-0.0500000
 20
86.5256
 30
0.000000
  70
    32
  0
VERTEX
  8
0
  5
2725
 10
-0.0500000
 20
86.5304
 30
0.000000
  70
    32
  0
VERTEX
  8
0
  5
2726
 10
-0.0500000
 20
86.5352
 30
0.000000
  70
    32
  0
VERTEX
  8
0
  5
2727
 10
-0.0500000
 20
86.5400
 30
0.000000
  70
    32
  0
VERTEX
  8
0
  5
2728
 10
-0.0500000
 20
86.5448
 30
0.000000
  70
    32
  0
VERTEX
  8
0
  5
2729
 10
-0.0500000
 20
86.5496
 30
0.000000
  70
    32
  0
VERTEX
  8
0
  5
272A
 10
-0.0500000
 20
86.5544
 30
0.000000
  70
    32
  0
VERTEX
  8
0
  5
272B
 10
-0.0500000
 20
86.5592
 30
0.000000
  70
    32
  0
VERTEX
  8
0
  5
272C
 10
-0.0500000
 20
86.5641
 30
0.000000
  70
    32
  0
VERTEX
  8
0
  5
272D
 10
-0.0500000
 20
86.5689
 30
0.000000
  70
    32
  0
VERTEX
  8
0
  5
272E
 10
-0.0500000
 20
86.5737
 30
0.000000
  70
    32
  0
VERTEX
  8
0
  5
272F
 10
-0.0500000
 20
86.5786
 30
0.000000
  70
    32
  0
VERTEX
  8
0
  5
2730
 10
-0.0500000
 20
86.5834
 30
0.000000
  70
    32
  0
VERTEX
  8
0
  5
2731
 10
-0.0500000
 20
86.5883
 30
0.000000
  70
    32
  0
VERTEX
  8
0
  5
2732
 10
-0.0500000
 20
86.5932
 30
0.000000
  70
    32
  0
VERTEX
  8
0
  5
2733
 10
-0.0500000
 20
86.5980
 30
0.000000
  70
    32
  0
VERTEX
  8
0
  5
2734
 10
-0.0500000
 20
86.6029
 30
0.000000
  70
    32
  0
VERTEX
  8
0
  5
2735
 10
-0.0500000
 20
86.6078
 30
0.000000
  70
    32
  0
VERTEX
  8
0
  5
2736
 10
-0.0500000
 20
86.6127
 30
0.000000
  70
    32
  0
VERTEX
  8
0
  5
2737
 10
-0.0500000
 20
86.6176
 30
0.000000
  70
    32
  0
VERTEX
  8
0
  5
2738
 10
-0.0500000
 20
86.6225
 30
0.000000
  70
    32
  0
VERTEX
  8
0
  5
2739
 10
-0.0500000
 20
86.6274
 30
0.000000
  70
    32
  0
VERTEX
  8
0
  5
273A
 10
-0.0500000
 20
86.6323
 30
0.000000
  70
    32
  0
VERTEX
  8
0
  5
273B
 10
-0.0500000
 20
86.6372
 30
0.000000
  70
    32
  0
VERTEX
  8
0
  5
273C
 10
-0.0500000
 20
86.6422
 30
0.000000
  70
    32
  0
VERTEX
  8
0
  5
273D
 10
-0.0500000
 20
86.6471
 30
0.000000
  70
    32
  0
VERTEX
  8
0
  5
273E
 10
-0.0500000
 20
86.6520
 30
0.000000
  70
    32
  0
VERTEX
  8
0
  5
273F
 10
-0.0500000
 20
86.6569
 30
0.000000
  70
    32
  0
VERTEX
  8
0
  5
2740
 10
-0.0500000
 20
86.6619
 30
0.000000
  70
    32
  0
VERTEX
  8
0
  5
2741
 10
-0.0500000
 20
86.6668
 30
0.000000
  70
    32
  0
VERTEX
  8
0
  5
2742
 10
-0.0500000
 20
86.6718
 30
0.000000
  70
    32
  0
VERTEX
  8
0
  5
2743
 10
-0.0500000
 20
86.6767
 30
0.000000
  70
    32
  0
VERTEX
  8
0
  5
2744
 10
-0.0500000
 20
86.6817
 30
0.000000
  70
    32
  0
VERTEX
  8
0
  5
2745
 10
-0.0500000
 20
86.6866
 30
0.000000
  70
    32
  0
VERTEX
  8
0
  5
2746
 10
-0.0500000
 20
86.6916
 30
0.000000
  70
    32
  0
VERTEX
  8
0
  5
2747
 10
-0.0500000
 20
86.6966
 30
0.000000
  70
    32
  0
VERTEX
  8
0
  5
2748
 10
-0.0500000
 20
86.7015
 30
0.000000
  70
    32
  0
VERTEX
  8
0
  5
2749
 10
-0.0500000
 20
86.7065
 30
0.000000
  70
    32
  0
VERTEX
  8
0
  5
274A
 10
-0.0500000
 20
86.7115
 30
0.000000
  70
    32
  0
VERTEX
  8
0
  5
274B
 10
-0.0500000
 20
86.7164
 30
0.000000
  70
    32
  0
VERTEX
  8
0
  5
274C
 10
-0.0500000
 20
86.7214
 30
0.000000
  70
    32
  0
VERTEX
  8
0
  5
274D
 10
-0.0500000
 20
86.7264
 30
0.000000
  70
    32
  0
VERTEX
  8
0
  5
274E
 10
-0.0500000
 20
86.7314
 30
0.000000
  70
    32
  0
VERTEX
  8
0
  5
274F
 10
-0.0500000
 20
86.7363
 30
0.000000
  70
    32
  0
VERTEX
  8
0
  5
2750
 10
-0.0500000
 20
86.7413
 30
0.000000
  70
    32
  0
VERTEX
  8
0
  5
2751
 10
-0.0500000
 20
86.7463
 30
0.000000
  70
    32
  0
VERTEX
  8
0
  5
2752
 10
-0.0500000
 20
86.7513
 30
0.000000
  70
    32
  0
VERTEX
  8
0
  5
2753
 10
-0.0500000
 20
86.7563
 30
0.000000
  70
    32
  0
VERTEX
  8
0
  5
2754
 10
-0.0500000
 20
86.7613
 30
0.000000
  70
    32
  0
VERTEX
  8
0
  5
2755
 10
-0.0500000
 20
86.7662
 30
0.000000
  70
    32
  0
VERTEX
  8
0
  5
2756
 10
-0.0500000
 20
86.7712
 30
0.000000
  70
    32
  0
VERTEX
  8
0
  5
2757
 10
-0.0500000
 20
86.7762
 30
0.000000
  70
    32
  0
VERTEX
  8
0
  5
2758
 10
-0.0500000
 20
86.7812
 30
0.000000
  70
    32
  0
VERTEX
  8
0
  5
2759
 10
-0.0500000
 20
86.7862
 30
0.000000
  70
    32
  0
VERTEX
  8
0
  5
275A
 10
-0.0500000
 20
86.7912
 30
0.000000
  70
    32
  0
VERTEX
  8
0
  5
275B
 10
-0.0500000
 20
86.7962
 30
0.000000
  70
    32
  0
VERTEX
  8
0
  5
275C
 10
-0.0500000
 20
86.8011
 30
0.000000
  70
    32
  0
VERTEX
  8
0
  5
275D
 10
-0.0500000
 20
86.8061
 30
0.000000
  70
    32
  0
VERTEX
  8
0
  5
275E
 10
-0.0500000
 20
86.8111
 30
0.000000
  70
    32
  0
VERTEX
  8
0
  5
275F
 10
-0.0500000
 20
86.8161
 30
0.000000
  70
    32
  0
VERTEX
  8
0
  5
2760
 10
-0.0500000
 20
86.8211
 30
0.000000
  70
    32
  0
VERTEX
  8
0
  5
2761
 10
-0.0500000
 20
86.8260
 30
0.000000
  70
    32
  0
VERTEX
  8
0
  5
2762
 10
-0.0500000
 20
86.8310
 30
0.000000
  70
    32
  0
VERTEX
  8
0
  5
2763
 10
-0.0500000
 20
86.8360
 30
0.000000
  70
    32
  0
VERTEX
  8
0
  5
2764
 10
-0.0500000
 20
86.8410
 30
0.000000
  70
    32
  0
VERTEX
  8
0
  5
2765
 10
-0.0500000
 20
86.8459
 30
0.000000
  70
    32
  0
VERTEX
  8
0
  5
2766
 10
-0.0500000
 20
86.8509
 30
0.000000
  70
    32
  0
VERTEX
  8
0
  5
2767
 10
-0.0500000
 20
86.8559
 30
0.000000
  70
    32
  0
VERTEX
  8
0
  5
2768
 10
-0.0500000
 20
86.8608
 30
0.000000
  70
    32
  0
VERTEX
  8
0
  5
2769
 10
-0.0500000
 20
86.8658
 30
0.000000
  70
    32
  0
VERTEX
  8
0
  5
276A
 10
-0.0500000
 20
86.8708
 30
0.000000
  70
    32
  0
VERTEX
  8
0
  5
276B
 10
-0.0500000
 20
86.8757
 30
0.000000
  70
    32
  0
VERTEX
  8
0
  5
276C
 10
-0.0500000
 20
86.8807
 30
0.000000
  70
    32
  0
VERTEX
  8
0
  5
276D
 10
-0.0500000
 20
86.8856
 30
0.000000
  70
    32
  0
VERTEX
  8
0
  5
276E
 10
-0.0500000
 20
86.8905
 30
0.000000
  70
    32
  0
VERTEX
  8
0
  5
276F
 10
-0.0500000
 20
86.8955
 30
0.000000
  70
    32
  0
VERTEX
  8
0
  5
2770
 10
-0.0500000
 20
86.9004
 30
0.000000
  70
    32
  0
VERTEX
  8
0
  5
2771
 10
-0.0500000
 20
86.9054
 30
0.000000
  70
    32
  0
VERTEX
  8
0
  5
2772
 10
-0.0500000
 20
86.9103
 30
0.000000
  70
    32
  0
VERTEX
  8
0
  5
2773
 10
-0.0500000
 20
86.9152
 30
0.000000
  70
    32
  0
VERTEX
  8
0
  5
2774
 10
-0.0500000
 20
86.9201
 30
0.000000
  70
    32
  0
VERTEX
  8
0
  5
2775
 10
-0.0500000
 20
86.9250
 30
0.000000
  70
    32
  0
VERTEX
  8
0
  5
2776
 10
-0.0500000
 20
86.9300
 30
0.000000
  70
    32
  0
VERTEX
  8
0
  5
2777
 10
-0.0500000
 20
86.9349
 30
0.000000
  70
    32
  0
VERTEX
  8
0
  5
2778
 10
-0.0500000
 20
86.9398
 30
0.000000
  70
    32
  0
VERTEX
  8
0
  5
2779
 10
-0.0500000
 20
86.9447
 30
0.000000
  70
    32
  0
VERTEX
  8
0
  5
277A
 10
-0.0500000
 20
86.9495
 30
0.000000
  70
    32
  0
VERTEX
  8
0
  5
277B
 10
-0.0500000
 20
86.9544
 30
0.000000
  70
    32
  0
VERTEX
  8
0
  5
277C
 10
-0.0500000
 20
86.9593
 30
0.000000
  70
    32
  0
VERTEX
  8
0
  5
277D
 10
-0.0500000
 20
86.9642
 30
0.000000
  70
    32
  0
VERTEX
  8
0
  5
277E
 10
-0.0500000
 20
86.9690
 30
0.000000
  70
    32
  0
VERTEX
  8
0
  5
277F
 10
-0.0500000
 20
86.9739
 30
0.000000
  70
    32
  0
VERTEX
  8
0
  5
2780
 10
-0.0500000
 20
86.9788
 30
0.000000
  70
    32
  0
VERTEX
  8
0
  5
2781
 10
-0.0500000
 20
86.9836
 30
0.000000
  70
    32
  0
VERTEX
  8
0
  5
2782
 10
-0.0500000
 20
86.9885
 30
0.000000
  70
    32
  0
VERTEX
  8
0
  5
2783
 10
-0.0500000
 20
86.9933
 30
0.000000
  70
    32
  0
VERTEX
  8
0
  5
2784
 10
-0.0500000
 20
86.9981
 30
0.000000
  70
    32
  0
VERTEX
  8
0
  5
2785
 10
-0.0500000
 20
87.0029
 30
0.000000
  70
    32
  0
VERTEX
  8
0
  5
2786
 10
-0.0500000
 20
87.0078
 30
0.000000
  70
    32
  0
VERTEX
  8
0
  5
2787
 10
-0.0500000
 20
87.0126
 30
0.000000
  70
    32
  0
VERTEX
  8
0
  5
2788
 10
-0.0500000
 20
87.0174
 30
0.000000
  70
    32
  0
VERTEX
  8
0
  5
2789
 10
-0.0500000
 20
87.0222
 30
0.000000
  70
    32
  0
VERTEX
  8
0
  5
278A
 10
-0.0500000
 20
87.0269
 30
0.000000
  70
    32
  0
VERTEX
  8
0
  5
278B
 10
-0.0500000
 20
87.0317
 30
0.000000
  70
    32
  0
VERTEX
  8
0
  5
278C
 10
-0.0500000
 20
87.0365
 30
0.000000
  70
    32
  0
VERTEX
  8
0
  5
278D
 10
-0.0500000
 20
87.0412
 30
0.000000
  70
    32
  0
VERTEX
  8
0
  5
278E
 10
-0.0500000
 20
87.0460
 30
0.000000
  70
    32
  0
VERTEX
  8
0
  5
278F
 10
-0.0500000
 20
87.0507
 30
0.000000
  70
    32
  0
VERTEX
  8
0
  5
2790
 10
-0.0500000
 20
87.0555
 30
0.000000
  70
    32
  0
VERTEX
  8
0
  5
2791
 10
-0.0500000
 20
87.0602
 30
0.000000
  70
    32
  0
VERTEX
  8
0
  5
2792
 10
-0.0500000
 20
87.0649
 30
0.000000
  70
    32
  0
VERTEX
  8
0
  5
2793
 10
-0.0500000
 20
87.0696
 30
0.000000
  70
    32
  0
VERTEX
  8
0
  5
2794
 10
-0.0500000
 20
87.0743
 30
0.000000
  70
    32
  0
VERTEX
  8
0
  5
2795
 10
-0.0500000
 20
87.0790
 30
0.000000
  70
    32
  0
VERTEX
  8
0
  5
2796
 10
-0.0500000
 20
87.0837
 30
0.000000
  70
    32
  0
VERTEX
  8
0
  5
2797
 10
-0.0500000
 20
87.0884
 30
0.000000
  70
    32
  0
VERTEX
  8
0
  5
2798
 10
-0.0500000
 20
87.0930
 30
0.000000
  70
    32
  0
VERTEX
  8
0
  5
2799
 10
-0.0500000
 20
87.0977
 30
0.000000
  70
    32
  0
VERTEX
  8
0
  5
279A
 10
-0.0500000
 20
87.1023
 30
0.000000
  70
    32
  0
VERTEX
  8
0
  5
279B
 10
-0.0500000
 20
87.1070
 30
0.000000
  70
    32
  0
VERTEX
  8
0
  5
279C
 10
-0.0500000
 20
87.1116
 30
0.000000
  70
    32
  0
VERTEX
  8
0
  5
279D
 10
-0.0500000
 20
87.1162
 30
0.000000
  70
    32
  0
VERTEX
  8
0
  5
279E
 10
-0.0500000
 20
87.1208
 30
0.000000
  70
    32
  0
VERTEX
  8
0
  5
279F
 10
-0.0500000
 20
87.1254
 30
0.000000
  70
    32
  0
VERTEX
  8
0
  5
27A0
 10
-0.0500000
 20
87.1300
 30
0.000000
  70
    32
  0
VERTEX
  8
0
  5
27A1
 10
-0.0500000
 20
87.1345
 30
0.000000
  70
    32
  0
VERTEX
  8
0
  5
27A2
 10
-0.0500000
 20
87.1391
 30
0.000000
  70
    32
  0
VERTEX
  8
0
  5
27A3
 10
-0.0500000
 20
87.1436
 30
0.000000
  70
    32
  0
VERTEX
  8
0
  5
27A4
 10
-0.0500000
 20
87.1482
 30
0.000000
  70
    32
  0
VERTEX
  8
0
  5
27A5
 10
-0.0500000
 20
87.1527
 30
0.000000
  70
    32
  0
VERTEX
  8
0
  5
27A6
 10
-0.0500000
 20
87.1572
 30
0.000000
  70
    32
  0
VERTEX
  8
0
  5
27A7
 10
-0.0500000
 20
87.1617
 30
0.000000
  70
    32
  0
VERTEX
  8
0
  5
27A8
 10
-0.0500000
 20
87.1662
 30
0.000000
  70
    32
  0
VERTEX
  8
0
  5
27A9
 10
-0.0500000
 20
87.1707
 30
0.000000
  70
    32
  0
VERTEX
  8
0
  5
27AA
 10
-0.0500000
 20
87.1751
 30
0.000000
  70
    32
  0
VERTEX
  8
0
  5
27AB
 10
-0.0500000
 20
87.1796
 30
0.000000
  70
    32
  0
VERTEX
  8
0
  5
27AC
 10
-0.0500000
 20
87.1840
 30
0.000000
  70
    32
  0
VERTEX
  8
0
  5
27AD
 10
-0.0500000
 20
87.1884
 30
0.000000
  70
    32
  0
VERTEX
  8
0
  5
27AE
 10
-0.0500000
 20
87.1929
 30
0.000000
  70
    32
  0
VERTEX
  8
0
  5
27AF
 10
-0.0500000
 20
87.1973
 30
0.000000
  70
    32
  0
VERTEX
  8
0
  5
27B0
 10
-0.0500000
 20
87.2016
 30
0.000000
  70
    32
  0
VERTEX
  8
0
  5
27B1
 10
-0.0500000
 20
87.2060
 30
0.000000
  70
    32
  0
VERTEX
  8
0
  5
27B2
 10
-0.0500000
 20
87.2104
 30
0.000000
  70
    32
  0
VERTEX
  8
0
  5
27B3
 10
-0.0500000
 20
87.2147
 30
0.000000
  70
    32
  0
VERTEX
  8
0
  5
27B4
 10
-0.0500000
 20
87.2191
 30
0.000000
  70
    32
  0
VERTEX
  8
0
  5
27B5
 10
-0.0500000
 20
87.2234
 30
0.000000
  70
    32
  0
VERTEX
  8
0
  5
27B6
 10
-0.0500000
 20
87.2277
 30
0.000000
  70
    32
  0
VERTEX
  8
0
  5
27B7
 10
-0.0500000
 20
87.2320
 30
0.000000
  70
    32
  0
VERTEX
  8
0
  5
27B8
 10
-0.0500000
 20
87.2363
 30
0.000000
  70
    32
  0
VERTEX
  8
0
  5
27B9
 10
-0.0500000
 20
87.2406
 30
0.000000
  70
    32
  0
VERTEX
  8
0
  5
27BA
 10
-0.0500000
 20
87.2449
 30
0.000000
  70
    32
  0
VERTEX
  8
0
  5
27BB
 10
-0.0500000
 20
87.2492
 30
0.000000
  70
    32
  0
VERTEX
  8
0
  5
27BC
 10
-0.0500000
 20
87.2535
 30
0.000000
  70
    32
  0
VERTEX
  8
0
  5
27BD
 10
-0.0500000
 20
87.2578
 30
0.000000
  70
    32
  0
VERTEX
  8
0
  5
27BE
 10
-0.0500000
 20
87.2621
 30
0.000000
  70
    32
  0
VERTEX
  8
0
  5
27BF
 10
-0.0500000
 20
87.2665
 30
0.000000
  70
    32
  0
VERTEX
  8
0
  5
27C0
 10
-0.0500000
 20
87.2708
 30
0.000000
  70
    32
  0
VERTEX
  8
0
  5
27C1
 10
-0.0500000
 20
87.2751
 30
0.000000
  70
    32
  0
VERTEX
  8
0
  5
27C2
 10
-0.0500000
 20
87.2795
 30
0.000000
  70
    32
  0
VERTEX
  8
0
  5
27C3
 10
-0.0500000
 20
87.2838
 30
0.000000
  70
    32
  0
VERTEX
  8
0
  5
27C4
 10
-0.0500000
 20
87.2882
 30
0.000000
  70
    32
  0
VERTEX
  8
0
  5
27C5
 10
-0.0500000
 20
87.2925
 30
0.000000
  70
    32
  0
VERTEX
  8
0
  5
27C6
 10
-0.0500000
 20
87.2969
 30
0.000000
  70
    32
  0
VERTEX
  8
0
  5
27C7
 10
-0.0500000
 20
87.3012
 30
0.000000
  70
    32
  0
VERTEX
  8
0
  5
27C8
 10
-0.0500000
 20
87.3056
 30
0.000000
  70
    32
  0
VERTEX
  8
0
  5
27C9
 10
-0.0500000
 20
87.3099
 30
0.000000
  70
    32
  0
VERTEX
  8
0
  5
27CA
 10
-0.0500000
 20
87.3143
 30
0.000000
  70
    32
  0
VERTEX
  8
0
  5
27CB
 10
-0.0500000
 20
87.3187
 30
0.000000
  70
    32
  0
VERTEX
  8
0
  5
27CC
 10
-0.0500000
 20
87.3230
 30
0.000000
  70
    32
  0
VERTEX
  8
0
  5
27CD
 10
-0.0500000
 20
87.3274
 30
0.000000
  70
    32
  0
VERTEX
  8
0
  5
27CE
 10
-0.0500000
 20
87.3318
 30
0.000000
  70
    32
  0
VERTEX
  8
0
  5
27CF
 10
-0.0500000
 20
87.3362
 30
0.000000
  70
    32
  0
VERTEX
  8
0
  5
27D0
 10
-0.0500000
 20
87.3405
 30
0.000000
  70
    32
  0
VERTEX
  8
0
  5
27D1
 10
-0.0500000
 20
87.3449
 30
0.000000
  70
    32
  0
VERTEX
  8
0
  5
27D2
 10
-0.0500000
 20
87.3493
 30
0.000000
  70
    32
  0
VERTEX
  8
0
  5
27D3
 10
-0.0500000
 20
87.3537
 30
0.000000
  70
    32
  0
VERTEX
  8
0
  5
27D4
 10
-0.0500000
 20
87.3580
 30
0.000000
  70
    32
  0
VERTEX
  8
0
  5
27D5
 10
-0.0500000
 20
87.3624
 30
0.000000
  70
    32
  0
VERTEX
  8
0
  5
27D6
 10
-0.0500000
 20
87.3668
 30
0.000000
  70
    32
  0
VERTEX
  8
0
  5
27D7
 10
-0.0500000
 20
87.3712
 30
0.000000
  70
    32
  0
VERTEX
  8
0
  5
27D8
 10
-0.0500000
 20
87.3756
 30
0.000000
  70
    32
  0
VERTEX
  8
0
  5
27D9
 10
-0.0500000
 20
87.3800
 30
0.000000
  70
    32
  0
VERTEX
  8
0
  5
27DA
 10
-0.0500000
 20
87.3843
 30
0.000000
  70
    32
  0
VERTEX
  8
0
  5
27DB
 10
-0.0500000
 20
87.3887
 30
0.000000
  70
    32
  0
VERTEX
  8
0
  5
27DC
 10
-0.0500000
 20
87.3931
 30
0.000000
  70
    32
  0
VERTEX
  8
0
  5
27DD
 10
-0.0500000
 20
87.3975
 30
0.000000
  70
    32
  0
VERTEX
  8
0
  5
27DE
 10
-0.0500000
 20
87.4019
 30
0.000000
  70
    32
  0
VERTEX
  8
0
  5
27DF
 10
-0.0500000
 20
87.4062
 30
0.000000
  70
    32
  0
VERTEX
  8
0
  5
27E0
 10
-0.0500000
 20
87.4106
 30
0.000000
  70
    32
  0
VERTEX
  8
0
  5
27E1
 10
-0.0500000
 20
87.4150
 30
0.000000
  70
    32
  0
VERTEX
  8
0
  5
27E2
 10
-0.0500000
 20
87.4194
 30
0.000000
  70
    32
  0
VERTEX
  8
0
  5
27E3
 10
-0.0500000
 20
87.4237
 30
0.000000
  70
    32
  0
VERTEX
  8
0
  5
27E4
 10
-0.0500000
 20
87.4281
 30
0.000000
  70
    32
  0
VERTEX
  8
0
  5
27E5
 10
-0.0500000
 20
87.4325
 30
0.000000
  70
    32
  0
VERTEX
  8
0
  5
27E6
 10
-0.0500000
 20
87.4369
 30
0.000000
  70
    32
  0
VERTEX
  8
0
  5
27E7
 10
-0.0500000
 20
87.4412
 30
0.000000
  70
    32
  0
VERTEX
  8
0
  5
27E8
 10
-0.0500000
 20
87.4456
 30
0.000000
  70
    32
  0
VERTEX
  8
0
  5
27E9
 10
-0.0500000
 20
87.4499
 30
0.000000
  70
    32
  0
VERTEX
  8
0
  5
27EA
 10
-0.0500000
 20
87.4543
 30
0.000000
  70
    32
  0
VERTEX
  8
0
  5
27EB
 10
-0.0500000
 20
87.4587
 30
0.000000
  70
    32
  0
VERTEX
  8
0
  5
27EC
 10
-0.0500000
 20
87.4630
 30
0.000000
  70
    32
  0
VERTEX
  8
0
  5
27ED
 10
-0.0500000
 20
87.4674
 30
0.000000
  70
    32
  0
VERTEX
  8
0
  5
27EE
 10
-0.0500000
 20
87.4717
 30
0.000000
  70
    32
  0
VERTEX
  8
0
  5
27EF
 10
-0.0500000
 20
87.4760
 30
0.000000
  70
    32
  0
VERTEX
  8
0
  5
27F0
 10
-0.0500000
 20
87.4804
 30
0.000000
  70
    32
  0
VERTEX
  8
0
  5
27F1
 10
-0.0500000
 20
87.4847
 30
0.000000
  70
    32
  0
VERTEX
  8
0
  5
27F2
 10
-0.0500000
 20
87.4890
 30
0.000000
  70
    32
  0
VERTEX
  8
0
  5
27F3
 10
-0.0500000
 20
87.4934
 30
0.000000
  70
    32
  0
VERTEX
  8
0
  5
27F4
 10
-0.0500000
 20
87.4977
 30
0.000000
  70
    32
  0
VERTEX
  8
0
  5
27F5
 10
-0.0500000
 20
87.5020
 30
0.000000
  70
    32
  0
VERTEX
  8
0
  5
27F6
 10
-0.0500000
 20
87.5063
 30
0.000000
  70
    32
  0
VERTEX
  8
0
  5
27F7
 10
-0.0500000
 20
87.5106
 30
0.000000
  70
    32
  0
VERTEX
  8
0
  5
27F8
 10
-0.0500000
 20
87.5149
 30
0.000000
  70
    32
  0
VERTEX
  8
0
  5
27F9
 10
-0.0500000
 20
87.5192
 30
0.000000
  70
    32
  0
VERTEX
  8
0
  5
27FA
 10
-0.0500000
 20
87.5235
 30
0.000000
  70
    32
  0
VERTEX
  8
0
  5
27FB
 10
-0.0500000
 20
87.5278
 30
0.000000
  70
    32
  0
VERTEX
  8
0
  5
27FC
 10
-0.0500000
 20
87.5321
 30
0.000000
  70
    32
  0
VERTEX
  8
0
  5
27FD
 10
-0.0500000
 20
87.5364
 30
0.000000
  70
    32
  0
VERTEX
  8
0
  5
27FE
 10
-0.0500000
 20
87.5406
 30
0.000000
  70
    32
  0
VERTEX
  8
0
  5
27FF
 10
-0.0500000
 20
87.5449
 30
0.000000
  70
    32
  0
VERTEX
  8
0
  5
2800
 10
-0.0500000
 20
87.5491
 30
0.000000
  70
    32
  0
VERTEX
  8
0
  5
2801
 10
-0.0500000
 20
87.5534
 30
0.000000
  70
    32
  0
VERTEX
  8
0
  5
2802
 10
-0.0500000
 20
87.5576
 30
0.000000
  70
    32
  0
VERTEX
  8
0
  5
2803
 10
-0.0500000
 20
87.5619
 30
0.000000
  70
    32
  0
VERTEX
  8
0
  5
2804
 10
-0.0500000
 20
87.5661
 30
0.000000
  70
    32
  0
VERTEX
  8
0
  5
2805
 10
-0.0500000
 20
87.5703
 30
0.000000
  70
    32
  0
VERTEX
  8
0
  5
2806
 10
-0.0500000
 20
87.5745
 30
0.000000
  70
    32
  0
VERTEX
  8
0
  5
2807
 10
-0.0500000
 20
87.5787
 30
0.000000
  70
    32
  0
VERTEX
  8
0
  5
2808
 10
-0.0500000
 20
87.5829
 30
0.000000
  70
    32
  0
VERTEX
  8
0
  5
2809
 10
-0.0500000
 20
87.5871
 30
0.000000
  70
    32
  0
VERTEX
  8
0
  5
280A
 10
-0.0500000
 20
87.5913
 30
0.000000
  70
    32
  0
VERTEX
  8
0
  5
280B
 10
-0.0500000
 20
87.5955
 30
0.000000
  70
    32
  0
VERTEX
  8
0
  5
280C
 10
-0.0500000
 20
87.5997
 30
0.000000
  70
    32
  0
VERTEX
  8
0
  5
280D
 10
-0.0500000
 20
87.6038
 30
0.000000
  70
    32
  0
VERTEX
  8
0
  5
280E
 10
-0.0500000
 20
87.6080
 30
0.000000
  70
    32
  0
VERTEX
  8
0
  5
280F
 10
-0.0500000
 20
87.6121
 30
0.000000
  70
    32
  0
VERTEX
  8
0
  5
2810
 10
-0.0500000
 20
87.6163
 30
0.000000
  70
    32
  0
VERTEX
  8
0
  5
2811
 10
-0.0500000
 20
87.6204
 30
0.000000
  70
    32
  0
VERTEX
  8
0
  5
2812
 10
-0.0500000
 20
87.6245
 30
0.000000
  70
    32
  0
VERTEX
  8
0
  5
2813
 10
-0.0500000
 20
87.6286
 30
0.000000
  70
    32
  0
VERTEX
  8
0
  5
2814
 10
-0.0500000
 20
87.6327
 30
0.000000
  70
    32
  0
VERTEX
  8
0
  5
2815
 10
-0.0500000
 20
87.6368
 30
0.000000
  70
    32
  0
VERTEX
  8
0
  5
2816
 10
-0.0500000
 20
87.6409
 30
0.000000
  70
    32
  0
VERTEX
  8
0
  5
2817
 10
-0.0500000
 20
87.6450
 30
0.000000
  70
    32
  0
VERTEX
  8
0
  5
2818
 10
-0.0500000
 20
87.6490
 30
0.000000
  70
    32
  0
VERTEX
  8
0
  5
2819
 10
-0.0500000
 20
87.6531
 30
0.000000
  70
    32
  0
VERTEX
  8
0
  5
281A
 10
-0.0500000
 20
87.6571
 30
0.000000
  70
    32
  0
VERTEX
  8
0
  5
281B
 10
-0.0500000
 20
87.6612
 30
0.000000
  70
    32
  0
VERTEX
  8
0
  5
281C
 10
-0.0500000
 20
87.6652
 30
0.000000
  70
    32
  0
VERTEX
  8
0
  5
281D
 10
-0.0500000
 20
87.6692
 30
0.000000
  70
    32
  0
VERTEX
  8
0
  5
281E
 10
-0.0500000
 20
87.6732
 30
0.000000
  70
    32
  0
VERTEX
  8
0
  5
281F
 10
-0.0500000
 20
87.6772
 30
0.000000
  70
    32
  0
VERTEX
  8
0
  5
2820
 10
-0.0500000
 20
87.6812
 30
0.000000
  70
    32
  0
VERTEX
  8
0
  5
2821
 10
-0.0500000
 20
87.6852
 30
0.000000
  70
    32
  0
VERTEX
  8
0
  5
2822
 10
-0.0500000
 20
87.6891
 30
0.000000
  70
    32
  0
VERTEX
  8
0
  5
2823
 10
-0.0500000
 20
87.6931
 30
0.000000
  70
    32
  0
VERTEX
  8
0
  5
2824
 10
-0.0500000
 20
87.6970
 30
0.000000
  70
    32
  0
VERTEX
  8
0
  5
2825
 10
-0.0500000
 20
87.7010
 30
0.000000
  70
    32
  0
VERTEX
  8
0
  5
2826
 10
-0.0500000
 20
87.7049
 30
0.000000
  70
    32
  0
VERTEX
  8
0
  5
2827
 10
-0.0500000
 20
87.7088
 30
0.000000
  70
    32
  0
VERTEX
  8
0
  5
2828
 10
-0.0500000
 20
87.7127
 30
0.000000
  70
    32
  0
VERTEX
  8
0
  5
2829
 10
-0.0500000
 20
87.7166
 30
0.000000
  70
    32
  0
VERTEX
  8
0
  5
282A
 10
-0.0500000
 20
87.7205
 30
0.000000
  70
    32
  0
VERTEX
  8
0
  5
282B
 10
-0.0500000
 20
87.7243
 30
0.000000
  70
    32
  0
VERTEX
  8
0
  5
282C
 10
-0.0500000
 20
87.7282
 30
0.000000
  70
    32
  0
VERTEX
  8
0
  5
282D
 10
-0.0500000
 20
87.7320
 30
0.000000
  70
    32
  0
VERTEX
  8
0
  5
282E
 10
-0.0500000
 20
87.7359
 30
0.000000
  70
    32
  0
VERTEX
  8
0
  5
282F
 10
-0.0500000
 20
87.7397
 30
0.000000
  70
    32
  0
VERTEX
  8
0
  5
2830
 10
-0.0500000
 20
87.7435
 30
0.000000
  70
    32
  0
VERTEX
  8
0
  5
2831
 10
-0.0500000
 20
87.7473
 30
0.000000
  70
    32
  0
VERTEX
  8
0
  5
2832
 10
-0.0500000
 20
87.7511
 30
0.000000
  70
    32
  0
VERTEX
  8
0
  5
2833
 10
-0.0500000
 20
87.7549
 30
0.000000
  70
    32
  0
VERTEX
  8
0
  5
2834
 10
-0.0500000
 20
87.7586
 30
0.000000
  70
    32
  0
VERTEX
  8
0
  5
2835
 10
-0.0500000
 20
87.7624
 30
0.000000
  70
    32
  0
VERTEX
  8
0
  5
2836
 10
-0.0500000
 20
87.7661
 30
0.000000
  70
    32
  0
VERTEX
  8
0
  5
2837
 10
-0.0500000
 20
87.7699
 30
0.000000
  70
    32
  0
VERTEX
  8
0
  5
2838
 10
-0.0500000
 20
87.7736
 30
0.000000
  70
    32
  0
VERTEX
  8
0
  5
2839
 10
-0.0500000
 20
87.7773
 30
0.000000
  70
    32
  0
VERTEX
  8
0
  5
283A
 10
-0.0500000
 20
87.7810
 30
0.000000
  70
    32
  0
VERTEX
  8
0
  5
283B
 10
-0.0500000
 20
87.7846
 30
0.000000
  70
    32
  0
VERTEX
  8
0
  5
283C
 10
-0.0500000
 20
87.7883
 30
0.000000
  70
    32
  0
VERTEX
  8
0
  5
283D
 10
-0.0500000
 20
87.7920
 30
0.000000
  70
    32
  0
VERTEX
  8
0
  5
283E
 10
-0.0500000
 20
87.7956
 30
0.000000
  70
    32
  0
VERTEX
  8
0
  5
283F
 10
-0.0500000
 20
87.7992
 30
0.000000
  70
    32
  0
VERTEX
  8
0
  5
2840
 10
-0.0500000
 20
87.8028
 30
0.000000
  70
    32
  0
VERTEX
  8
0
  5
2841
 10
-0.0500000
 20
87.8064
 30
0.000000
  70
    32
  0
VERTEX
  8
0
  5
2842
 10
-0.0500000
 20
87.8100
 30
0.000000
  70
    32
  0
VERTEX
  8
0
  5
2843
 10
-0.0500000
 20
87.8136
 30
0.000000
  70
    32
  0
VERTEX
  8
0
  5
2844
 10
-0.0500000
 20
87.8171
 30
0.000000
  70
    32
  0
VERTEX
  8
0
  5
2845
 10
-0.0500000
 20
87.8207
 30
0.000000
  70
    32
  0
VERTEX
  8
0
  5
2846
 10
-0.0500000
 20
87.8242
 30
0.000000
  70
    32
  0
VERTEX
  8
0
  5
2847
 10
-0.0500000
 20
87.8277
 30
0.000000
  70
    32
  0
VERTEX
  8
0
  5
2848
 10
-0.0500000
 20
87.8312
 30
0.000000
  70
    32
  0
VERTEX
  8
0
  5
2849
 10
-0.0500000
 20
87.8347
 30
0.000000
  70
    32
  0
VERTEX
  8
0
  5
284A
 10
-0.0500000
 20
87.8382
 30
0.000000
  70
    32
  0
VERTEX
  8
0
  5
284B
 10
-0.0500000
 20
87.8416
 30
0.000000
  70
    32
  0
VERTEX
  8
0
  5
284C
 10
-0.0500000
 20
87.8451
 30
0.000000
  70
    32
  0
VERTEX
  8
0
  5
284D
 10
-0.0500000
 20
87.8485
 30
0.000000
  70
    32
  0
VERTEX
  8
0
  5
284E
 10
-0.0500000
 20
87.8519
 30
0.000000
  70
    32
  0
VERTEX
  8
0
  5
284F
 10
-0.0500000
 20
87.8553
 30
0.000000
  70
    32
  0
VERTEX
  8
0
  5
2850
 10
-0.0500000
 20
87.8587
 30
0.000000
  70
    32
  0
VERTEX
  8
0
  5
2851
 10
-0.0500000
 20
87.8621
 30
0.000000
  70
    32
  0
VERTEX
  8
0
  5
2852
 10
-0.0500000
 20
87.8654
 30
0.000000
  70
    32
  0
VERTEX
  8
0
  5
2853
 10
-0.0500000
 20
87.8687
 30
0.000000
  70
    32
  0
VERTEX
  8
0
  5
2854
 10
-0.0500000
 20
87.8721
 30
0.000000
  70
    32
  0
VERTEX
  8
0
  5
2855
 10
-0.0500000
 20
87.8754
 30
0.000000
  70
    32
  0
VERTEX
  8
0
  5
2856
 10
-0.0500000
 20
87.8787
 30
0.000000
  70
    32
  0
SEQEND
  8
0
  5
2857
  0
LINE
  5
2552
  8
0
  6
CONTINUOUS
 62
     3
 10
-0.0499999999997272
 20
80.5
 30
0.0
 11
-0.0499999999997272
 21
86.464451637260467
 31
0.0
  0
LINE
  5
2553
  8
0
  6
CONTINUOUS
 62
     3
 10
-4.1277189999998418
 20
-61.4999999999996021
 30
-0.0000000000000008
 11
-0.0499999999998409
 21
-61.4999999999996021
 31
-0.0000000000000001
  0
LINE
  5
2554
  8
0
  6
CONTINUOUS
 62
     3
 10
-0.0499999999998409
 20
-61.4999999999996021
 30
0.0
 11
-0.0499999999998409
 21
-36.9999662162007326
 31
0.0
  0
ARC
  5
2555
  8
0
  6
CONTINUOUS
 62
     3
 10
0.0
 20
0.0
 30
0.0
 40
37.0000000000000071
 50
90.0774267526361001
 51
269.9225732473639141
  0
LINE
  5
2556
  8
0
  6
CONTINUOUS
 62
     3
 10
-0.0499999999998409
 20
36.9999662162007326
 30
0.0
 11
-0.0499999999998409
 21
61.4999999999998792
 31
0.0
  0
LINE
  5
2557
  8
0
  6
CONTINUOUS
 62
     3
 10
-0.0499999999998409
 20
61.4999999999998792
 30
0.0
 11
-4.1277189999998418
 21
61.4999999999998792
 31
-0.0000000000000007
  0
ARC
  5
2558
  8
0
  6
CONTINUOUS
 62
     3
 10
-6.9999999999998863
 20
63.4999999999998792
 30
-0.0000000000000012
 40
3.499999734708739
 50
34.8499076030384032
 51
325.150092396961611
  0
LINE
  5
2559
  8
0
  6
CONTINUOUS
 62
     3
 10
-4.1277189999998418
 20
65.4999999999998863
 30
-0.0000000000000008
 11
-0.0499999999998409
 21
65.4999999999998863
 31
-0.0000000000000001
  0
LINE
  5
255A
  8
0
  6
CONTINUOUS
 62
     3
 10
-0.0499999999998409
 20
65.4999999999998863
 30
0.0
 11
-0.0499999999998409
 21
79.4999999999998863
 31
0.0
  0
LINE
  5
255B
  8
0
  6
CONTINUOUS
 62
     3
 10
-0.0499999999998409
 20
79.4999999999998863
 30
0.0
 11
0.0500000000001819
 21
79.4999999999998863
 31
0.0
  0
LINE
  5
255C
  8
0
  6
CONTINUOUS
 62
     3
 10
0.0500000000001819
 20
79.4999999999998863
 30
0.0
 11
0.0500000000001819
 21
65.3999999999997499
 31
0.0
  0
LINE
  5
255D
  8
0
  6
CONTINUOUS
 62
     3
 10
0.0500000000001819
 20
65.3999999999997499
 30
0.0
 11
-4.1804255640255397
 21
65.3999999999997499
 31
-0.0000000000000007
  0
ARC
  5
255E
  8
0
  6
CONTINUOUS
 62
     3
 10
-7.0000000000001128
 20
63.4999999999998792
 30
-0.0000000000000012
 40
3.4000000000001829
 50
33.9744759502886211
 51
326.0255240497114073
  0
LINE
  5
255F
  8
0
  6
CONTINUOUS
 62
     3
 10
0.0500000000001819
 20
-79.4999999999996589
 30
0.0
 11
-0.0499999999998409
 21
-79.4999999999996589
 31
0.0
  0
LINE
  5
2560
  8
0
  6
CONTINUOUS
 62
     3
 10
0.0500000000001819
 20
-65.3999999999995225
 30
0.0
 11
0.0500000000001819
 21
-79.4999999999996589
 31
0.0
  0
LINE
  5
2561
  8
0
  6
CONTINUOUS
 62
     3
 10
-0.0499999999998409
 20
-65.4999999999996589
 30
0.0
 11
-4.1277189999998418
 21
-65.4999999999996589
 31
-0.0000000000000007
  0
ARC
  5
2562
  8
0
  6
CONTINUOUS
 62
     3
 10
-6.9999999999998863
 20
-63.4999999999996021
 30
-0.0000000000000012
 40
3.499999734708739
 50
34.8499076030384032
 51
325.150092396961611
  0
LINE
  5
2563
  8
0
  6
CONTINUOUS
 62
     3
 10
0.0499999999999545
 20
-61.5999999999995111
 30
0.0
 11
-4.1804255640255397
 21
-61.5999999999995111
 31
-0.0000000000000007
  0
ARC
  5
2564
  8
0
  6
CONTINUOUS
 62
     3
 10
-7.0
 20
-63.4999999999995524
 30
-0.0000000000000012
 40
3.4000000000000918
 50
33.9744759502886211
 51
326.0255240497114073
  0
LINE
  5
2565
  8
0
  6
CONTINUOUS
 62
     3
 10
-4.1804255640255397
 20
-65.3999999999995225
 30
-0.0000000000000008
 11
0.0500000000001819
 21
-65.3999999999995225
 31
0.0
  0
LINE
  5
2566
  8
0
  6
CONTINUOUS
 62
     3
 10
0.0499999999999545
 20
-36.9999662162007326
 30
0.0
 11
0.0499999999998409
 21
-61.5999999999995111
 31
0.0
  0
LINE
  5
2567
  8
0
  6
CONTINUOUS
 62
     3
 10
-0.0499999999998409
 20
-79.4999999999996589
 30
0.0
 11
-0.0499999999998409
 21
-65.4999999999996589
 31
0.0
  0
ARC
  5
2568
  8
0
  6
CONTINUOUS
 62
     3
 10
0.0
 20
0.0
 30
0.0
 40
37.0
 50
270.0774267526360859
 51
89.9225732473639141
  0
LINE
  5
2569
  8
0
  6
CONTINUOUS
 62
     3
 10
-4.1804255640255397
 20
61.5999999999997883
 30
-0.0000000000000008
 11
0.0499999999999545
 21
61.5999999999997883
 31
0.0
  0
LINE
  5
256A
  8
0
  6
CONTINUOUS
 62
     3
 10
0.0499999999998409
 20
61.5999999999997883
 30
0.0
 11
0.0499999999999545
 21
36.9999662162007326
 31
0.0
  0
LINE
  5
256B
  8
0
  6
CONTINUOUS
 62
     3
 10
-0.0499999999997272
 20
-86.464451637260467
 30
0.0
 11
-0.0499999999997272
 21
-80.4999999999996589
 31
0.0
  0
POLYLINE
  8
0
  5
2858
  62
3
  66
     1
 10
0.000000
 20
0.000000
 30
0.000000
  70
     8
  0
VERTEX
  8
0
  5
2859
 10
-0.0500000
 20
-87.8787
 30
0.000000
  70
    32
  0
VERTEX
  8
0
  5
285A
 10
-0.0500000
 20
-87.8754
 30
0.000000
  70
    32
  0
VERTEX
  8
0
  5
285B
 10
-0.0500000
 20
-87.8721
 30
0.000000
  70
    32
  0
VERTEX
  8
0
  5
285C
 10
-0.0500000
 20
-87.8687
 30
0.000000
  70
    32
  0
VERTEX
  8
0
  5
285D
 10
-0.0500000
 20
-87.8654
 30
0.000000
  70
    32
  0
VERTEX
  8
0
  5
285E
 10
-0.0500000
 20
-87.8621
 30
0.000000
  70
    32
  0
VERTEX
  8
0
  5
285F
 10
-0.0500000
 20
-87.8587
 30
0.000000
  70
    32
  0
VERTEX
  8
0
  5
2860
 10
-0.0500000
 20
-87.8553
 30
0.000000
  70
    32
  0
VERTEX
  8
0
  5
2861
 10
-0.0500000
 20
-87.8519
 30
0.000000
  70
    32
  0
VERTEX
  8
0
  5
2862
 10
-0.0500000
 20
-87.8485
 30
0.000000
  70
    32
  0
VERTEX
  8
0
  5
2863
 10
-0.0500000
 20
-87.8451
 30
0.000000
  70
    32
  0
VERTEX
  8
0
  5
2864
 10
-0.0500000
 20
-87.8416
 30
0.000000
  70
    32
  0
VERTEX
  8
0
  5
2865
 10
-0.0500000
 20
-87.8382
 30
0.000000
  70
    32
  0
VERTEX
  8
0
  5
2866
 10
-0.0500000
 20
-87.8347
 30
0.000000
  70
    32
  0
VERTEX
  8
0
  5
2867
 10
-0.0500000
 20
-87.8312
 30
0.000000
  70
    32
  0
VERTEX
  8
0
  5
2868
 10
-0.0500000
 20
-87.8277
 30
0.000000
  70
    32
  0
VERTEX
  8
0
  5
2869
 10
-0.0500000
 20
-87.8242
 30
0.000000
  70
    32
  0
VERTEX
  8
0
  5
286A
 10
-0.0500000
 20
-87.8207
 30
0.000000
  70
    32
  0
VERTEX
  8
0
  5
286B
 10
-0.0500000
 20
-87.8171
 30
0.000000
  70
    32
  0
VERTEX
  8
0
  5
286C
 10
-0.0500000
 20
-87.8136
 30
0.000000
  70
    32
  0
VERTEX
  8
0
  5
286D
 10
-0.0500000
 20
-87.8100
 30
0.000000
  70
    32
  0
VERTEX
  8
0
  5
286E
 10
-0.0500000
 20
-87.8064
 30
0.000000
  70
    32
  0
VERTEX
  8
0
  5
286F
 10
-0.0500000
 20
-87.8028
 30
0.000000
  70
    32
  0
VERTEX
  8
0
  5
2870
 10
-0.0500000
 20
-87.7992
 30
0.000000
  70
    32
  0
VERTEX
  8
0
  5
2871
 10
-0.0500000
 20
-87.7956
 30
0.000000
  70
    32
  0
VERTEX
  8
0
  5
2872
 10
-0.0500000
 20
-87.7920
 30
0.000000
  70
    32
  0
VERTEX
  8
0
  5
2873
 10
-0.0500000
 20
-87.7883
 30
0.000000
  70
    32
  0
VERTEX
  8
0
  5
2874
 10
-0.0500000
 20
-87.7846
 30
0.000000
  70
    32
  0
VERTEX
  8
0
  5
2875
 10
-0.0500000
 20
-87.7810
 30
0.000000
  70
    32
  0
VERTEX
  8
0
  5
2876
 10
-0.0500000
 20
-87.7773
 30
0.000000
  70
    32
  0
VERTEX
  8
0
  5
2877
 10
-0.0500000
 20
-87.7736
 30
0.000000
  70
    32
  0
VERTEX
  8
0
  5
2878
 10
-0.0500000
 20
-87.7699
 30
0.000000
  70
    32
  0
VERTEX
  8
0
  5
2879
 10
-0.0500000
 20
-87.7661
 30
0.000000
  70
    32
  0
VERTEX
  8
0
  5
287A
 10
-0.0500000
 20
-87.7624
 30
0.000000
  70
    32
  0
VERTEX
  8
0
  5
287B
 10
-0.0500000
 20
-87.7586
 30
0.000000
  70
    32
  0
VERTEX
  8
0
  5
287C
 10
-0.0500000
 20
-87.7549
 30
0.000000
  70
    32
  0
VERTEX
  8
0
  5
287D
 10
-0.0500000
 20
-87.7511
 30
0.000000
  70
    32
  0
VERTEX
  8
0
  5
287E
 10
-0.0500000
 20
-87.7473
 30
0.000000
  70
    32
  0
VERTEX
  8
0
  5
287F
 10
-0.0500000
 20
-87.7435
 30
0.000000
  70
    32
  0
VERTEX
  8
0
  5
2880
 10
-0.0500000
 20
-87.7397
 30
0.000000
  70
    32
  0
VERTEX
  8
0
  5
2881
 10
-0.0500000
 20
-87.7359
 30
0.000000
  70
    32
  0
VERTEX
  8
0
  5
2882
 10
-0.0500000
 20
-87.7320
 30
0.000000
  70
    32
  0
VERTEX
  8
0
  5
2883
 10
-0.0500000
 20
-87.7282
 30
0.000000
  70
    32
  0
VERTEX
  8
0
  5
2884
 10
-0.0500000
 20
-87.7243
 30
0.000000
  70
    32
  0
VERTEX
  8
0
  5
2885
 10
-0.0500000
 20
-87.7205
 30
0.000000
  70
    32
  0
VERTEX
  8
0
  5
2886
 10
-0.0500000
 20
-87.7166
 30
0.000000
  70
    32
  0
VERTEX
  8
0
  5
2887
 10
-0.0500000
 20
-87.7127
 30
0.000000
  70
    32
  0
VERTEX
  8
0
  5
2888
 10
-0.0500000
 20
-87.7088
 30
0.000000
  70
    32
  0
VERTEX
  8
0
  5
2889
 10
-0.0500000
 20
-87.7049
 30
0.000000
  70
    32
  0
VERTEX
  8
0
  5
288A
 10
-0.0500000
 20
-87.7010
 30
0.000000
  70
    32
  0
VERTEX
  8
0
  5
288B
 10
-0.0500000
 20
-87.6970
 30
0.000000
  70
    32
  0
VERTEX
  8
0
  5
288C
 10
-0.0500000
 20
-87.6931
 30
0.000000
  70
    32
  0
VERTEX
  8
0
  5
288D
 10
-0.0500000
 20
-87.6891
 30
0.000000
  70
    32
  0
VERTEX
  8
0
  5
288E
 10
-0.0500000
 20
-87.6852
 30
0.000000
  70
    32
  0
VERTEX
  8
0
  5
288F
 10
-0.0500000
 20
-87.6812
 30
0.000000
  70
    32
  0
VERTEX
  8
0
  5
2890
 10
-0.0500000
 20
-87.6772
 30
0.000000
  70
    32
  0
VERTEX
  8
0
  5
2891
 10
-0.0500000
 20
-87.6732
 30
0.000000
  70
    32
  0
VERTEX
  8
0
  5
2892
 10
-0.0500000
 20
-87.6692
 30
0.000000
  70
    32
  0
VERTEX
  8
0
  5
2893
 10
-0.0500000
 20
-87.6652
 30
0.000000
  70
    32
  0
VERTEX
  8
0
  5
2894
 10
-0.0500000
 20
-87.6612
 30
0.000000
  70
    32
  0
VERTEX
  8
0
  5
2895
 10
-0.0500000
 20
-87.6571
 30
0.000000
  70
    32
  0
VERTEX
  8
0
  5
2896
 10
-0.0500000
 20
-87.6531
 30
0.000000
  70
    32
  0
VERTEX
  8
0
  5
2897
 10
-0.0500000
 20
-87.6490
 30
0.000000
  70
    32
  0
VERTEX
  8
0
  5
2898
 10
-0.0500000
 20
-87.6450
 30
0.000000
  70
    32
  0
VERTEX
  8
0
  5
2899
 10
-0.0500000
 20
-87.6409
 30
0.000000
  70
    32
  0
VERTEX
  8
0
  5
289A
 10
-0.0500000
 20
-87.6368
 30
0.000000
  70
    32
  0
VERTEX
  8
0
  5
289B
 10
-0.0500000
 20
-87.6327
 30
0.000000
  70
    32
  0
VERTEX
  8
0
  5
289C
 10
-0.0500000
 20
-87.6286
 30
0.000000
  70
    32
  0
VERTEX
  8
0
  5
289D
 10
-0.0500000
 20
-87.6245
 30
0.000000
  70
    32
  0
VERTEX
  8
0
  5
289E
 10
-0.0500000
 20
-87.6204
 30
0.000000
  70
    32
  0
VERTEX
  8
0
  5
289F
 10
-0.0500000
 20
-87.6163
 30
0.000000
  70
    32
  0
VERTEX
  8
0
  5
28A0
 10
-0.0500000
 20
-87.6121
 30
0.000000
  70
    32
  0
VERTEX
  8
0
  5
28A1
 10
-0.0500000
 20
-87.6080
 30
0.000000
  70
    32
  0
VERTEX
  8
0
  5
28A2
 10
-0.0500000
 20
-87.6038
 30
0.000000
  70
    32
  0
VERTEX
  8
0
  5
28A3
 10
-0.0500000
 20
-87.5997
 30
0.000000
  70
    32
  0
VERTEX
  8
0
  5
28A4
 10
-0.0500000
 20
-87.5955
 30
0.000000
  70
    32
  0
VERTEX
  8
0
  5
28A5
 10
-0.0500000
 20
-87.5913
 30
0.000000
  70
    32
  0
VERTEX
  8
0
  5
28A6
 10
-0.0500000
 20
-87.5871
 30
0.000000
  70
    32
  0
VERTEX
  8
0
  5
28A7
 10
-0.0500000
 20
-87.5829
 30
0.000000
  70
    32
  0
VERTEX
  8
0
  5
28A8
 10
-0.0500000
 20
-87.5787
 30
0.000000
  70
    32
  0
VERTEX
  8
0
  5
28A9
 10
-0.0500000
 20
-87.5745
 30
0.000000
  70
    32
  0
VERTEX
  8
0
  5
28AA
 10
-0.0500000
 20
-87.5703
 30
0.000000
  70
    32
  0
VERTEX
  8
0
  5
28AB
 10
-0.0500000
 20
-87.5661
 30
0.000000
  70
    32
  0
VERTEX
  8
0
  5
28AC
 10
-0.0500000
 20
-87.5619
 30
0.000000
  70
    32
  0
VERTEX
  8
0
  5
28AD
 10
-0.0500000
 20
-87.5576
 30
0.000000
  70
    32
  0
VERTEX
  8
0
  5
28AE
 10
-0.0500000
 20
-87.5534
 30
0.000000
  70
    32
  0
VERTEX
  8
0
  5
28AF
 10
-0.0500000
 20
-87.5491
 30
0.000000
  70
    32
  0
VERTEX
  8
0
  5
28B0
 10
-0.0500000
 20
-87.5449
 30
0.000000
  70
    32
  0
VERTEX
  8
0
  5
28B1
 10
-0.0500000
 20
-87.5406
 30
0.000000
  70
    32
  0
VERTEX
  8
0
  5
28B2
 10
-0.0500000
 20
-87.5364
 30
0.000000
  70
    32
  0
VERTEX
  8
0
  5
28B3
 10
-0.0500000
 20
-87.5321
 30
0.000000
  70
    32
  0
VERTEX
  8
0
  5
28B4
 10
-0.0500000
 20
-87.5278
 30
0.000000
  70
    32
  0
VERTEX
  8
0
  5
28B5
 10
-0.0500000
 20
-87.5235
 30
0.000000
  70
    32
  0
VERTEX
  8
0
  5
28B6
 10
-0.0500000
 20
-87.5192
 30
0.000000
  70
    32
  0
VERTEX
  8
0
  5
28B7
 10
-0.0500000
 20
-87.5149
 30
0.000000
  70
    32
  0
VERTEX
  8
0
  5
28B8
 10
-0.0500000
 20
-87.5106
 30
0.000000
  70
    32
  0
VERTEX
  8
0
  5
28B9
 10
-0.0500000
 20
-87.5063
 30
0.000000
  70
    32
  0
VERTEX
  8
0
  5
28BA
 10
-0.0500000
 20
-87.5020
 30
0.000000
  70
    32
  0
VERTEX
  8
0
  5
28BB
 10
-0.0500000
 20
-87.4977
 30
0.000000
  70
    32
  0
VERTEX
  8
0
  5
28BC
 10
-0.0500000
 20
-87.4934
 30
0.000000
  70
    32
  0
VERTEX
  8
0
  5
28BD
 10
-0.0500000
 20
-87.4890
 30
0.000000
  70
    32
  0
VERTEX
  8
0
  5
28BE
 10
-0.0500000
 20
-87.4847
 30
0.000000
  70
    32
  0
VERTEX
  8
0
  5
28BF
 10
-0.0500000
 20
-87.4804
 30
0.000000
  70
    32
  0
VERTEX
  8
0
  5
28C0
 10
-0.0500000
 20
-87.4760
 30
0.000000
  70
    32
  0
VERTEX
  8
0
  5
28C1
 10
-0.0500000
 20
-87.4717
 30
0.000000
  70
    32
  0
VERTEX
  8
0
  5
28C2
 10
-0.0500000
 20
-87.4674
 30
0.000000
  70
    32
  0
VERTEX
  8
0
  5
28C3
 10
-0.0500000
 20
-87.4630
 30
0.000000
  70
    32
  0
VERTEX
  8
0
  5
28C4
 10
-0.0500000
 20
-87.4587
 30
0.000000
  70
    32
  0
VERTEX
  8
0
  5
28C5
 10
-0.0500000
 20
-87.4543
 30
0.000000
  70
    32
  0
VERTEX
  8
0
  5
28C6
 10
-0.0500000
 20
-87.4499
 30
0.000000
  70
    32
  0
VERTEX
  8
0
  5
28C7
 10
-0.0500000
 20
-87.4456
 30
0.000000
  70
    32
  0
VERTEX
  8
0
  5
28C8
 10
-0.0500000
 20
-87.4412
 30
0.000000
  70
    32
  0
VERTEX
  8
0
  5
28C9
 10
-0.0500000
 20
-87.4369
 30
0.000000
  70
    32
  0
VERTEX
  8
0
  5
28CA
 10
-0.0500000
 20
-87.4325
 30
0.000000
  70
    32
  0
VERTEX
  8
0
  5
28CB
 10
-0.0500000
 20
-87.4281
 30
0.000000
  70
    32
  0
VERTEX
  8
0
  5
28CC
 10
-0.0500000
 20
-87.4237
 30
0.000000
  70
    32
  0
VERTEX
  8
0
  5
28CD
 10
-0.0500000
 20
-87.4194
 30
0.000000
  70
    32
  0
VERTEX
  8
0
  5
28CE
 10
-0.0500000
 20
-87.4150
 30
0.000000
  70
    32
  0
VERTEX
  8
0
  5
28CF
 10
-0.0500000
 20
-87.4106
 30
0.000000
  70
    32
  0
VERTEX
  8
0
  5
28D0
 10
-0.0500000
 20
-87.4062
 30
0.000000
  70
    32
  0
VERTEX
  8
0
  5
28D1
 10
-0.0500000
 20
-87.4019
 30
0.000000
  70
    32
  0
VERTEX
  8
0
  5
28D2
 10
-0.0500000
 20
-87.3975
 30
0.000000
  70
    32
  0
VERTEX
  8
0
  5
28D3
 10
-0.0500000
 20
-87.3931
 30
0.000000
  70
    32
  0
VERTEX
  8
0
  5
28D4
 10
-0.0500000
 20
-87.3887
 30
0.000000
  70
    32
  0
VERTEX
  8
0
  5
28D5
 10
-0.0500000
 20
-87.3843
 30
0.000000
  70
    32
  0
VERTEX
  8
0
  5
28D6
 10
-0.0500000
 20
-87.3800
 30
0.000000
  70
    32
  0
VERTEX
  8
0
  5
28D7
 10
-0.0500000
 20
-87.3756
 30
0.000000
  70
    32
  0
VERTEX
  8
0
  5
28D8
 10
-0.0500000
 20
-87.3712
 30
0.000000
  70
    32
  0
VERTEX
  8
0
  5
28D9
 10
-0.0500000
 20
-87.3668
 30
0.000000
  70
    32
  0
VERTEX
  8
0
  5
28DA
 10
-0.0500000
 20
-87.3624
 30
0.000000
  70
    32
  0
VERTEX
  8
0
  5
28DB
 10
-0.0500000
 20
-87.3580
 30
0.000000
  70
    32
  0
VERTEX
  8
0
  5
28DC
 10
-0.0500000
 20
-87.3537
 30
0.000000
  70
    32
  0
VERTEX
  8
0
  5
28DD
 10
-0.0500000
 20
-87.3493
 30
0.000000
  70
    32
  0
VERTEX
  8
0
  5
28DE
 10
-0.0500000
 20
-87.3449
 30
0.000000
  70
    32
  0
VERTEX
  8
0
  5
28DF
 10
-0.0500000
 20
-87.3405
 30
0.000000
  70
    32
  0
VERTEX
  8
0
  5
28E0
 10
-0.0500000
 20
-87.3362
 30
0.000000
  70
    32
  0
VERTEX
  8
0
  5
28E1
 10
-0.0500000
 20
-87.3318
 30
0.000000
  70
    32
  0
VERTEX
  8
0
  5
28E2
 10
-0.0500000
 20
-87.3274
 30
0.000000
  70
    32
  0
VERTEX
  8
0
  5
28E3
 10
-0.0500000
 20
-87.3230
 30
0.000000
  70
    32
  0
VERTEX
  8
0
  5
28E4
 10
-0.0500000
 20
-87.3187
 30
0.000000
  70
    32
  0
VERTEX
  8
0
  5
28E5
 10
-0.0500000
 20
-87.3143
 30
0.000000
  70
    32
  0
VERTEX
  8
0
  5
28E6
 10
-0.0500000
 20
-87.3099
 30
0.000000
  70
    32
  0
VERTEX
  8
0
  5
28E7
 10
-0.0500000
 20
-87.3056
 30
0.000000
  70
    32
  0
VERTEX
  8
0
  5
28E8
 10
-0.0500000
 20
-87.3012
 30
0.000000
  70
    32
  0
VERTEX
  8
0
  5
28E9
 10
-0.0500000
 20
-87.2969
 30
0.000000
  70
    32
  0
VERTEX
  8
0
  5
28EA
 10
-0.0500000
 20
-87.2925
 30
0.000000
  70
    32
  0
VERTEX
  8
0
  5
28EB
 10
-0.0500000
 20
-87.2882
 30
0.000000
  70
    32
  0
VERTEX
  8
0
  5
28EC
 10
-0.0500000
 20
-87.2838
 30
0.000000
  70
    32
  0
VERTEX
  8
0
  5
28ED
 10
-0.0500000
 20
-87.2795
 30
0.000000
  70
    32
  0
VERTEX
  8
0
  5
28EE
 10
-0.0500000
 20
-87.2751
 30
0.000000
  70
    32
  0
VERTEX
  8
0
  5
28EF
 10
-0.0500000
 20
-87.2708
 30
0.000000
  70
    32
  0
VERTEX
  8
0
  5
28F0
 10
-0.0500000
 20
-87.2665
 30
0.000000
  70
    32
  0
VERTEX
  8
0
  5
28F1
 10
-0.0500000
 20
-87.2621
 30
0.000000
  70
    32
  0
VERTEX
  8
0
  5
28F2
 10
-0.0500000
 20
-87.2578
 30
0.000000
  70
    32
  0
VERTEX
  8
0
  5
28F3
 10
-0.0500000
 20
-87.2535
 30
0.000000
  70
    32
  0
VERTEX
  8
0
  5
28F4
 10
-0.0500000
 20
-87.2492
 30
0.000000
  70
    32
  0
VERTEX
  8
0
  5
28F5
 10
-0.0500000
 20
-87.2449
 30
0.000000
  70
    32
  0
VERTEX
  8
0
  5
28F6
 10
-0.0500000
 20
-87.2406
 30
0.000000
  70
    32
  0
VERTEX
  8
0
  5
28F7
 10
-0.0500000
 20
-87.2363
 30
0.000000
  70
    32
  0
VERTEX
  8
0
  5
28F8
 10
-0.0500000
 20
-87.2320
 30
0.000000
  70
    32
  0
VERTEX
  8
0
  5
28F9
 10
-0.0500000
 20
-87.2277
 30
0.000000
  70
    32
  0
VERTEX
  8
0
  5
28FA
 10
-0.0500000
 20
-87.2234
 30
0.000000
  70
    32
  0
VERTEX
  8
0
  5
28FB
 10
-0.0500000
 20
-87.2191
 30
0.000000
  70
    32
  0
VERTEX
  8
0
  5
28FC
 10
-0.0500000
 20
-87.2147
 30
0.000000
  70
    32
  0
VERTEX
  8
0
  5
28FD
 10
-0.0500000
 20
-87.2104
 30
0.000000
  70
    32
  0
VERTEX
  8
0
  5
28FE
 10
-0.0500000
 20
-87.2060
 30
0.000000
  70
    32
  0
VERTEX
  8
0
  5
28FF
 10
-0.0500000
 20
-87.2016
 30
0.000000
  70
    32
  0
VERTEX
  8
0
  5
2900
 10
-0.0500000
 20
-87.1973
 30
0.000000
  70
    32
  0
VERTEX
  8
0
  5
2901
 10
-0.0500000
 20
-87.1929
 30
0.000000
  70
    32
  0
VERTEX
  8
0
  5
2902
 10
-0.0500000
 20
-87.1884
 30
0.000000
  70
    32
  0
VERTEX
  8
0
  5
2903
 10
-0.0500000
 20
-87.1840
 30
0.000000
  70
    32
  0
VERTEX
  8
0
  5
2904
 10
-0.0500000
 20
-87.1796
 30
0.000000
  70
    32
  0
VERTEX
  8
0
  5
2905
 10
-0.0500000
 20
-87.1751
 30
0.000000
  70
    32
  0
VERTEX
  8
0
  5
2906
 10
-0.0500000
 20
-87.1707
 30
0.000000
  70
    32
  0
VERTEX
  8
0
  5
2907
 10
-0.0500000
 20
-87.1662
 30
0.000000
  70
    32
  0
VERTEX
  8
0
  5
2908
 10
-0.0500000
 20
-87.1617
 30
0.000000
  70
    32
  0
VERTEX
  8
0
  5
2909
 10
-0.0500000
 20
-87.1572
 30
0.000000
  70
    32
  0
VERTEX
  8
0
  5
290A
 10
-0.0500000
 20
-87.1527
 30
0.000000
  70
    32
  0
VERTEX
  8
0
  5
290B
 10
-0.0500000
 20
-87.1482
 30
0.000000
  70
    32
  0
VERTEX
  8
0
  5
290C
 10
-0.0500000
 20
-87.1436
 30
0.000000
  70
    32
  0
VERTEX
  8
0
  5
290D
 10
-0.0500000
 20
-87.1391
 30
0.000000
  70
    32
  0
VERTEX
  8
0
  5
290E
 10
-0.0500000
 20
-87.1345
 30
0.000000
  70
    32
  0
VERTEX
  8
0
  5
290F
 10
-0.0500000
 20
-87.1300
 30
0.000000
  70
    32
  0
VERTEX
  8
0
  5
2910
 10
-0.0500000
 20
-87.1254
 30
0.000000
  70
    32
  0
VERTEX
  8
0
  5
2911
 10
-0.0500000
 20
-87.1208
 30
0.000000
  70
    32
  0
VERTEX
  8
0
  5
2912
 10
-0.0500000
 20
-87.1162
 30
0.000000
  70
    32
  0
VERTEX
  8
0
  5
2913
 10
-0.0500000
 20
-87.1116
 30
0.000000
  70
    32
  0
VERTEX
  8
0
  5
2914
 10
-0.0500000
 20
-87.1070
 30
0.000000
  70
    32
  0
VERTEX
  8
0
  5
2915
 10
-0.0500000
 20
-87.1023
 30
0.000000
  70
    32
  0
VERTEX
  8
0
  5
2916
 10
-0.0500000
 20
-87.0977
 30
0.000000
  70
    32
  0
VERTEX
  8
0
  5
2917
 10
-0.0500000
 20
-87.0930
 30
0.000000
  70
    32
  0
VERTEX
  8
0
  5
2918
 10
-0.0500000
 20
-87.0884
 30
0.000000
  70
    32
  0
VERTEX
  8
0
  5
2919
 10
-0.0500000
 20
-87.0837
 30
0.000000
  70
    32
  0
VERTEX
  8
0
  5
291A
 10
-0.0500000
 20
-87.0790
 30
0.000000
  70
    32
  0
VERTEX
  8
0
  5
291B
 10
-0.0500000
 20
-87.0743
 30
0.000000
  70
    32
  0
VERTEX
  8
0
  5
291C
 10
-0.0500000
 20
-87.0696
 30
0.000000
  70
    32
  0
VERTEX
  8
0
  5
291D
 10
-0.0500000
 20
-87.0649
 30
0.000000
  70
    32
  0
VERTEX
  8
0
  5
291E
 10
-0.0500000
 20
-87.0602
 30
0.000000
  70
    32
  0
VERTEX
  8
0
  5
291F
 10
-0.0500000
 20
-87.0555
 30
0.000000
  70
    32
  0
VERTEX
  8
0
  5
2920
 10
-0.0500000
 20
-87.0507
 30
0.000000
  70
    32
  0
VERTEX
  8
0
  5
2921
 10
-0.0500000
 20
-87.0460
 30
0.000000
  70
    32
  0
VERTEX
  8
0
  5
2922
 10
-0.0500000
 20
-87.0412
 30
0.000000
  70
    32
  0
VERTEX
  8
0
  5
2923
 10
-0.0500000
 20
-87.0365
 30
0.000000
  70
    32
  0
VERTEX
  8
0
  5
2924
 10
-0.0500000
 20
-87.0317
 30
0.000000
  70
    32
  0
VERTEX
  8
0
  5
2925
 10
-0.0500000
 20
-87.0269
 30
0.000000
  70
    32
  0
VERTEX
  8
0
  5
2926
 10
-0.0500000
 20
-87.0222
 30
0.000000
  70
    32
  0
VERTEX
  8
0
  5
2927
 10
-0.0500000
 20
-87.0174
 30
0.000000
  70
    32
  0
VERTEX
  8
0
  5
2928
 10
-0.0500000
 20
-87.0126
 30
0.000000
  70
    32
  0
VERTEX
  8
0
  5
2929
 10
-0.0500000
 20
-87.0078
 30
0.000000
  70
    32
  0
VERTEX
  8
0
  5
292A
 10
-0.0500000
 20
-87.0029
 30
0.000000
  70
    32
  0
VERTEX
  8
0
  5
292B
 10
-0.0500000
 20
-86.9981
 30
0.000000
  70
    32
  0
VERTEX
  8
0
  5
292C
 10
-0.0500000
 20
-86.9933
 30
0.000000
  70
    32
  0
VERTEX
  8
0
  5
292D
 10
-0.0500000
 20
-86.9885
 30
0.000000
  70
    32
  0
VERTEX
  8
0
  5
292E
 10
-0.0500000
 20
-86.9836
 30
0.000000
  70
    32
  0
VERTEX
  8
0
  5
292F
 10
-0.0500000
 20
-86.9788
 30
0.000000
  70
    32
  0
VERTEX
  8
0
  5
2930
 10
-0.0500000
 20
-86.9739
 30
0.000000
  70
    32
  0
VERTEX
  8
0
  5
2931
 10
-0.0500000
 20
-86.9690
 30
0.000000
  70
    32
  0
VERTEX
  8
0
  5
2932
 10
-0.0500000
 20
-86.9642
 30
0.000000
  70
    32
  0
VERTEX
  8
0
  5
2933
 10
-0.0500000
 20
-86.9593
 30
0.000000
  70
    32
  0
VERTEX
  8
0
  5
2934
 10
-0.0500000
 20
-86.9544
 30
0.000000
  70
    32
  0
VERTEX
  8
0
  5
2935
 10
-0.0500000
 20
-86.9495
 30
0.000000
  70
    32
  0
VERTEX
  8
0
  5
2936
 10
-0.0500000
 20
-86.9447
 30
0.000000
  70
    32
  0
VERTEX
  8
0
  5
2937
 10
-0.0500000
 20
-86.9398
 30
0.000000
  70
    32
  0
VERTEX
  8
0
  5
2938
 10
-0.0500000
 20
-86.9349
 30
0.000000
  70
    32
  0
VERTEX
  8
0
  5
2939
 10
-0.0500000
 20
-86.9300
 30
0.000000
  70
    32
  0
VERTEX
  8
0
  5
293A
 10
-0.0500000
 20
-86.9250
 30
0.000000
  70
    32
  0
VERTEX
  8
0
  5
293B
 10
-0.0500000
 20
-86.9201
 30
0.000000
  70
    32
  0
VERTEX
  8
0
  5
293C
 10
-0.0500000
 20
-86.9152
 30
0.000000
  70
    32
  0
VERTEX
  8
0
  5
293D
 10
-0.0500000
 20
-86.9103
 30
0.000000
  70
    32
  0
VERTEX
  8
0
  5
293E
 10
-0.0500000
 20
-86.9054
 30
0.000000
  70
    32
  0
VERTEX
  8
0
  5
293F
 10
-0.0500000
 20
-86.9004
 30
0.000000
  70
    32
  0
VERTEX
  8
0
  5
2940
 10
-0.0500000
 20
-86.8955
 30
0.000000
  70
    32
  0
VERTEX
  8
0
  5
2941
 10
-0.0500000
 20
-86.8905
 30
0.000000
  70
    32
  0
VERTEX
  8
0
  5
2942
 10
-0.0500000
 20
-86.8856
 30
0.000000
  70
    32
  0
VERTEX
  8
0
  5
2943
 10
-0.0500000
 20
-86.8807
 30
0.000000
  70
    32
  0
VERTEX
  8
0
  5
2944
 10
-0.0500000
 20
-86.8757
 30
0.000000
  70
    32
  0
VERTEX
  8
0
  5
2945
 10
-0.0500000
 20
-86.8708
 30
0.000000
  70
    32
  0
VERTEX
  8
0
  5
2946
 10
-0.0500000
 20
-86.8658
 30
0.000000
  70
    32
  0
VERTEX
  8
0
  5
2947
 10
-0.0500000
 20
-86.8608
 30
0.000000
  70
    32
  0
VERTEX
  8
0
  5
2948
 10
-0.0500000
 20
-86.8559
 30
0.000000
  70
    32
  0
VERTEX
  8
0
  5
2949
 10
-0.0500000
 20
-86.8509
 30
0.000000
  70
    32
  0
VERTEX
  8
0
  5
294A
 10
-0.0500000
 20
-86.8459
 30
0.000000
  70
    32
  0
VERTEX
  8
0
  5
294B
 10
-0.0500000
 20
-86.8410
 30
0.000000
  70
    32
  0
VERTEX
  8
0
  5
294C
 10
-0.0500000
 20
-86.8360
 30
0.000000
  70
    32
  0
VERTEX
  8
0
  5
294D
 10
-0.0500000
 20
-86.8310
 30
0.000000
  70
    32
  0
VERTEX
  8
0
  5
294E
 10
-0.0500000
 20
-86.8260
 30
0.000000
  70
    32
  0
VERTEX
  8
0
  5
294F
 10
-0.0500000
 20
-86.8211
 30
0.000000
  70
    32
  0
VERTEX
  8
0
  5
2950
 10
-0.0500000
 20
-86.8161
 30
0.000000
  70
    32
  0
VERTEX
  8
0
  5
2951
 10
-0.0500000
 20
-86.8111
 30
0.000000
  70
    32
  0
VERTEX
  8
0
  5
2952
 10
-0.0500000
 20
-86.8061
 30
0.000000
  70
    32
  0
VERTEX
  8
0
  5
2953
 10
-0.0500000
 20
-86.8011
 30
0.000000
  70
    32
  0
VERTEX
  8
0
  5
2954
 10
-0.0500000
 20
-86.7962
 30
0.000000
  70
    32
  0
VERTEX
  8
0
  5
2955
 10
-0.0500000
 20
-86.7912
 30
0.000000
  70
    32
  0
VERTEX
  8
0
  5
2956
 10
-0.0500000
 20
-86.7862
 30
0.000000
  70
    32
  0
VERTEX
  8
0
  5
2957
 10
-0.0500000
 20
-86.7812
 30
0.000000
  70
    32
  0
VERTEX
  8
0
  5
2958
 10
-0.0500000
 20
-86.7762
 30
0.000000
  70
    32
  0
VERTEX
  8
0
  5
2959
 10
-0.0500000
 20
-86.7712
 30
0.000000
  70
    32
  0
VERTEX
  8
0
  5
295A
 10
-0.0500000
 20
-86.7662
 30
0.000000
  70
    32
  0
VERTEX
  8
0
  5
295B
 10
-0.0500000
 20
-86.7613
 30
0.000000
  70
    32
  0
VERTEX
  8
0
  5
295C
 10
-0.0500000
 20
-86.7563
 30
0.000000
  70
    32
  0
VERTEX
  8
0
  5
295D
 10
-0.0500000
 20
-86.7513
 30
0.000000
  70
    32
  0
VERTEX
  8
0
  5
295E
 10
-0.0500000
 20
-86.7463
 30
0.000000
  70
    32
  0
VERTEX
  8
0
  5
295F
 10
-0.0500000
 20
-86.7413
 30
0.000000
  70
    32
  0
VERTEX
  8
0
  5
2960
 10
-0.0500000
 20
-86.7363
 30
0.000000
  70
    32
  0
VERTEX
  8
0
  5
2961
 10
-0.0500000
 20
-86.7314
 30
0.000000
  70
    32
  0
VERTEX
  8
0
  5
2962
 10
-0.0500000
 20
-86.7264
 30
0.000000
  70
    32
  0
VERTEX
  8
0
  5
2963
 10
-0.0500000
 20
-86.7214
 30
0.000000
  70
    32
  0
VERTEX
  8
0
  5
2964
 10
-0.0500000
 20
-86.7164
 30
0.000000
  70
    32
  0
VERTEX
  8
0
  5
2965
 10
-0.0500000
 20
-86.7115
 30
0.000000
  70
    32
  0
VERTEX
  8
0
  5
2966
 10
-0.0500000
 20
-86.7065
 30
0.000000
  70
    32
  0
VERTEX
  8
0
  5
2967
 10
-0.0500000
 20
-86.7015
 30
0.000000
  70
    32
  0
VERTEX
  8
0
  5
2968
 10
-0.0500000
 20
-86.6966
 30
0.000000
  70
    32
  0
VERTEX
  8
0
  5
2969
 10
-0.0500000
 20
-86.6916
 30
0.000000
  70
    32
  0
VERTEX
  8
0
  5
296A
 10
-0.0500000
 20
-86.6866
 30
0.000000
  70
    32
  0
VERTEX
  8
0
  5
296B
 10
-0.0500000
 20
-86.6817
 30
0.000000
  70
    32
  0
VERTEX
  8
0
  5
296C
 10
-0.0500000
 20
-86.6767
 30
0.000000
  70
    32
  0
VERTEX
  8
0
  5
296D
 10
-0.0500000
 20
-86.6718
 30
0.000000
  70
    32
  0
VERTEX
  8
0
  5
296E
 10
-0.0500000
 20
-86.6668
 30
0.000000
  70
    32
  0
VERTEX
  8
0
  5
296F
 10
-0.0500000
 20
-86.6619
 30
0.000000
  70
    32
  0
VERTEX
  8
0
  5
2970
 10
-0.0500000
 20
-86.6569
 30
0.000000
  70
    32
  0
VERTEX
  8
0
  5
2971
 10
-0.0500000
 20
-86.6520
 30
0.000000
  70
    32
  0
VERTEX
  8
0
  5
2972
 10
-0.0500000
 20
-86.6471
 30
0.000000
  70
    32
  0
VERTEX
  8
0
  5
2973
 10
-0.0500000
 20
-86.6422
 30
0.000000
  70
    32
  0
VERTEX
  8
0
  5
2974
 10
-0.0500000
 20
-86.6372
 30
0.000000
  70
    32
  0
VERTEX
  8
0
  5
2975
 10
-0.0500000
 20
-86.6323
 30
0.000000
  70
    32
  0
VERTEX
  8
0
  5
2976
 10
-0.0500000
 20
-86.6274
 30
0.000000
  70
    32
  0
VERTEX
  8
0
  5
2977
 10
-0.0500000
 20
-86.6225
 30
0.000000
  70
    32
  0
VERTEX
  8
0
  5
2978
 10
-0.0500000
 20
-86.6176
 30
0.000000
  70
    32
  0
VERTEX
  8
0
  5
2979
 10
-0.0500000
 20
-86.6127
 30
0.000000
  70
    32
  0
VERTEX
  8
0
  5
297A
 10
-0.0500000
 20
-86.6078
 30
0.000000
  70
    32
  0
VERTEX
  8
0
  5
297B
 10
-0.0500000
 20
-86.6029
 30
0.000000
  70
    32
  0
VERTEX
  8
0
  5
297C
 10
-0.0500000
 20
-86.5980
 30
0.000000
  70
    32
  0
VERTEX
  8
0
  5
297D
 10
-0.0500000
 20
-86.5932
 30
0.000000
  70
    32
  0
VERTEX
  8
0
  5
297E
 10
-0.0500000
 20
-86.5883
 30
0.000000
  70
    32
  0
VERTEX
  8
0
  5
297F
 10
-0.0500000
 20
-86.5834
 30
0.000000
  70
    32
  0
VERTEX
  8
0
  5
2980
 10
-0.0500000
 20
-86.5786
 30
0.000000
  70
    32
  0
VERTEX
  8
0
  5
2981
 10
-0.0500000
 20
-86.5737
 30
0.000000
  70
    32
  0
VERTEX
  8
0
  5
2982
 10
-0.0500000
 20
-86.5689
 30
0.000000
  70
    32
  0
VERTEX
  8
0
  5
2983
 10
-0.0500000
 20
-86.5641
 30
0.000000
  70
    32
  0
VERTEX
  8
0
  5
2984
 10
-0.0500000
 20
-86.5592
 30
0.000000
  70
    32
  0
VERTEX
  8
0
  5
2985
 10
-0.0500000
 20
-86.5544
 30
0.000000
  70
    32
  0
VERTEX
  8
0
  5
2986
 10
-0.0500000
 20
-86.5496
 30
0.000000
  70
    32
  0
VERTEX
  8
0
  5
2987
 10
-0.0500000
 20
-86.5448
 30
0.000000
  70
    32
  0
VERTEX
  8
0
  5
2988
 10
-0.0500000
 20
-86.5400
 30
0.000000
  70
    32
  0
VERTEX
  8
0
  5
2989
 10
-0.0500000
 20
-86.5352
 30
0.000000
  70
    32
  0
VERTEX
  8
0
  5
298A
 10
-0.0500000
 20
-86.5304
 30
0.000000
  70
    32
  0
VERTEX
  8
0
  5
298B
 10
-0.0500000
 20
-86.5256
 30
0.000000
  70
    32
  0
VERTEX
  8
0
  5
298C
 10
-0.0500000
 20
-86.5209
 30
0.000000
  70
    32
  0
VERTEX
  8
0
  5
298D
 10
-0.0500000
 20
-86.5161
 30
0.000000
  70
    32
  0
VERTEX
  8
0
  5
298E
 10
-0.0500000
 20
-86.5114
 30
0.000000
  70
    32
  0
VERTEX
  8
0
  5
298F
 10
-0.0500000
 20
-86.5066
 30
0.000000
  70
    32
  0
VERTEX
  8
0
  5
2990
 10
-0.0500000
 20
-86.5019
 30
0.000000
  70
    32
  0
VERTEX
  8
0
  5
2991
 10
-0.0500000
 20
-86.4972
 30
0.000000
  70
    32
  0
VERTEX
  8
0
  5
2992
 10
-0.0500000
 20
-86.4925
 30
0.000000
  70
    32
  0
VERTEX
  8
0
  5
2993
 10
-0.0500000
 20
-86.4878
 30
0.000000
  70
    32
  0
VERTEX
  8
0
  5
2994
 10
-0.0500000
 20
-86.4831
 30
0.000000
  70
    32
  0
VERTEX
  8
0
  5
2995
 10
-0.0500000
 20
-86.4784
 30
0.000000
  70
    32
  0
VERTEX
  8
0
  5
2996
 10
-0.0500000
 20
-86.4738
 30
0.000000
  70
    32
  0
VERTEX
  8
0
  5
2997
 10
-0.0500000
 20
-86.4691
 30
0.000000
  70
    32
  0
VERTEX
  8
0
  5
2998
 10
-0.0500000
 20
-86.4645
 30
0.000000
  70
    32
  0
SEQEND
  8
0
  5
2999
  0
LINE
  5
256D
  8
0
  6
CONTINUOUS
 62
     3
 10
-0.0499999999997272
 20
-89.2928792199379444
 30
-0.0000000000000001
 11
-0.0499999999997272
 21
-87.8786654322840235
 31
-0.0000000000000001
  0
LINE
  5
256E
  8
0
  6
CONTINUOUS
 62
     3
 10
-0.0499999999997272
 20
-89.9999861111100472
 30
0.0
 11
-0.0499999999997272
 21
-89.2928792199379018
 31
0.0
  0
LINE
  5
256F
  8
0
  6
CONTINUOUS
 62
     3
 10
0.0500000000000682
 20
-89.2928792199379018
 30
-0.0000000000000001
 11
0.0500000000000682
 21
-89.9999861111100472
 31
-0.0000000000000001
  0
LINE
  5
2570
  8
0
  6
CONTINUOUS
 62
     3
 10
0.0500000000000682
 20
-87.8786654322839809
 30
0.0
 11
0.0500000000000682
 21
-89.2928792199379444
 31
0.0
  0
POLYLINE
  8
0
  5
299A
  62
3
  66
     1
 10
0.000000
 20
0.000000
 30
0.000000
  70
     8
  0
VERTEX
  8
0
  5
299B
 10
0.0500000
 20
-86.4645
 30
0.000000
  70
    32
  0
VERTEX
  8
0
  5
299C
 10
0.0500000
 20
-86.4691
 30
0.000000
  70
    32
  0
VERTEX
  8
0
  5
299D
 10
0.0500000
 20
-86.4738
 30
0.000000
  70
    32
  0
VERTEX
  8
0
  5
299E
 10
0.0500000
 20
-86.4784
 30
0.000000
  70
    32
  0
VERTEX
  8
0
  5
299F
 10
0.0500000
 20
-86.4831
 30
0.000000
  70
    32
  0
VERTEX
  8
0
  5
29A0
 10
0.0500000
 20
-86.4878
 30
0.000000
  70
    32
  0
VERTEX
  8
0
  5
29A1
 10
0.0500000
 20
-86.4925
 30
0.000000
  70
    32
  0
VERTEX
  8
0
  5
29A2
 10
0.0500000
 20
-86.4972
 30
0.000000
  70
    32
  0
VERTEX
  8
0
  5
29A3
 10
0.0500000
 20
-86.5019
 30
0.000000
  70
    32
  0
VERTEX
  8
0
  5
29A4
 10
0.0500000
 20
-86.5066
 30
0.000000
  70
    32
  0
VERTEX
  8
0
  5
29A5
 10
0.0500000
 20
-86.5114
 30
0.000000
  70
    32
  0
VERTEX
  8
0
  5
29A6
 10
0.0500000
 20
-86.5161
 30
0.000000
  70
    32
  0
VERTEX
  8
0
  5
29A7
 10
0.0500000
 20
-86.5209
 30
0.000000
  70
    32
  0
VERTEX
  8
0
  5
29A8
 10
0.0500000
 20
-86.5256
 30
0.000000
  70
    32
  0
VERTEX
  8
0
  5
29A9
 10
0.0500000
 20
-86.5304
 30
0.000000
  70
    32
  0
VERTEX
  8
0
  5
29AA
 10
0.0500000
 20
-86.5352
 30
0.000000
  70
    32
  0
VERTEX
  8
0
  5
29AB
 10
0.0500000
 20
-86.5400
 30
0.000000
  70
    32
  0
VERTEX
  8
0
  5
29AC
 10
0.0500000
 20
-86.5448
 30
0.000000
  70
    32
  0
VERTEX
  8
0
  5
29AD
 10
0.0500000
 20
-86.5496
 30
0.000000
  70
    32
  0
VERTEX
  8
0
  5
29AE
 10
0.0500000
 20
-86.5544
 30
0.000000
  70
    32
  0
VERTEX
  8
0
  5
29AF
 10
0.0500000
 20
-86.5592
 30
0.000000
  70
    32
  0
VERTEX
  8
0
  5
29B0
 10
0.0500000
 20
-86.5641
 30
0.000000
  70
    32
  0
VERTEX
  8
0
  5
29B1
 10
0.0500000
 20
-86.5689
 30
0.000000
  70
    32
  0
VERTEX
  8
0
  5
29B2
 10
0.0500000
 20
-86.5737
 30
0.000000
  70
    32
  0
VERTEX
  8
0
  5
29B3
 10
0.0500000
 20
-86.5786
 30
0.000000
  70
    32
  0
VERTEX
  8
0
  5
29B4
 10
0.0500000
 20
-86.5834
 30
0.000000
  70
    32
  0
VERTEX
  8
0
  5
29B5
 10
0.0500000
 20
-86.5883
 30
0.000000
  70
    32
  0
VERTEX
  8
0
  5
29B6
 10
0.0500000
 20
-86.5932
 30
0.000000
  70
    32
  0
VERTEX
  8
0
  5
29B7
 10
0.0500000
 20
-86.5980
 30
0.000000
  70
    32
  0
VERTEX
  8
0
  5
29B8
 10
0.0500000
 20
-86.6029
 30
0.000000
  70
    32
  0
VERTEX
  8
0
  5
29B9
 10
0.0500000
 20
-86.6078
 30
0.000000
  70
    32
  0
VERTEX
  8
0
  5
29BA
 10
0.0500000
 20
-86.6127
 30
0.000000
  70
    32
  0
VERTEX
  8
0
  5
29BB
 10
0.0500000
 20
-86.6176
 30
0.000000
  70
    32
  0
VERTEX
  8
0
  5
29BC
 10
0.0500000
 20
-86.6225
 30
0.000000
  70
    32
  0
VERTEX
  8
0
  5
29BD
 10
0.0500000
 20
-86.6274
 30
0.000000
  70
    32
  0
VERTEX
  8
0
  5
29BE
 10
0.0500000
 20
-86.6323
 30
0.000000
  70
    32
  0
VERTEX
  8
0
  5
29BF
 10
0.0500000
 20
-86.6372
 30
0.000000
  70
    32
  0
VERTEX
  8
0
  5
29C0
 10
0.0500000
 20
-86.6422
 30
0.000000
  70
    32
  0
VERTEX
  8
0
  5
29C1
 10
0.0500000
 20
-86.6471
 30
0.000000
  70
    32
  0
VERTEX
  8
0
  5
29C2
 10
0.0500000
 20
-86.6520
 30
0.000000
  70
    32
  0
VERTEX
  8
0
  5
29C3
 10
0.0500000
 20
-86.6569
 30
0.000000
  70
    32
  0
VERTEX
  8
0
  5
29C4
 10
0.0500000
 20
-86.6619
 30
0.000000
  70
    32
  0
VERTEX
  8
0
  5
29C5
 10
0.0500000
 20
-86.6668
 30
0.000000
  70
    32
  0
VERTEX
  8
0
  5
29C6
 10
0.0500000
 20
-86.6718
 30
0.000000
  70
    32
  0
VERTEX
  8
0
  5
29C7
 10
0.0500000
 20
-86.6767
 30
0.000000
  70
    32
  0
VERTEX
  8
0
  5
29C8
 10
0.0500000
 20
-86.6817
 30
0.000000
  70
    32
  0
VERTEX
  8
0
  5
29C9
 10
0.0500000
 20
-86.6866
 30
0.000000
  70
    32
  0
VERTEX
  8
0
  5
29CA
 10
0.0500000
 20
-86.6916
 30
0.000000
  70
    32
  0
VERTEX
  8
0
  5
29CB
 10
0.0500000
 20
-86.6966
 30
0.000000
  70
    32
  0
VERTEX
  8
0
  5
29CC
 10
0.0500000
 20
-86.7015
 30
0.000000
  70
    32
  0
VERTEX
  8
0
  5
29CD
 10
0.0500000
 20
-86.7065
 30
0.000000
  70
    32
  0
VERTEX
  8
0
  5
29CE
 10
0.0500000
 20
-86.7115
 30
0.000000
  70
    32
  0
VERTEX
  8
0
  5
29CF
 10
0.0500000
 20
-86.7164
 30
0.000000
  70
    32
  0
VERTEX
  8
0
  5
29D0
 10
0.0500000
 20
-86.7214
 30
0.000000
  70
    32
  0
VERTEX
  8
0
  5
29D1
 10
0.0500000
 20
-86.7264
 30
0.000000
  70
    32
  0
VERTEX
  8
0
  5
29D2
 10
0.0500000
 20
-86.7314
 30
0.000000
  70
    32
  0
VERTEX
  8
0
  5
29D3
 10
0.0500000
 20
-86.7363
 30
0.000000
  70
    32
  0
VERTEX
  8
0
  5
29D4
 10
0.0500000
 20
-86.7413
 30
0.000000
  70
    32
  0
VERTEX
  8
0
  5
29D5
 10
0.0500000
 20
-86.7463
 30
0.000000
  70
    32
  0
VERTEX
  8
0
  5
29D6
 10
0.0500000
 20
-86.7513
 30
0.000000
  70
    32
  0
VERTEX
  8
0
  5
29D7
 10
0.0500000
 20
-86.7563
 30
0.000000
  70
    32
  0
VERTEX
  8
0
  5
29D8
 10
0.0500000
 20
-86.7613
 30
0.000000
  70
    32
  0
VERTEX
  8
0
  5
29D9
 10
0.0500000
 20
-86.7662
 30
0.000000
  70
    32
  0
VERTEX
  8
0
  5
29DA
 10
0.0500000
 20
-86.7712
 30
0.000000
  70
    32
  0
VERTEX
  8
0
  5
29DB
 10
0.0500000
 20
-86.7762
 30
0.000000
  70
    32
  0
VERTEX
  8
0
  5
29DC
 10
0.0500000
 20
-86.7812
 30
0.000000
  70
    32
  0
VERTEX
  8
0
  5
29DD
 10
0.0500000
 20
-86.7862
 30
0.000000
  70
    32
  0
VERTEX
  8
0
  5
29DE
 10
0.0500000
 20
-86.7912
 30
0.000000
  70
    32
  0
VERTEX
  8
0
  5
29DF
 10
0.0500000
 20
-86.7962
 30
0.000000
  70
    32
  0
VERTEX
  8
0
  5
29E0
 10
0.0500000
 20
-86.8011
 30
0.000000
  70
    32
  0
VERTEX
  8
0
  5
29E1
 10
0.0500000
 20
-86.8061
 30
0.000000
  70
    32
  0
VERTEX
  8
0
  5
29E2
 10
0.0500000
 20
-86.8111
 30
0.000000
  70
    32
  0
VERTEX
  8
0
  5
29E3
 10
0.0500000
 20
-86.8161
 30
0.000000
  70
    32
  0
VERTEX
  8
0
  5
29E4
 10
0.0500000
 20
-86.8211
 30
0.000000
  70
    32
  0
VERTEX
  8
0
  5
29E5
 10
0.0500000
 20
-86.8260
 30
0.000000
  70
    32
  0
VERTEX
  8
0
  5
29E6
 10
0.0500000
 20
-86.8310
 30
0.000000
  70
    32
  0
VERTEX
  8
0
  5
29E7
 10
0.0500000
 20
-86.8360
 30
0.000000
  70
    32
  0
VERTEX
  8
0
  5
29E8
 10
0.0500000
 20
-86.8410
 30
0.000000
  70
    32
  0
VERTEX
  8
0
  5
29E9
 10
0.0500000
 20
-86.8459
 30
0.000000
  70
    32
  0
VERTEX
  8
0
  5
29EA
 10
0.0500000
 20
-86.8509
 30
0.000000
  70
    32
  0
VERTEX
  8
0
  5
29EB
 10
0.0500000
 20
-86.8559
 30
0.000000
  70
    32
  0
VERTEX
  8
0
  5
29EC
 10
0.0500000
 20
-86.8608
 30
0.000000
  70
    32
  0
VERTEX
  8
0
  5
29ED
 10
0.0500000
 20
-86.8658
 30
0.000000
  70
    32
  0
VERTEX
  8
0
  5
29EE
 10
0.0500000
 20
-86.8708
 30
0.000000
  70
    32
  0
VERTEX
  8
0
  5
29EF
 10
0.0500000
 20
-86.8757
 30
0.000000
  70
    32
  0
VERTEX
  8
0
  5
29F0
 10
0.0500000
 20
-86.8807
 30
0.000000
  70
    32
  0
VERTEX
  8
0
  5
29F1
 10
0.0500000
 20
-86.8856
 30
0.000000
  70
    32
  0
VERTEX
  8
0
  5
29F2
 10
0.0500000
 20
-86.8905
 30
0.000000
  70
    32
  0
VERTEX
  8
0
  5
29F3
 10
0.0500000
 20
-86.8955
 30
0.000000
  70
    32
  0
VERTEX
  8
0
  5
29F4
 10
0.0500000
 20
-86.9004
 30
0.000000
  70
    32
  0
VERTEX
  8
0
  5
29F5
 10
0.0500000
 20
-86.9054
 30
0.000000
  70
    32
  0
VERTEX
  8
0
  5
29F6
 10
0.0500000
 20
-86.9103
 30
0.000000
  70
    32
  0
VERTEX
  8
0
  5
29F7
 10
0.0500000
 20
-86.9152
 30
0.000000
  70
    32
  0
VERTEX
  8
0
  5
29F8
 10
0.0500000
 20
-86.9201
 30
0.000000
  70
    32
  0
VERTEX
  8
0
  5
29F9
 10
0.0500000
 20
-86.9250
 30
0.000000
  70
    32
  0
VERTEX
  8
0
  5
29FA
 10
0.0500000
 20
-86.9300
 30
0.000000
  70
    32
  0
VERTEX
  8
0
  5
29FB
 10
0.0500000
 20
-86.9349
 30
0.000000
  70
    32
  0
VERTEX
  8
0
  5
29FC
 10
0.0500000
 20
-86.9398
 30
0.000000
  70
    32
  0
VERTEX
  8
0
  5
29FD
 10
0.0500000
 20
-86.9447
 30
0.000000
  70
    32
  0
VERTEX
  8
0
  5
29FE
 10
0.0500000
 20
-86.9495
 30
0.000000
  70
    32
  0
VERTEX
  8
0
  5
29FF
 10
0.0500000
 20
-86.9544
 30
0.000000
  70
    32
  0
VERTEX
  8
0
  5
2A00
 10
0.0500000
 20
-86.9593
 30
0.000000
  70
    32
  0
VERTEX
  8
0
  5
2A01
 10
0.0500000
 20
-86.9642
 30
0.000000
  70
    32
  0
VERTEX
  8
0
  5
2A02
 10
0.0500000
 20
-86.9690
 30
0.000000
  70
    32
  0
VERTEX
  8
0
  5
2A03
 10
0.0500000
 20
-86.9739
 30
0.000000
  70
    32
  0
VERTEX
  8
0
  5
2A04
 10
0.0500000
 20
-86.9788
 30
0.000000
  70
    32
  0
VERTEX
  8
0
  5
2A05
 10
0.0500000
 20
-86.9836
 30
0.000000
  70
    32
  0
VERTEX
  8
0
  5
2A06
 10
0.0500000
 20
-86.9885
 30
0.000000
  70
    32
  0
VERTEX
  8
0
  5
2A07
 10
0.0500000
 20
-86.9933
 30
0.000000
  70
    32
  0
VERTEX
  8
0
  5
2A08
 10
0.0500000
 20
-86.9981
 30
0.000000
  70
    32
  0
VERTEX
  8
0
  5
2A09
 10
0.0500000
 20
-87.0029
 30
0.000000
  70
    32
  0
VERTEX
  8
0
  5
2A0A
 10
0.0500000
 20
-87.0078
 30
0.000000
  70
    32
  0
VERTEX
  8
0
  5
2A0B
 10
0.0500000
 20
-87.0126
 30
0.000000
  70
    32
  0
VERTEX
  8
0
  5
2A0C
 10
0.0500000
 20
-87.0174
 30
0.000000
  70
    32
  0
VERTEX
  8
0
  5
2A0D
 10
0.0500000
 20
-87.0222
 30
0.000000
  70
    32
  0
VERTEX
  8
0
  5
2A0E
 10
0.0500000
 20
-87.0269
 30
0.000000
  70
    32
  0
VERTEX
  8
0
  5
2A0F
 10
0.0500000
 20
-87.0317
 30
0.000000
  70
    32
  0
VERTEX
  8
0
  5
2A10
 10
0.0500000
 20
-87.0365
 30
0.000000
  70
    32
  0
VERTEX
  8
0
  5
2A11
 10
0.0500000
 20
-87.0412
 30
0.000000
  70
    32
  0
VERTEX
  8
0
  5
2A12
 10
0.0500000
 20
-87.0460
 30
0.000000
  70
    32
  0
VERTEX
  8
0
  5
2A13
 10
0.0500000
 20
-87.0507
 30
0.000000
  70
    32
  0
VERTEX
  8
0
  5
2A14
 10
0.0500000
 20
-87.0555
 30
0.000000
  70
    32
  0
VERTEX
  8
0
  5
2A15
 10
0.0500000
 20
-87.0602
 30
0.000000
  70
    32
  0
VERTEX
  8
0
  5
2A16
 10
0.0500000
 20
-87.0649
 30
0.000000
  70
    32
  0
VERTEX
  8
0
  5
2A17
 10
0.0500000
 20
-87.0696
 30
0.000000
  70
    32
  0
VERTEX
  8
0
  5
2A18
 10
0.0500000
 20
-87.0743
 30
0.000000
  70
    32
  0
VERTEX
  8
0
  5
2A19
 10
0.0500000
 20
-87.0790
 30
0.000000
  70
    32
  0
VERTEX
  8
0
  5
2A1A
 10
0.0500000
 20
-87.0837
 30
0.000000
  70
    32
  0
VERTEX
  8
0
  5
2A1B
 10
0.0500000
 20
-87.0884
 30
0.000000
  70
    32
  0
VERTEX
  8
0
  5
2A1C
 10
0.0500000
 20
-87.0930
 30
0.000000
  70
    32
  0
VERTEX
  8
0
  5
2A1D
 10
0.0500000
 20
-87.0977
 30
0.000000
  70
    32
  0
VERTEX
  8
0
  5
2A1E
 10
0.0500000
 20
-87.1023
 30
0.000000
  70
    32
  0
VERTEX
  8
0
  5
2A1F
 10
0.0500000
 20
-87.1070
 30
0.000000
  70
    32
  0
VERTEX
  8
0
  5
2A20
 10
0.0500000
 20
-87.1116
 30
0.000000
  70
    32
  0
VERTEX
  8
0
  5
2A21
 10
0.0500000
 20
-87.1162
 30
0.000000
  70
    32
  0
VERTEX
  8
0
  5
2A22
 10
0.0500000
 20
-87.1208
 30
0.000000
  70
    32
  0
VERTEX
  8
0
  5
2A23
 10
0.0500000
 20
-87.1254
 30
0.000000
  70
    32
  0
VERTEX
  8
0
  5
2A24
 10
0.0500000
 20
-87.1300
 30
0.000000
  70
    32
  0
VERTEX
  8
0
  5
2A25
 10
0.0500000
 20
-87.1345
 30
0.000000
  70
    32
  0
VERTEX
  8
0
  5
2A26
 10
0.0500000
 20
-87.1391
 30
0.000000
  70
    32
  0
VERTEX
  8
0
  5
2A27
 10
0.0500000
 20
-87.1436
 30
0.000000
  70
    32
  0
VERTEX
  8
0
  5
2A28
 10
0.0500000
 20
-87.1482
 30
0.000000
  70
    32
  0
VERTEX
  8
0
  5
2A29
 10
0.0500000
 20
-87.1527
 30
0.000000
  70
    32
  0
VERTEX
  8
0
  5
2A2A
 10
0.0500000
 20
-87.1572
 30
0.000000
  70
    32
  0
VERTEX
  8
0
  5
2A2B
 10
0.0500000
 20
-87.1617
 30
0.000000
  70
    32
  0
VERTEX
  8
0
  5
2A2C
 10
0.0500000
 20
-87.1662
 30
0.000000
  70
    32
  0
VERTEX
  8
0
  5
2A2D
 10
0.0500000
 20
-87.1707
 30
0.000000
  70
    32
  0
VERTEX
  8
0
  5
2A2E
 10
0.0500000
 20
-87.1751
 30
0.000000
  70
    32
  0
VERTEX
  8
0
  5
2A2F
 10
0.0500000
 20
-87.1796
 30
0.000000
  70
    32
  0
VERTEX
  8
0
  5
2A30
 10
0.0500000
 20
-87.1840
 30
0.000000
  70
    32
  0
VERTEX
  8
0
  5
2A31
 10
0.0500000
 20
-87.1884
 30
0.000000
  70
    32
  0
VERTEX
  8
0
  5
2A32
 10
0.0500000
 20
-87.1929
 30
0.000000
  70
    32
  0
VERTEX
  8
0
  5
2A33
 10
0.0500000
 20
-87.1973
 30
0.000000
  70
    32
  0
VERTEX
  8
0
  5
2A34
 10
0.0500000
 20
-87.2016
 30
0.000000
  70
    32
  0
VERTEX
  8
0
  5
2A35
 10
0.0500000
 20
-87.2060
 30
0.000000
  70
    32
  0
VERTEX
  8
0
  5
2A36
 10
0.0500000
 20
-87.2104
 30
0.000000
  70
    32
  0
VERTEX
  8
0
  5
2A37
 10
0.0500000
 20
-87.2147
 30
0.000000
  70
    32
  0
VERTEX
  8
0
  5
2A38
 10
0.0500000
 20
-87.2191
 30
0.000000
  70
    32
  0
VERTEX
  8
0
  5
2A39
 10
0.0500000
 20
-87.2234
 30
0.000000
  70
    32
  0
VERTEX
  8
0
  5
2A3A
 10
0.0500000
 20
-87.2277
 30
0.000000
  70
    32
  0
VERTEX
  8
0
  5
2A3B
 10
0.0500000
 20
-87.2320
 30
0.000000
  70
    32
  0
VERTEX
  8
0
  5
2A3C
 10
0.0500000
 20
-87.2363
 30
0.000000
  70
    32
  0
VERTEX
  8
0
  5
2A3D
 10
0.0500000
 20
-87.2406
 30
0.000000
  70
    32
  0
VERTEX
  8
0
  5
2A3E
 10
0.0500000
 20
-87.2449
 30
0.000000
  70
    32
  0
VERTEX
  8
0
  5
2A3F
 10
0.0500000
 20
-87.2492
 30
0.000000
  70
    32
  0
VERTEX
  8
0
  5
2A40
 10
0.0500000
 20
-87.2535
 30
0.000000
  70
    32
  0
VERTEX
  8
0
  5
2A41
 10
0.0500000
 20
-87.2578
 30
0.000000
  70
    32
  0
VERTEX
  8
0
  5
2A42
 10
0.0500000
 20
-87.2621
 30
0.000000
  70
    32
  0
VERTEX
  8
0
  5
2A43
 10
0.0500000
 20
-87.2665
 30
0.000000
  70
    32
  0
VERTEX
  8
0
  5
2A44
 10
0.0500000
 20
-87.2708
 30
0.000000
  70
    32
  0
VERTEX
  8
0
  5
2A45
 10
0.0500000
 20
-87.2751
 30
0.000000
  70
    32
  0
VERTEX
  8
0
  5
2A46
 10
0.0500000
 20
-87.2795
 30
0.000000
  70
    32
  0
VERTEX
  8
0
  5
2A47
 10
0.0500000
 20
-87.2838
 30
0.000000
  70
    32
  0
VERTEX
  8
0
  5
2A48
 10
0.0500000
 20
-87.2882
 30
0.000000
  70
    32
  0
VERTEX
  8
0
  5
2A49
 10
0.0500000
 20
-87.2925
 30
0.000000
  70
    32
  0
VERTEX
  8
0
  5
2A4A
 10
0.0500000
 20
-87.2969
 30
0.000000
  70
    32
  0
VERTEX
  8
0
  5
2A4B
 10
0.0500000
 20
-87.3012
 30
0.000000
  70
    32
  0
VERTEX
  8
0
  5
2A4C
 10
0.0500000
 20
-87.3056
 30
0.000000
  70
    32
  0
VERTEX
  8
0
  5
2A4D
 10
0.0500000
 20
-87.3099
 30
0.000000
  70
    32
  0
VERTEX
  8
0
  5
2A4E
 10
0.0500000
 20
-87.3143
 30
0.000000
  70
    32
  0
VERTEX
  8
0
  5
2A4F
 10
0.0500000
 20
-87.3187
 30
0.000000
  70
    32
  0
VERTEX
  8
0
  5
2A50
 10
0.0500000
 20
-87.3230
 30
0.000000
  70
    32
  0
VERTEX
  8
0
  5
2A51
 10
0.0500000
 20
-87.3274
 30
0.000000
  70
    32
  0
VERTEX
  8
0
  5
2A52
 10
0.0500000
 20
-87.3318
 30
0.000000
  70
    32
  0
VERTEX
  8
0
  5
2A53
 10
0.0500000
 20
-87.3362
 30
0.000000
  70
    32
  0
VERTEX
  8
0
  5
2A54
 10
0.0500000
 20
-87.3405
 30
0.000000
  70
    32
  0
VERTEX
  8
0
  5
2A55
 10
0.0500000
 20
-87.3449
 30
0.000000
  70
    32
  0
VERTEX
  8
0
  5
2A56
 10
0.0500000
 20
-87.3493
 30
0.000000
  70
    32
  0
VERTEX
  8
0
  5
2A57
 10
0.0500000
 20
-87.3537
 30
0.000000
  70
    32
  0
VERTEX
  8
0
  5
2A58
 10
0.0500000
 20
-87.3580
 30
0.000000
  70
    32
  0
VERTEX
  8
0
  5
2A59
 10
0.0500000
 20
-87.3624
 30
0.000000
  70
    32
  0
VERTEX
  8
0
  5
2A5A
 10
0.0500000
 20
-87.3668
 30
0.000000
  70
    32
  0
VERTEX
  8
0
  5
2A5B
 10
0.0500000
 20
-87.3712
 30
0.000000
  70
    32
  0
VERTEX
  8
0
  5
2A5C
 10
0.0500000
 20
-87.3756
 30
0.000000
  70
    32
  0
VERTEX
  8
0
  5
2A5D
 10
0.0500000
 20
-87.3800
 30
0.000000
  70
    32
  0
VERTEX
  8
0
  5
2A5E
 10
0.0500000
 20
-87.3843
 30
0.000000
  70
    32
  0
VERTEX
  8
0
  5
2A5F
 10
0.0500000
 20
-87.3887
 30
0.000000
  70
    32
  0
VERTEX
  8
0
  5
2A60
 10
0.0500000
 20
-87.3931
 30
0.000000
  70
    32
  0
VERTEX
  8
0
  5
2A61
 10
0.0500000
 20
-87.3975
 30
0.000000
  70
    32
  0
VERTEX
  8
0
  5
2A62
 10
0.0500000
 20
-87.4019
 30
0.000000
  70
    32
  0
VERTEX
  8
0
  5
2A63
 10
0.0500000
 20
-87.4062
 30
0.000000
  70
    32
  0
VERTEX
  8
0
  5
2A64
 10
0.0500000
 20
-87.4106
 30
0.000000
  70
    32
  0
VERTEX
  8
0
  5
2A65
 10
0.0500000
 20
-87.4150
 30
0.000000
  70
    32
  0
VERTEX
  8
0
  5
2A66
 10
0.0500000
 20
-87.4194
 30
0.000000
  70
    32
  0
VERTEX
  8
0
  5
2A67
 10
0.0500000
 20
-87.4237
 30
0.000000
  70
    32
  0
VERTEX
  8
0
  5
2A68
 10
0.0500000
 20
-87.4281
 30
0.000000
  70
    32
  0
VERTEX
  8
0
  5
2A69
 10
0.0500000
 20
-87.4325
 30
0.000000
  70
    32
  0
VERTEX
  8
0
  5
2A6A
 10
0.0500000
 20
-87.4369
 30
0.000000
  70
    32
  0
VERTEX
  8
0
  5
2A6B
 10
0.0500000
 20
-87.4412
 30
0.000000
  70
    32
  0
VERTEX
  8
0
  5
2A6C
 10
0.0500000
 20
-87.4456
 30
0.000000
  70
    32
  0
VERTEX
  8
0
  5
2A6D
 10
0.0500000
 20
-87.4499
 30
0.000000
  70
    32
  0
VERTEX
  8
0
  5
2A6E
 10
0.0500000
 20
-87.4543
 30
0.000000
  70
    32
  0
VERTEX
  8
0
  5
2A6F
 10
0.0500000
 20
-87.4587
 30
0.000000
  70
    32
  0
VERTEX
  8
0
  5
2A70
 10
0.0500000
 20
-87.4630
 30
0.000000
  70
    32
  0
VERTEX
  8
0
  5
2A71
 10
0.0500000
 20
-87.4674
 30
0.000000
  70
    32
  0
VERTEX
  8
0
  5
2A72
 10
0.0500000
 20
-87.4717
 30
0.000000
  70
    32
  0
VERTEX
  8
0
  5
2A73
 10
0.0500000
 20
-87.4760
 30
0.000000
  70
    32
  0
VERTEX
  8
0
  5
2A74
 10
0.0500000
 20
-87.4804
 30
0.000000
  70
    32
  0
VERTEX
  8
0
  5
2A75
 10
0.0500000
 20
-87.4847
 30
0.000000
  70
    32
  0
VERTEX
  8
0
  5
2A76
 10
0.0500000
 20
-87.4890
 30
0.000000
  70
    32
  0
VERTEX
  8
0
  5
2A77
 10
0.0500000
 20
-87.4934
 30
0.000000
  70
    32
  0
VERTEX
  8
0
  5
2A78
 10
0.0500000
 20
-87.4977
 30
0.000000
  70
    32
  0
VERTEX
  8
0
  5
2A79
 10
0.0500000
 20
-87.5020
 30
0.000000
  70
    32
  0
VERTEX
  8
0
  5
2A7A
 10
0.0500000
 20
-87.5063
 30
0.000000
  70
    32
  0
VERTEX
  8
0
  5
2A7B
 10
0.0500000
 20
-87.5106
 30
0.000000
  70
    32
  0
VERTEX
  8
0
  5
2A7C
 10
0.0500000
 20
-87.5149
 30
0.000000
  70
    32
  0
VERTEX
  8
0
  5
2A7D
 10
0.0500000
 20
-87.5192
 30
0.000000
  70
    32
  0
VERTEX
  8
0
  5
2A7E
 10
0.0500000
 20
-87.5235
 30
0.000000
  70
    32
  0
VERTEX
  8
0
  5
2A7F
 10
0.0500000
 20
-87.5278
 30
0.000000
  70
    32
  0
VERTEX
  8
0
  5
2A80
 10
0.0500000
 20
-87.5321
 30
0.000000
  70
    32
  0
VERTEX
  8
0
  5
2A81
 10
0.0500000
 20
-87.5364
 30
0.000000
  70
    32
  0
VERTEX
  8
0
  5
2A82
 10
0.0500000
 20
-87.5406
 30
0.000000
  70
    32
  0
VERTEX
  8
0
  5
2A83
 10
0.0500000
 20
-87.5449
 30
0.000000
  70
    32
  0
VERTEX
  8
0
  5
2A84
 10
0.0500000
 20
-87.5491
 30
0.000000
  70
    32
  0
VERTEX
  8
0
  5
2A85
 10
0.0500000
 20
-87.5534
 30
0.000000
  70
    32
  0
VERTEX
  8
0
  5
2A86
 10
0.0500000
 20
-87.5576
 30
0.000000
  70
    32
  0
VERTEX
  8
0
  5
2A87
 10
0.0500000
 20
-87.5619
 30
0.000000
  70
    32
  0
VERTEX
  8
0
  5
2A88
 10
0.0500000
 20
-87.5661
 30
0.000000
  70
    32
  0
VERTEX
  8
0
  5
2A89
 10
0.0500000
 20
-87.5703
 30
0.000000
  70
    32
  0
VERTEX
  8
0
  5
2A8A
 10
0.0500000
 20
-87.5745
 30
0.000000
  70
    32
  0
VERTEX
  8
0
  5
2A8B
 10
0.0500000
 20
-87.5787
 30
0.000000
  70
    32
  0
VERTEX
  8
0
  5
2A8C
 10
0.0500000
 20
-87.5829
 30
0.000000
  70
    32
  0
VERTEX
  8
0
  5
2A8D
 10
0.0500000
 20
-87.5871
 30
0.000000
  70
    32
  0
VERTEX
  8
0
  5
2A8E
 10
0.0500000
 20
-87.5913
 30
0.000000
  70
    32
  0
VERTEX
  8
0
  5
2A8F
 10
0.0500000
 20
-87.5955
 30
0.000000
  70
    32
  0
VERTEX
  8
0
  5
2A90
 10
0.0500000
 20
-87.5997
 30
0.000000
  70
    32
  0
VERTEX
  8
0
  5
2A91
 10
0.0500000
 20
-87.6038
 30
0.000000
  70
    32
  0
VERTEX
  8
0
  5
2A92
 10
0.0500000
 20
-87.6080
 30
0.000000
  70
    32
  0
VERTEX
  8
0
  5
2A93
 10
0.0500000
 20
-87.6121
 30
0.000000
  70
    32
  0
VERTEX
  8
0
  5
2A94
 10
0.0500000
 20
-87.6163
 30
0.000000
  70
    32
  0
VERTEX
  8
0
  5
2A95
 10
0.0500000
 20
-87.6204
 30
0.000000
  70
    32
  0
VERTEX
  8
0
  5
2A96
 10
0.0500000
 20
-87.6245
 30
0.000000
  70
    32
  0
VERTEX
  8
0
  5
2A97
 10
0.0500000
 20
-87.6286
 30
0.000000
  70
    32
  0
VERTEX
  8
0
  5
2A98
 10
0.0500000
 20
-87.6327
 30
0.000000
  70
    32
  0
VERTEX
  8
0
  5
2A99
 10
0.0500000
 20
-87.6368
 30
0.000000
  70
    32
  0
VERTEX
  8
0
  5
2A9A
 10
0.0500000
 20
-87.6409
 30
0.000000
  70
    32
  0
VERTEX
  8
0
  5
2A9B
 10
0.0500000
 20
-87.6450
 30
0.000000
  70
    32
  0
VERTEX
  8
0
  5
2A9C
 10
0.0500000
 20
-87.6490
 30
0.000000
  70
    32
  0
VERTEX
  8
0
  5
2A9D
 10
0.0500000
 20
-87.6531
 30
0.000000
  70
    32
  0
VERTEX
  8
0
  5
2A9E
 10
0.0500000
 20
-87.6571
 30
0.000000
  70
    32
  0
VERTEX
  8
0
  5
2A9F
 10
0.0500000
 20
-87.6612
 30
0.000000
  70
    32
  0
VERTEX
  8
0
  5
2AA0
 10
0.0500000
 20
-87.6652
 30
0.000000
  70
    32
  0
VERTEX
  8
0
  5
2AA1
 10
0.0500000
 20
-87.6692
 30
0.000000
  70
    32
  0
VERTEX
  8
0
  5
2AA2
 10
0.0500000
 20
-87.6732
 30
0.000000
  70
    32
  0
VERTEX
  8
0
  5
2AA3
 10
0.0500000
 20
-87.6772
 30
0.000000
  70
    32
  0
VERTEX
  8
0
  5
2AA4
 10
0.0500000
 20
-87.6812
 30
0.000000
  70
    32
  0
VERTEX
  8
0
  5
2AA5
 10
0.0500000
 20
-87.6852
 30
0.000000
  70
    32
  0
VERTEX
  8
0
  5
2AA6
 10
0.0500000
 20
-87.6891
 30
0.000000
  70
    32
  0
VERTEX
  8
0
  5
2AA7
 10
0.0500000
 20
-87.6931
 30
0.000000
  70
    32
  0
VERTEX
  8
0
  5
2AA8
 10
0.0500000
 20
-87.6970
 30
0.000000
  70
    32
  0
VERTEX
  8
0
  5
2AA9
 10
0.0500000
 20
-87.7010
 30
0.000000
  70
    32
  0
VERTEX
  8
0
  5
2AAA
 10
0.0500000
 20
-87.7049
 30
0.000000
  70
    32
  0
VERTEX
  8
0
  5
2AAB
 10
0.0500000
 20
-87.7088
 30
0.000000
  70
    32
  0
VERTEX
  8
0
  5
2AAC
 10
0.0500000
 20
-87.7127
 30
0.000000
  70
    32
  0
VERTEX
  8
0
  5
2AAD
 10
0.0500000
 20
-87.7166
 30
0.000000
  70
    32
  0
VERTEX
  8
0
  5
2AAE
 10
0.0500000
 20
-87.7205
 30
0.000000
  70
    32
  0
VERTEX
  8
0
  5
2AAF
 10
0.0500000
 20
-87.7243
 30
0.000000
  70
    32
  0
VERTEX
  8
0
  5
2AB0
 10
0.0500000
 20
-87.7282
 30
0.000000
  70
    32
  0
VERTEX
  8
0
  5
2AB1
 10
0.0500000
 20
-87.7320
 30
0.000000
  70
    32
  0
VERTEX
  8
0
  5
2AB2
 10
0.0500000
 20
-87.7359
 30
0.000000
  70
    32
  0
VERTEX
  8
0
  5
2AB3
 10
0.0500000
 20
-87.7397
 30
0.000000
  70
    32
  0
VERTEX
  8
0
  5
2AB4
 10
0.0500000
 20
-87.7435
 30
0.000000
  70
    32
  0
VERTEX
  8
0
  5
2AB5
 10
0.0500000
 20
-87.7473
 30
0.000000
  70
    32
  0
VERTEX
  8
0
  5
2AB6
 10
0.0500000
 20
-87.7511
 30
0.000000
  70
    32
  0
VERTEX
  8
0
  5
2AB7
 10
0.0500000
 20
-87.7549
 30
0.000000
  70
    32
  0
VERTEX
  8
0
  5
2AB8
 10
0.0500000
 20
-87.7586
 30
0.000000
  70
    32
  0
VERTEX
  8
0
  5
2AB9
 10
0.0500000
 20
-87.7624
 30
0.000000
  70
    32
  0
VERTEX
  8
0
  5
2ABA
 10
0.0500000
 20
-87.7661
 30
0.000000
  70
    32
  0
VERTEX
  8
0
  5
2ABB
 10
0.0500000
 20
-87.7699
 30
0.000000
  70
    32
  0
VERTEX
  8
0
  5
2ABC
 10
0.0500000
 20
-87.7736
 30
0.000000
  70
    32
  0
VERTEX
  8
0
  5
2ABD
 10
0.0500000
 20
-87.7773
 30
0.000000
  70
    32
  0
VERTEX
  8
0
  5
2ABE
 10
0.0500000
 20
-87.7810
 30
0.000000
  70
    32
  0
VERTEX
  8
0
  5
2ABF
 10
0.0500000
 20
-87.7846
 30
0.000000
  70
    32
  0
VERTEX
  8
0
  5
2AC0
 10
0.0500000
 20
-87.7883
 30
0.000000
  70
    32
  0
VERTEX
  8
0
  5
2AC1
 10
0.0500000
 20
-87.7920
 30
0.000000
  70
    32
  0
VERTEX
  8
0
  5
2AC2
 10
0.0500000
 20
-87.7956
 30
0.000000
  70
    32
  0
VERTEX
  8
0
  5
2AC3
 10
0.0500000
 20
-87.7992
 30
0.000000
  70
    32
  0
VERTEX
  8
0
  5
2AC4
 10
0.0500000
 20
-87.8028
 30
0.000000
  70
    32
  0
VERTEX
  8
0
  5
2AC5
 10
0.0500000
 20
-87.8064
 30
0.000000
  70
    32
  0
VERTEX
  8
0
  5
2AC6
 10
0.0500000
 20
-87.8100
 30
0.000000
  70
    32
  0
VERTEX
  8
0
  5
2AC7
 10
0.0500000
 20
-87.8136
 30
0.000000
  70
    32
  0
VERTEX
  8
0
  5
2AC8
 10
0.0500000
 20
-87.8171
 30
0.000000
  70
    32
  0
VERTEX
  8
0
  5
2AC9
 10
0.0500000
 20
-87.8207
 30
0.000000
  70
    32
  0
VERTEX
  8
0
  5
2ACA
 10
0.0500000
 20
-87.8242
 30
0.000000
  70
    32
  0
VERTEX
  8
0
  5
2ACB
 10
0.0500000
 20
-87.8277
 30
0.000000
  70
    32
  0
VERTEX
  8
0
  5
2ACC
 10
0.0500000
 20
-87.8312
 30
0.000000
  70
    32
  0
VERTEX
  8
0
  5
2ACD
 10
0.0500000
 20
-87.8347
 30
0.000000
  70
    32
  0
VERTEX
  8
0
  5
2ACE
 10
0.0500000
 20
-87.8382
 30
0.000000
  70
    32
  0
VERTEX
  8
0
  5
2ACF
 10
0.0500000
 20
-87.8416
 30
0.000000
  70
    32
  0
VERTEX
  8
0
  5
2AD0
 10
0.0500000
 20
-87.8451
 30
0.000000
  70
    32
  0
VERTEX
  8
0
  5
2AD1
 10
0.0500000
 20
-87.8485
 30
0.000000
  70
    32
  0
VERTEX
  8
0
  5
2AD2
 10
0.0500000
 20
-87.8519
 30
0.000000
  70
    32
  0
VERTEX
  8
0
  5
2AD3
 10
0.0500000
 20
-87.8553
 30
0.000000
  70
    32
  0
VERTEX
  8
0
  5
2AD4
 10
0.0500000
 20
-87.8587
 30
0.000000
  70
    32
  0
VERTEX
  8
0
  5
2AD5
 10
0.0500000
 20
-87.8621
 30
0.000000
  70
    32
  0
VERTEX
  8
0
  5
2AD6
 10
0.0500000
 20
-87.8654
 30
0.000000
  70
    32
  0
VERTEX
  8
0
  5
2AD7
 10
0.0500000
 20
-87.8687
 30
0.000000
  70
    32
  0
VERTEX
  8
0
  5
2AD8
 10
0.0500000
 20
-87.8721
 30
0.000000
  70
    32
  0
VERTEX
  8
0
  5
2AD9
 10
0.0500000
 20
-87.8754
 30
0.000000
  70
    32
  0
VERTEX
  8
0
  5
2ADA
 10
0.0500000
 20
-87.8787
 30
0.000000
  70
    32
  0
SEQEND
  8
0
  5
2ADB
  0
LINE
  5
2572
  8
0
  6
CONTINUOUS
 62
     3
 10
0.0500000000000682
 20
-80.4999999999996589
 30
0.0
 11
0.0500000000000682
 21
-86.464451637260467
 31
0.0
  0
LINE
  5
2573
  8
0
  6
CONTINUOUS
 62
     3
 10
-0.0499999999997272
 20
-80.4999999999996589
 30
0.0
 11
0.0500000000000682
 21
-80.4999999999996589
 31
0.0
  0
ARC
  5
2574
  8
0
  6
CONTINUOUS
 62
     3
 10
0.0
 20
0.0
 30
0.0
 40
90.0000000000001137
 50
90.0318309902579301
 51
269.9681690097420983
  0
ARC
  5
2575
  8
0
  6
CONTINUOUS
 62
     3
 10
0.0
 20
0.0
 30
-0.0000000000000001
 40
89.2928932188135462
 50
90.0320830585959868
 51
269.9679169414039848
  0
ARC
  5
2576
  8
0
  6
CONTINUOUS
 62
     3
 10
0.0
 20
0.0
 30
-0.0000000000000001
 40
89.2928932188135605
 50
270.0320830585960152
 51
89.9679169414040274
  0
ARC
  5
2577
  8
0
  6
CONTINUOUS
 62
     3
 10
0.0
 20
0.0
 30
0.0
 40
90.0000000000001137
 50
270.0318309902579017
 51
89.9681690097420841
  0
ENDBLK
  5
24F8
  8
0
  0
BLOCK
  8
0
  2
A$C1D1F714B
 70
     0
 10
0.0
 20
0.0
 30
0.0
  3
A$C1D1F714B
  1

  0
POLYLINE
  8
0
  5
2ADC
  62
3
  66
     1
 10
0.000000
 20
0.000000
 30
0.000000
  70
     8
  0
VERTEX
  8
0
  5
2ADD
 10
-0.0500000
 20
-2.95610e-12
 30
0.000000
  70
    32
  0
VERTEX
  8
0
  5
2ADE
 10
-0.0500000
 20
8.62083e-06
 30
0.000000
  70
    32
  0
VERTEX
  8
0
  5
2ADF
 10
-0.0500000
 20
3.45058e-05
 30
0.000000
  70
    32
  0
VERTEX
  8
0
  5
2AE0
 10
-0.0500000
 20
7.76887e-05
 30
0.000000
  70
    32
  0
VERTEX
  8
0
  5
2AE1
 10
-0.0500000
 20
0.000138203
 30
0.000000
  70
    32
  0
VERTEX
  8
0
  5
2AE2
 10
-0.0500000
 20
0.000216083
 30
0.000000
  70
    32
  0
VERTEX
  8
0
  5
2AE3
 10
-0.0500000
 20
0.000311362
 30
0.000000
  70
    32
  0
VERTEX
  8
0
  5
2AE4
 10
-0.0500000
 20
0.000424073
 30
0.000000
  70
    32
  0
VERTEX
  8
0
  5
2AE5
 10
-0.0500000
 20
0.000554251
 30
0.000000
  70
    32
  0
VERTEX
  8
0
  5
2AE6
 10
-0.0500000
 20
0.000701930
 30
0.000000
  70
    32
  0
VERTEX
  8
0
  5
2AE7
 10
-0.0500000
 20
0.000867142
 30
0.000000
  70
    32
  0
VERTEX
  8
0
  5
2AE8
 10
-0.0500000
 20
0.00104992
 30
0.000000
  70
    32
  0
VERTEX
  8
0
  5
2AE9
 10
-0.0500000
 20
0.00125030
 30
0.000000
  70
    32
  0
VERTEX
  8
0
  5
2AEA
 10
-0.0500000
 20
0.00146832
 30
0.000000
  70
    32
  0
VERTEX
  8
0
  5
2AEB
 10
-0.0500000
 20
0.00170400
 30
0.000000
  70
    32
  0
VERTEX
  8
0
  5
2AEC
 10
-0.0500000
 20
0.00195739
 30
0.000000
  70
    32
  0
VERTEX
  8
0
  5
2AED
 10
-0.0500000
 20
0.00222852
 30
0.000000
  70
    32
  0
VERTEX
  8
0
  5
2AEE
 10
-0.0500000
 20
0.00251741
 30
0.000000
  70
    32
  0
VERTEX
  8
0
  5
2AEF
 10
-0.0500000
 20
0.00282411
 30
0.000000
  70
    32
  0
VERTEX
  8
0
  5
2AF0
 10
-0.0500000
 20
0.00314864
 30
0.000000
  70
    32
  0
VERTEX
  8
0
  5
2AF1
 10
-0.0500000
 20
0.00349105
 30
0.000000
  70
    32
  0
VERTEX
  8
0
  5
2AF2
 10
-0.0500000
 20
0.00385136
 30
0.000000
  70
    32
  0
VERTEX
  8
0
  5
2AF3
 10
-0.0500000
 20
0.00422961
 30
0.000000
  70
    32
  0
VERTEX
  8
0
  5
2AF4
 10
-0.0500000
 20
0.00462583
 30
0.000000
  70
    32
  0
VERTEX
  8
0
  5
2AF5
 10
-0.0500000
 20
0.00504006
 30
0.000000
  70
    32
  0
VERTEX
  8
0
  5
2AF6
 10
-0.0500000
 20
0.00547233
 30
0.000000
  70
    32
  0
VERTEX
  8
0
  5
2AF7
 10
-0.0500000
 20
0.00592267
 30
0.000000
  70
    32
  0
VERTEX
  8
0
  5
2AF8
 10
-0.0500000
 20
0.00639112
 30
0.000000
  70
    32
  0
VERTEX
  8
0
  5
2AF9
 10
-0.0500000
 20
0.00687771
 30
0.000000
  70
    32
  0
VERTEX
  8
0
  5
2AFA
 10
-0.0500000
 20
0.00738247
 30
0.000000
  70
    32
  0
VERTEX
  8
0
  5
2AFB
 10
-0.0500000
 20
0.00790545
 30
0.000000
  70
    32
  0
VERTEX
  8
0
  5
2AFC
 10
-0.0500000
 20
0.00844666
 30
0.000000
  70
    32
  0
VERTEX
  8
0
  5
2AFD
 10
-0.0500000
 20
0.00900615
 30
0.000000
  70
    32
  0
VERTEX
  8
0
  5
2AFE
 10
-0.0500000
 20
0.00958395
 30
0.000000
  70
    32
  0
VERTEX
  8
0
  5
2AFF
 10
-0.0500000
 20
0.0101801
 30
0.000000
  70
    32
  0
VERTEX
  8
0
  5
2B00
 10
-0.0500000
 20
0.0107946
 30
0.000000
  70
    32
  0
VERTEX
  8
0
  5
2B01
 10
-0.0500000
 20
0.0114276
 30
0.000000
  70
    32
  0
VERTEX
  8
0
  5
2B02
 10
-0.0500000
 20
0.0120789
 30
0.000000
  70
    32
  0
VERTEX
  8
0
  5
2B03
 10
-0.0500000
 20
0.0127488
 30
0.000000
  70
    32
  0
VERTEX
  8
0
  5
2B04
 10
-0.0500000
 20
0.0134371
 30
0.000000
  70
    32
  0
VERTEX
  8
0
  5
2B05
 10
-0.0500000
 20
0.0141441
 30
0.000000
  70
    32
  0
VERTEX
  8
0
  5
2B06
 10
-0.0500000
 20
0.0148696
 30
0.000000
  70
    32
  0
VERTEX
  8
0
  5
2B07
 10
-0.0500000
 20
0.0156137
 30
0.000000
  70
    32
  0
VERTEX
  8
0
  5
2B08
 10
-0.0500000
 20
0.0163764
 30
0.000000
  70
    32
  0
VERTEX
  8
0
  5
2B09
 10
-0.0500000
 20
0.0171578
 30
0.000000
  70
    32
  0
VERTEX
  8
0
  5
2B0A
 10
-0.0500000
 20
0.0179580
 30
0.000000
  70
    32
  0
VERTEX
  8
0
  5
2B0B
 10
-0.0500000
 20
0.0187769
 30
0.000000
  70
    32
  0
VERTEX
  8
0
  5
2B0C
 10
-0.0500000
 20
0.0196146
 30
0.000000
  70
    32
  0
VERTEX
  8
0
  5
2B0D
 10
-0.0500000
 20
0.0204710
 30
0.000000
  70
    32
  0
VERTEX
  8
0
  5
2B0E
 10
-0.0500000
 20
0.0213464
 30
0.000000
  70
    32
  0
VERTEX
  8
0
  5
2B0F
 10
-0.0500000
 20
0.0222406
 30
0.000000
  70
    32
  0
VERTEX
  8
0
  5
2B10
 10
-0.0500000
 20
0.0231537
 30
0.000000
  70
    32
  0
VERTEX
  8
0
  5
2B11
 10
-0.0500000
 20
0.0240858
 30
0.000000
  70
    32
  0
VERTEX
  8
0
  5
2B12
 10
-0.0500000
 20
0.0250369
 30
0.000000
  70
    32
  0
VERTEX
  8
0
  5
2B13
 10
-0.0500000
 20
0.0260070
 30
0.000000
  70
    32
  0
VERTEX
  8
0
  5
2B14
 10
-0.0500000
 20
0.0269961
 30
0.000000
  70
    32
  0
VERTEX
  8
0
  5
2B15
 10
-0.0500000
 20
0.0280044
 30
0.000000
  70
    32
  0
VERTEX
  8
0
  5
2B16
 10
-0.0500000
 20
0.0290317
 30
0.000000
  70
    32
  0
VERTEX
  8
0
  5
2B17
 10
-0.0500000
 20
0.0300782
 30
0.000000
  70
    32
  0
VERTEX
  8
0
  5
2B18
 10
-0.0500000
 20
0.0311439
 30
0.000000
  70
    32
  0
VERTEX
  8
0
  5
2B19
 10
-0.0500000
 20
0.0322288
 30
0.000000
  70
    32
  0
VERTEX
  8
0
  5
2B1A
 10
-0.0500000
 20
0.0333330
 30
0.000000
  70
    32
  0
VERTEX
  8
0
  5
2B1B
 10
-0.0500000
 20
0.0344564
 30
0.000000
  70
    32
  0
VERTEX
  8
0
  5
2B1C
 10
-0.0500000
 20
0.0355992
 30
0.000000
  70
    32
  0
VERTEX
  8
0
  5
2B1D
 10
-0.0500000
 20
0.0367613
 30
0.000000
  70
    32
  0
VERTEX
  8
0
  5
2B1E
 10
-0.0500000
 20
0.0379428
 30
0.000000
  70
    32
  0
VERTEX
  8
0
  5
2B1F
 10
-0.0500000
 20
0.0391438
 30
0.000000
  70
    32
  0
VERTEX
  8
0
  5
2B20
 10
-0.0500000
 20
0.0403642
 30
0.000000
  70
    32
  0
VERTEX
  8
0
  5
2B21
 10
-0.0500000
 20
0.0416040
 30
0.000000
  70
    32
  0
VERTEX
  8
0
  5
2B22
 10
-0.0500000
 20
0.0428635
 30
0.000000
  70
    32
  0
VERTEX
  8
0
  5
2B23
 10
-0.0500000
 20
0.0441424
 30
0.000000
  70
    32
  0
VERTEX
  8
0
  5
2B24
 10
-0.0500000
 20
0.0454410
 30
0.000000
  70
    32
  0
VERTEX
  8
0
  5
2B25
 10
-0.0500000
 20
0.0467591
 30
0.000000
  70
    32
  0
VERTEX
  8
0
  5
2B26
 10
-0.0500000
 20
0.0480970
 30
0.000000
  70
    32
  0
VERTEX
  8
0
  5
2B27
 10
-0.0500000
 20
0.0494545
 30
0.000000
  70
    32
  0
VERTEX
  8
0
  5
2B28
 10
-0.0500000
 20
0.0508318
 30
0.000000
  70
    32
  0
VERTEX
  8
0
  5
2B29
 10
-0.0500000
 20
0.0522288
 30
0.000000
  70
    32
  0
VERTEX
  8
0
  5
2B2A
 10
-0.0500000
 20
0.0536456
 30
0.000000
  70
    32
  0
VERTEX
  8
0
  5
2B2B
 10
-0.0500000
 20
0.0550822
 30
0.000000
  70
    32
  0
VERTEX
  8
0
  5
2B2C
 10
-0.0500000
 20
0.0565387
 30
0.000000
  70
    32
  0
VERTEX
  8
0
  5
2B2D
 10
-0.0500000
 20
0.0580151
 30
-1.54014e-24
  70
    32
  0
VERTEX
  8
0
  5
2B2E
 10
-0.0500000
 20
0.0595114
 30
-1.92531e-22
  70
    32
  0
VERTEX
  8
0
  5
2B2F
 10
-0.0500000
 20
0.0610274
 30
-1.12285e-21
  70
    32
  0
VERTEX
  8
0
  5
2B30
 10
-0.0500000
 20
0.0625631
 30
-3.38396e-21
  70
    32
  0
VERTEX
  8
0
  5
2B31
 10
-0.0500000
 20
0.0641182
 30
-7.56733e-21
  70
    32
  0
VERTEX
  8
0
  5
2B32
 10
-0.0500000
 20
0.0656928
 30
-1.42644e-20
  70
    32
  0
VERTEX
  8
0
  5
2B33
 10
-0.0500000
 20
0.0672866
 30
-2.40667e-20
  70
    32
  0
VERTEX
  8
0
  5
2B34
 10
-0.0500000
 20
0.0688995
 30
-3.75656e-20
  70
    32
  0
VERTEX
  8
0
  5
2B35
 10
-0.0500000
 20
0.0705314
 30
-5.53527e-20
  70
    32
  0
VERTEX
  8
0
  5
2B36
 10
-0.0500000
 20
0.0721822
 30
-7.80193e-20
  70
    32
  0
VERTEX
  8
0
  5
2B37
 10
-0.0500000
 20
0.0738517
 30
-1.06157e-19
  70
    32
  0
VERTEX
  8
0
  5
2B38
 10
-0.0500000
 20
0.0755399
 30
-1.40357e-19
  70
    32
  0
VERTEX
  8
0
  5
2B39
 10
-0.0500000
 20
0.0772465
 30
-1.81211e-19
  70
    32
  0
VERTEX
  8
0
  5
2B3A
 10
-0.0500000
 20
0.0789715
 30
-2.29311e-19
  70
    32
  0
VERTEX
  8
0
  5
2B3B
 10
-0.0500000
 20
0.0807147
 30
-2.85247e-19
  70
    32
  0
VERTEX
  8
0
  5
2B3C
 10
-0.0500000
 20
0.0824761
 30
-3.49612e-19
  70
    32
  0
VERTEX
  8
0
  5
2B3D
 10
-0.0500000
 20
0.0842554
 30
-4.22997e-19
  70
    32
  0
VERTEX
  8
0
  5
2B3E
 10
-0.0500000
 20
0.0860525
 30
-5.05993e-19
  70
    32
  0
VERTEX
  8
0
  5
2B3F
 10
-0.0500000
 20
0.0878674
 30
-5.99192e-19
  70
    32
  0
VERTEX
  8
0
  5
2B40
 10
-0.0500000
 20
0.0896999
 30
-7.03185e-19
  70
    32
  0
VERTEX
  8
0
  5
2B41
 10
-0.0500000
 20
0.0915498
 30
-8.18564e-19
  70
    32
  0
VERTEX
  8
0
  5
2B42
 10
-0.0500000
 20
0.0934171
 30
-9.45920e-19
  70
    32
  0
VERTEX
  8
0
  5
2B43
 10
-0.0500000
 20
0.0953016
 30
-1.08584e-18
  70
    32
  0
VERTEX
  8
0
  5
2B44
 10
-0.0500000
 20
0.0972031
 30
-1.23893e-18
  70
    32
  0
VERTEX
  8
0
  5
2B45
 10
-0.0500000
 20
0.0991217
 30
-1.40576e-18
  70
    32
  0
VERTEX
  8
0
  5
2B46
 10
-0.0500000
 20
0.101057
 30
-1.58694e-18
  70
    32
  0
VERTEX
  8
0
  5
2B47
 10
-0.0500000
 20
0.103009
 30
-1.78306e-18
  70
    32
  0
VERTEX
  8
0
  5
2B48
 10
-0.0500000
 20
0.104978
 30
-1.99470e-18
  70
    32
  0
VERTEX
  8
0
  5
2B49
 10
-0.0500000
 20
0.106963
 30
-2.22245e-18
  70
    32
  0
VERTEX
  8
0
  5
2B4A
 10
-0.0500000
 20
0.108964
 30
-2.46692e-18
  70
    32
  0
VERTEX
  8
0
  5
2B4B
 10
-0.0500000
 20
0.110982
 30
-2.72869e-18
  70
    32
  0
VERTEX
  8
0
  5
2B4C
 10
-0.0500000
 20
0.113016
 30
-3.00834e-18
  70
    32
  0
VERTEX
  8
0
  5
2B4D
 10
-0.0500000
 20
0.115065
 30
-3.30649e-18
  70
    32
  0
VERTEX
  8
0
  5
2B4E
 10
-0.0500000
 20
0.117131
 30
-3.62370e-18
  70
    32
  0
VERTEX
  8
0
  5
2B4F
 10
-0.0500000
 20
0.119212
 30
-3.96058e-18
  70
    32
  0
VERTEX
  8
0
  5
2B50
 10
-0.0500000
 20
0.121308
 30
-4.31772e-18
  70
    32
  0
VERTEX
  8
0
  5
2B51
 10
-0.0500000
 20
0.123421
 30
-4.69571e-18
  70
    32
  0
VERTEX
  8
0
  5
2B52
 10
-0.0500000
 20
0.125548
 30
-5.09514e-18
  70
    32
  0
VERTEX
  8
0
  5
2B53
 10
-0.0500000
 20
0.127691
 30
-5.51661e-18
  70
    32
  0
VERTEX
  8
0
  5
2B54
 10
-0.0500000
 20
0.129848
 30
-5.96069e-18
  70
    32
  0
VERTEX
  8
0
  5
2B55
 10
-0.0500000
 20
0.132021
 30
-6.42799e-18
  70
    32
  0
VERTEX
  8
0
  5
2B56
 10
-0.0500000
 20
0.134208
 30
-6.91910e-18
  70
    32
  0
VERTEX
  8
0
  5
2B57
 10
-0.0500000
 20
0.136410
 30
-7.43460e-18
  70
    32
  0
VERTEX
  8
0
  5
2B58
 10
-0.0500000
 20
0.138627
 30
-7.97510e-18
  70
    32
  0
VERTEX
  8
0
  5
2B59
 10
-0.0500000
 20
0.140858
 30
-8.54117e-18
  70
    32
  0
VERTEX
  8
0
  5
2B5A
 10
-0.0500000
 20
0.143103
 30
-9.13342e-18
  70
    32
  0
VERTEX
  8
0
  5
2B5B
 10
-0.0500000
 20
0.145362
 30
-9.75243e-18
  70
    32
  0
VERTEX
  8
0
  5
2B5C
 10
-0.0500000
 20
0.147636
 30
-1.03988e-17
  70
    32
  0
VERTEX
  8
0
  5
2B5D
 10
-0.0500000
 20
0.149923
 30
-1.10731e-17
  70
    32
  0
VERTEX
  8
0
  5
2B5E
 10
-0.0500000
 20
0.152224
 30
-1.17760e-17
  70
    32
  0
VERTEX
  8
0
  5
2B5F
 10
-0.0500000
 20
0.154539
 30
-1.25079e-17
  70
    32
  0
VERTEX
  8
0
  5
2B60
 10
-0.0500000
 20
0.156867
 30
-1.32696e-17
  70
    32
  0
VERTEX
  8
0
  5
2B61
 10
-0.0500000
 20
0.159209
 30
-1.40617e-17
  70
    32
  0
VERTEX
  8
0
  5
2B62
 10
-0.0500000
 20
0.161564
 30
-1.48846e-17
  70
    32
  0
VERTEX
  8
0
  5
2B63
 10
-0.0500000
 20
0.163932
 30
-1.57390e-17
  70
    32
  0
VERTEX
  8
0
  5
2B64
 10
-0.0500000
 20
0.166313
 30
-1.66255e-17
  70
    32
  0
VERTEX
  8
0
  5
2B65
 10
-0.0500000
 20
0.168707
 30
-1.75447e-17
  70
    32
  0
VERTEX
  8
0
  5
2B66
 10
-0.0500000
 20
0.171113
 30
-1.84971e-17
  70
    32
  0
VERTEX
  8
0
  5
2B67
 10
-0.0500000
 20
0.173533
 30
-1.94834e-17
  70
    32
  0
VERTEX
  8
0
  5
2B68
 10
-0.0500000
 20
0.175965
 30
-2.05042e-17
  70
    32
  0
VERTEX
  8
0
  5
2B69
 10
-0.0500000
 20
0.178409
 30
-2.15600e-17
  70
    32
  0
VERTEX
  8
0
  5
2B6A
 10
-0.0500000
 20
0.180865
 30
-2.26514e-17
  70
    32
  0
VERTEX
  8
0
  5
2B6B
 10
-0.0500000
 20
0.183334
 30
-2.37791e-17
  70
    32
  0
VERTEX
  8
0
  5
2B6C
 10
-0.0500000
 20
0.185814
 30
-2.49436e-17
  70
    32
  0
VERTEX
  8
0
  5
2B6D
 10
-0.0500000
 20
0.188307
 30
-2.61455e-17
  70
    32
  0
VERTEX
  8
0
  5
2B6E
 10
-0.0500000
 20
0.190811
 30
-2.73854e-17
  70
    32
  0
VERTEX
  8
0
  5
2B6F
 10
-0.0500000
 20
0.193327
 30
-2.86639e-17
  70
    32
  0
VERTEX
  8
0
  5
2B70
 10
-0.0500000
 20
0.195854
 30
-2.99816e-17
  70
    32
  0
VERTEX
  8
0
  5
2B71
 10
-0.0500000
 20
0.198393
 30
-3.13390e-17
  70
    32
  0
VERTEX
  8
0
  5
2B72
 10
-0.0500000
 20
0.200942
 30
-3.27369e-17
  70
    32
  0
VERTEX
  8
0
  5
2B73
 10
-0.0500000
 20
0.203503
 30
-3.41756e-17
  70
    32
  0
VERTEX
  8
0
  5
2B74
 10
-0.0500000
 20
0.206075
 30
-3.56560e-17
  70
    32
  0
VERTEX
  8
0
  5
2B75
 10
-0.0500000
 20
0.208658
 30
-3.71784e-17
  70
    32
  0
VERTEX
  8
0
  5
2B76
 10
-0.0500000
 20
0.211251
 30
-3.87437e-17
  70
    32
  0
VERTEX
  8
0
  5
2B77
 10
-0.0500000
 20
0.213856
 30
-4.03522e-17
  70
    32
  0
VERTEX
  8
0
  5
2B78
 10
-0.0500000
 20
0.216470
 30
-4.20046e-17
  70
    32
  0
VERTEX
  8
0
  5
2B79
 10
-0.0500000
 20
0.219095
 30
-4.37016e-17
  70
    32
  0
VERTEX
  8
0
  5
2B7A
 10
-0.0500000
 20
0.221730
 30
-4.54436e-17
  70
    32
  0
VERTEX
  8
0
  5
2B7B
 10
-0.0500000
 20
0.224375
 30
-4.72314e-17
  70
    32
  0
VERTEX
  8
0
  5
2B7C
 10
-0.0500000
 20
0.227030
 30
-4.90654e-17
  70
    32
  0
VERTEX
  8
0
  5
2B7D
 10
-0.0500000
 20
0.229697
 30
-5.09345e-17
  70
    32
  0
VERTEX
  8
0
  5
2B7E
 10
-0.0500000
 20
0.232384
 30
-5.27686e-17
  70
    32
  0
VERTEX
  8
0
  5
2B7F
 10
-0.0500000
 20
0.235093
 30
-5.45563e-17
  70
    32
  0
VERTEX
  8
0
  5
2B80
 10
-0.0500000
 20
0.237823
 30
-5.62984e-17
  70
    32
  0
VERTEX
  8
0
  5
2B81
 10
-0.0500000
 20
0.240576
 30
-5.79953e-17
  70
    32
  0
VERTEX
  8
0
  5
2B82
 10
-0.0500000
 20
0.243351
 30
-5.96478e-17
  70
    32
  0
VERTEX
  8
0
  5
2B83
 10
-0.0500000
 20
0.246147
 30
-6.12563e-17
  70
    32
  0
VERTEX
  8
0
  5
2B84
 10
-0.0500000
 20
0.248965
 30
-6.28215e-17
  70
    32
  0
VERTEX
  8
0
  5
2B85
 10
-0.0500000
 20
0.251804
 30
-6.43440e-17
  70
    32
  0
VERTEX
  8
0
  5
2B86
 10
-0.0500000
 20
0.254665
 30
-6.58243e-17
  70
    32
  0
VERTEX
  8
0
  5
2B87
 10
-0.0500000
 20
0.257547
 30
-6.72631e-17
  70
    32
  0
VERTEX
  8
0
  5
2B88
 10
-0.0500000
 20
0.260451
 30
-6.86609e-17
  70
    32
  0
VERTEX
  8
0
  5
2B89
 10
-0.0500000
 20
0.263376
 30
-7.00184e-17
  70
    32
  0
VERTEX
  8
0
  5
2B8A
 10
-0.0500000
 20
0.266323
 30
-7.13361e-17
  70
    32
  0
VERTEX
  8
0
  5
2B8B
 10
-0.0500000
 20
0.269290
 30
-7.26146e-17
  70
    32
  0
VERTEX
  8
0
  5
2B8C
 10
-0.0500000
 20
0.272279
 30
-7.38545e-17
  70
    32
  0
VERTEX
  8
0
  5
2B8D
 10
-0.0500000
 20
0.275289
 30
-7.50564e-17
  70
    32
  0
VERTEX
  8
0
  5
2B8E
 10
-0.0500000
 20
0.278320
 30
-7.62209e-17
  70
    32
  0
VERTEX
  8
0
  5
2B8F
 10
-0.0500000
 20
0.281372
 30
-7.73485e-17
  70
    32
  0
VERTEX
  8
0
  5
2B90
 10
-0.0500000
 20
0.284444
 30
-7.84400e-17
  70
    32
  0
VERTEX
  8
0
  5
2B91
 10
-0.0500000
 20
0.287538
 30
-7.94958e-17
  70
    32
  0
VERTEX
  8
0
  5
2B92
 10
-0.0500000
 20
0.290652
 30
-8.05165e-17
  70
    32
  0
VERTEX
  8
0
  5
2B93
 10
-0.0500000
 20
0.293787
 30
-8.15029e-17
  70
    32
  0
VERTEX
  8
0
  5
2B94
 10
-0.0500000
 20
0.296942
 30
-8.24553e-17
  70
    32
  0
VERTEX
  8
0
  5
2B95
 10
-0.0500000
 20
0.300118
 30
-8.33745e-17
  70
    32
  0
VERTEX
  8
0
  5
2B96
 10
-0.0500000
 20
0.303315
 30
-8.42610e-17
  70
    32
  0
VERTEX
  8
0
  5
2B97
 10
-0.0500000
 20
0.306531
 30
-8.51154e-17
  70
    32
  0
VERTEX
  8
0
  5
2B98
 10
-0.0500000
 20
0.309769
 30
-8.59383e-17
  70
    32
  0
VERTEX
  8
0
  5
2B99
 10
-0.0500000
 20
0.313026
 30
-8.67303e-17
  70
    32
  0
VERTEX
  8
0
  5
2B9A
 10
-0.0500000
 20
0.316304
 30
-8.74920e-17
  70
    32
  0
VERTEX
  8
0
  5
2B9B
 10
-0.0500000
 20
0.319602
 30
-8.82240e-17
  70
    32
  0
VERTEX
  8
0
  5
2B9C
 10
-0.0500000
 20
0.322920
 30
-8.89269e-17
  70
    32
  0
VERTEX
  8
0
  5
2B9D
 10
-0.0500000
 20
0.326258
 30
-8.96012e-17
  70
    32
  0
VERTEX
  8
0
  5
2B9E
 10
-0.0500000
 20
0.329616
 30
-9.02476e-17
  70
    32
  0
VERTEX
  8
0
  5
2B9F
 10
-0.0500000
 20
0.332994
 30
-9.08666e-17
  70
    32
  0
VERTEX
  8
0
  5
2BA0
 10
-0.0500000
 20
0.336392
 30
-9.14588e-17
  70
    32
  0
VERTEX
  8
0
  5
2BA1
 10
-0.0500000
 20
0.339809
 30
-9.20249e-17
  70
    32
  0
VERTEX
  8
0
  5
2BA2
 10
-0.0500000
 20
0.343246
 30
-9.25654e-17
  70
    32
  0
VERTEX
  8
0
  5
2BA3
 10
-0.0500000
 20
0.346703
 30
-9.30809e-17
  70
    32
  0
VERTEX
  8
0
  5
2BA4
 10
-0.0500000
 20
0.350180
 30
-9.35720e-17
  70
    32
  0
VERTEX
  8
0
  5
2BA5
 10
-0.0500000
 20
0.353675
 30
-9.40393e-17
  70
    32
  0
VERTEX
  8
0
  5
2BA6
 10
-0.0500000
 20
0.357191
 30
-9.44834e-17
  70
    32
  0
VERTEX
  8
0
  5
2BA7
 10
-0.0500000
 20
0.360726
 30
-9.49048e-17
  70
    32
  0
VERTEX
  8
0
  5
2BA8
 10
-0.0500000
 20
0.364280
 30
-9.53043e-17
  70
    32
  0
VERTEX
  8
0
  5
2BA9
 10
-0.0500000
 20
0.367853
 30
-9.56823e-17
  70
    32
  0
VERTEX
  8
0
  5
2BAA
 10
-0.0500000
 20
0.371445
 30
-9.60394e-17
  70
    32
  0
VERTEX
  8
0
  5
2BAB
 10
-0.0500000
 20
0.375057
 30
-9.63763e-17
  70
    32
  0
VERTEX
  8
0
  5
2BAC
 10
-0.0500000
 20
0.378687
 30
-9.66935e-17
  70
    32
  0
VERTEX
  8
0
  5
2BAD
 10
-0.0500000
 20
0.382337
 30
-9.69916e-17
  70
    32
  0
VERTEX
  8
0
  5
2BAE
 10
-0.0500000
 20
0.386006
 30
-9.72713e-17
  70
    32
  0
VERTEX
  8
0
  5
2BAF
 10
-0.0500000
 20
0.389693
 30
-9.75331e-17
  70
    32
  0
VERTEX
  8
0
  5
2BB0
 10
-0.0500000
 20
0.393399
 30
-9.77775e-17
  70
    32
  0
VERTEX
  8
0
  5
2BB1
 10
-0.0500000
 20
0.397124
 30
-9.80053e-17
  70
    32
  0
VERTEX
  8
0
  5
2BB2
 10
-0.0500000
 20
0.400868
 30
-9.82169e-17
  70
    32
  0
VERTEX
  8
0
  5
2BB3
 10
-0.0500000
 20
0.404630
 30
-9.84131e-17
  70
    32
  0
VERTEX
  8
0
  5
2BB4
 10
-0.0500000
 20
0.408411
 30
-9.85942e-17
  70
    32
  0
VERTEX
  8
0
  5
2BB5
 10
-0.0500000
 20
0.412210
 30
-9.87611e-17
  70
    32
  0
VERTEX
  8
0
  5
2BB6
 10
-0.0500000
 20
0.416027
 30
-9.89142e-17
  70
    32
  0
VERTEX
  8
0
  5
2BB7
 10
-0.0500000
 20
0.419863
 30
-9.90541e-17
  70
    32
  0
VERTEX
  8
0
  5
2BB8
 10
-0.0500000
 20
0.423717
 30
-9.91814e-17
  70
    32
  0
VERTEX
  8
0
  5
2BB9
 10
-0.0500000
 20
0.427590
 30
-9.92968e-17
  70
    32
  0
VERTEX
  8
0
  5
2BBA
 10
-0.0500000
 20
0.431480
 30
-9.94008e-17
  70
    32
  0
VERTEX
  8
0
  5
2BBB
 10
-0.0500000
 20
0.435389
 30
-9.94940e-17
  70
    32
  0
VERTEX
  8
0
  5
2BBC
 10
-0.0500000
 20
0.439315
 30
-9.95770e-17
  70
    32
  0
VERTEX
  8
0
  5
2BBD
 10
-0.0500000
 20
0.443260
 30
-9.96504e-17
  70
    32
  0
VERTEX
  8
0
  5
2BBE
 10
-0.0500000
 20
0.447222
 30
-9.97148e-17
  70
    32
  0
VERTEX
  8
0
  5
2BBF
 10
-0.0500000
 20
0.451203
 30
-9.97707e-17
  70
    32
  0
VERTEX
  8
0
  5
2BC0
 10
-0.0500000
 20
0.455201
 30
-9.98188e-17
  70
    32
  0
VERTEX
  8
0
  5
2BC1
 10
-0.0500000
 20
0.459216
 30
-9.98596e-17
  70
    32
  0
VERTEX
  8
0
  5
2BC2
 10
-0.0500000
 20
0.463249
 30
-9.98938e-17
  70
    32
  0
VERTEX
  8
0
  5
2BC3
 10
-0.0500000
 20
0.467300
 30
-9.99220e-17
  70
    32
  0
VERTEX
  8
0
  5
2BC4
 10
-0.0500000
 20
0.471369
 30
-9.99446e-17
  70
    32
  0
VERTEX
  8
0
  5
2BC5
 10
-0.0500000
 20
0.475454
 30
-9.99624e-17
  70
    32
  0
VERTEX
  8
0
  5
2BC6
 10
-0.0500000
 20
0.479557
 30
-9.99759e-17
  70
    32
  0
VERTEX
  8
0
  5
2BC7
 10
-0.0500000
 20
0.483678
 30
-9.99857e-17
  70
    32
  0
VERTEX
  8
0
  5
2BC8
 10
-0.0500000
 20
0.487816
 30
-9.99924e-17
  70
    32
  0
VERTEX
  8
0
  5
2BC9
 10
-0.0500000
 20
0.491970
 30
-9.99966e-17
  70
    32
  0
VERTEX
  8
0
  5
2BCA
 10
-0.0500000
 20
0.496142
 30
-9.99989e-17
  70
    32
  0
VERTEX
  8
0
  5
2BCB
 10
-0.0500000
 20
0.500331
 30
-9.99998e-17
  70
    32
  0
VERTEX
  8
0
  5
2BCC
 10
-0.0500000
 20
0.504537
 30
-1.00000e-16
  70
    32
  0
VERTEX
  8
0
  5
2BCD
 10
-0.0500000
 20
0.508760
 30
-1.00026e-16
  70
    32
  0
VERTEX
  8
0
  5
2BCE
 10
-0.0500000
 20
0.512999
 30
-1.00142e-16
  70
    32
  0
VERTEX
  8
0
  5
2BCF
 10
-0.0500000
 20
0.517255
 30
-1.00349e-16
  70
    32
  0
VERTEX
  8
0
  5
2BD0
 10
-0.0500000
 20
0.521528
 30
-1.00643e-16
  70
    32
  0
VERTEX
  8
0
  5
2BD1
 10
-0.0500000
 20
0.525816
 30
-1.01022e-16
  70
    32
  0
VERTEX
  8
0
  5
2BD2
 10
-0.0500000
 20
0.530121
 30
-1.01485e-16
  70
    32
  0
VERTEX
  8
0
  5
2BD3
 10
-0.0500000
 20
0.534441
 30
-1.02028e-16
  70
    32
  0
VERTEX
  8
0
  5
2BD4
 10
-0.0500000
 20
0.538777
 30
-1.02650e-16
  70
    32
  0
VERTEX
  8
0
  5
2BD5
 10
-0.0500000
 20
0.543128
 30
-1.03347e-16
  70
    32
  0
VERTEX
  8
0
  5
2BD6
 10
-0.0500000
 20
0.547494
 30
-1.04119e-16
  70
    32
  0
VERTEX
  8
0
  5
2BD7
 10
-0.0500000
 20
0.551875
 30
-1.04961e-16
  70
    32
  0
VERTEX
  8
0
  5
2BD8
 10
-0.0500000
 20
0.556271
 30
-1.05873e-16
  70
    32
  0
VERTEX
  8
0
  5
2BD9
 10
-0.0500000
 20
0.560681
 30
-1.06851e-16
  70
    32
  0
VERTEX
  8
0
  5
2BDA
 10
-0.0500000
 20
0.565106
 30
-1.07893e-16
  70
    32
  0
VERTEX
  8
0
  5
2BDB
 10
-0.0500000
 20
0.569544
 30
-1.08997e-16
  70
    32
  0
VERTEX
  8
0
  5
2BDC
 10
-0.0500000
 20
0.573997
 30
-1.10160e-16
  70
    32
  0
VERTEX
  8
0
  5
2BDD
 10
-0.0500000
 20
0.578463
 30
-1.11381e-16
  70
    32
  0
VERTEX
  8
0
  5
2BDE
 10
-0.0500000
 20
0.582943
 30
-1.12656e-16
  70
    32
  0
VERTEX
  8
0
  5
2BDF
 10
-0.0500000
 20
0.587437
 30
-1.13984e-16
  70
    32
  0
VERTEX
  8
0
  5
2BE0
 10
-0.0500000
 20
0.591943
 30
-1.15361e-16
  70
    32
  0
VERTEX
  8
0
  5
2BE1
 10
-0.0500000
 20
0.596462
 30
-1.16787e-16
  70
    32
  0
VERTEX
  8
0
  5
2BE2
 10
-0.0500000
 20
0.600994
 30
-1.18257e-16
  70
    32
  0
VERTEX
  8
0
  5
2BE3
 10
-0.0500000
 20
0.605538
 30
-1.19770e-16
  70
    32
  0
VERTEX
  8
0
  5
2BE4
 10
-0.0500000
 20
0.610095
 30
-1.21324e-16
  70
    32
  0
VERTEX
  8
0
  5
2BE5
 10
-0.0500000
 20
0.614664
 30
-1.22916e-16
  70
    32
  0
VERTEX
  8
0
  5
2BE6
 10
-0.0500000
 20
0.619245
 30
-1.24544e-16
  70
    32
  0
VERTEX
  8
0
  5
2BE7
 10
-0.0500000
 20
0.623837
 30
-1.26205e-16
  70
    32
  0
VERTEX
  8
0
  5
2BE8
 10
-0.0500000
 20
0.628441
 30
-1.27897e-16
  70
    32
  0
VERTEX
  8
0
  5
2BE9
 10
-0.0500000
 20
0.633056
 30
-1.29618e-16
  70
    32
  0
VERTEX
  8
0
  5
2BEA
 10
-0.0500000
 20
0.637682
 30
-1.31365e-16
  70
    32
  0
VERTEX
  8
0
  5
2BEB
 10
-0.0500000
 20
0.642319
 30
-1.33137e-16
  70
    32
  0
VERTEX
  8
0
  5
2BEC
 10
-0.0500000
 20
0.646967
 30
-1.34929e-16
  70
    32
  0
VERTEX
  8
0
  5
2BED
 10
-0.0500000
 20
0.651626
 30
-1.36741e-16
  70
    32
  0
VERTEX
  8
0
  5
2BEE
 10
-0.0500000
 20
0.656294
 30
-1.38570e-16
  70
    32
  0
VERTEX
  8
0
  5
2BEF
 10
-0.0500000
 20
0.660973
 30
-1.40414e-16
  70
    32
  0
VERTEX
  8
0
  5
2BF0
 10
-0.0500000
 20
0.665661
 30
-1.42269e-16
  70
    32
  0
VERTEX
  8
0
  5
2BF1
 10
-0.0500000
 20
0.670360
 30
-1.44134e-16
  70
    32
  0
VERTEX
  8
0
  5
2BF2
 10
-0.0500000
 20
0.675067
 30
-1.46007e-16
  70
    32
  0
VERTEX
  8
0
  5
2BF3
 10
-0.0500000
 20
0.679784
 30
-1.47885e-16
  70
    32
  0
VERTEX
  8
0
  5
2BF4
 10
-0.0500000
 20
0.684511
 30
-1.49765e-16
  70
    32
  0
VERTEX
  8
0
  5
2BF5
 10
-0.0500000
 20
0.689246
 30
-1.51645e-16
  70
    32
  0
VERTEX
  8
0
  5
2BF6
 10
-0.0500000
 20
0.693989
 30
-1.53524e-16
  70
    32
  0
VERTEX
  8
0
  5
2BF7
 10
-0.0500000
 20
0.698741
 30
-1.55398e-16
  70
    32
  0
VERTEX
  8
0
  5
2BF8
 10
-0.0500000
 20
0.703502
 30
-1.57265e-16
  70
    32
  0
VERTEX
  8
0
  5
2BF9
 10
-0.0500000
 20
0.708270
 30
-1.59124e-16
  70
    32
  0
VERTEX
  8
0
  5
2BFA
 10
-0.0500000
 20
0.713046
 30
-1.60970e-16
  70
    32
  0
VERTEX
  8
0
  5
2BFB
 10
-0.0500000
 20
0.717830
 30
-1.62803e-16
  70
    32
  0
VERTEX
  8
0
  5
2BFC
 10
-0.0500000
 20
0.722622
 30
-1.64619e-16
  70
    32
  0
VERTEX
  8
0
  5
2BFD
 10
-0.0500000
 20
0.727420
 30
-1.66417e-16
  70
    32
  0
VERTEX
  8
0
  5
2BFE
 10
-0.0500000
 20
0.732226
 30
-1.68194e-16
  70
    32
  0
VERTEX
  8
0
  5
2BFF
 10
-0.0500000
 20
0.737039
 30
-1.69947e-16
  70
    32
  0
VERTEX
  8
0
  5
2C00
 10
-0.0500000
 20
0.741858
 30
-1.71675e-16
  70
    32
  0
VERTEX
  8
0
  5
2C01
 10
-0.0500000
 20
0.746684
 30
-1.73375e-16
  70
    32
  0
VERTEX
  8
0
  5
2C02
 10
-0.0500000
 20
0.751516
 30
-1.75044e-16
  70
    32
  0
VERTEX
  8
0
  5
2C03
 10
-0.0500000
 20
0.756354
 30
-1.76680e-16
  70
    32
  0
VERTEX
  8
0
  5
2C04
 10
-0.0500000
 20
0.761197
 30
-1.78281e-16
  70
    32
  0
VERTEX
  8
0
  5
2C05
 10
-0.0500000
 20
0.766047
 30
-1.79845e-16
  70
    32
  0
VERTEX
  8
0
  5
2C06
 10
-0.0500000
 20
0.770902
 30
-1.81369e-16
  70
    32
  0
VERTEX
  8
0
  5
2C07
 10
-0.0500000
 20
0.775762
 30
-1.82850e-16
  70
    32
  0
VERTEX
  8
0
  5
2C08
 10
-0.0500000
 20
0.780627
 30
-1.84287e-16
  70
    32
  0
VERTEX
  8
0
  5
2C09
 10
-0.0500000
 20
0.785497
 30
-1.85676e-16
  70
    32
  0
VERTEX
  8
0
  5
2C0A
 10
-0.0500000
 20
0.790372
 30
-1.87017e-16
  70
    32
  0
VERTEX
  8
0
  5
2C0B
 10
-0.0500000
 20
0.795251
 30
-1.88305e-16
  70
    32
  0
VERTEX
  8
0
  5
2C0C
 10
-0.0500000
 20
0.800134
 30
-1.89540e-16
  70
    32
  0
VERTEX
  8
0
  5
2C0D
 10
-0.0500000
 20
0.805022
 30
-1.90718e-16
  70
    32
  0
VERTEX
  8
0
  5
2C0E
 10
-0.0500000
 20
0.809913
 30
-1.91837e-16
  70
    32
  0
VERTEX
  8
0
  5
2C0F
 10
-0.0500000
 20
0.814808
 30
-1.92895e-16
  70
    32
  0
VERTEX
  8
0
  5
2C10
 10
-0.0500000
 20
0.819706
 30
-1.93889e-16
  70
    32
  0
VERTEX
  8
0
  5
2C11
 10
-0.0500000
 20
0.824608
 30
-1.94817e-16
  70
    32
  0
VERTEX
  8
0
  5
2C12
 10
-0.0500000
 20
0.829512
 30
-1.95677e-16
  70
    32
  0
VERTEX
  8
0
  5
2C13
 10
-0.0500000
 20
0.834420
 30
-1.96467e-16
  70
    32
  0
VERTEX
  8
0
  5
2C14
 10
-0.0500000
 20
0.839330
 30
-1.97183e-16
  70
    32
  0
VERTEX
  8
0
  5
2C15
 10
-0.0500000
 20
0.844242
 30
-1.97824e-16
  70
    32
  0
VERTEX
  8
0
  5
2C16
 10
-0.0500000
 20
0.849157
 30
-1.98387e-16
  70
    32
  0
VERTEX
  8
0
  5
2C17
 10
-0.0500000
 20
0.854073
 30
-1.98870e-16
  70
    32
  0
VERTEX
  8
0
  5
2C18
 10
-0.0500000
 20
0.858992
 30
-1.99271e-16
  70
    32
  0
VERTEX
  8
0
  5
2C19
 10
-0.0500000
 20
0.863912
 30
-1.99586e-16
  70
    32
  0
VERTEX
  8
0
  5
2C1A
 10
-0.0500000
 20
0.868833
 30
-1.99814e-16
  70
    32
  0
VERTEX
  8
0
  5
2C1B
 10
-0.0500000
 20
0.873756
 30
-1.99953e-16
  70
    32
  0
VERTEX
  8
0
  5
2C1C
 10
-0.0500000
 20
0.878680
 30
-2.00000e-16
  70
    32
  0
SEQEND
  8
0
  5
2C1D
  0
LINE
  5
2524
  8
0
  6
CONTINUOUS
 62
     3
 10
-0.0499999999998409
 20
2.2928932188102631
 30
-0.0000000000000005
 11
-0.0499999999998409
 21
2.9999999999968172
 31
-0.0000000000000007
210
0.0
220
1.0
230
-0.0000000000000002
  0
LINE
  5
2525
  8
0
  6
CONTINUOUS
 62
     3
 10
-0.0499999999998409
 20
0.8786796564374983
 30
-0.0000000000000002
 11
-0.0499999999998409
 21
2.2928932188103772
 31
-0.0000000000000005
210
0.0
220
1.0
230
-0.0000000000000002
  0
POLYLINE
  8
0
  5
2C1E
  62
3
  66
     1
 10
0.000000
 20
0.000000
 30
0.000000
  70
     8
  0
VERTEX
  8
0
  5
2C1F
 10
0.0500000
 20
0.878680
 30
-2.00000e-16
  70
    32
  0
VERTEX
  8
0
  5
2C20
 10
0.0500000
 20
0.873756
 30
-1.99953e-16
  70
    32
  0
VERTEX
  8
0
  5
2C21
 10
0.0500000
 20
0.868833
 30
-1.99814e-16
  70
    32
  0
VERTEX
  8
0
  5
2C22
 10
0.0500000
 20
0.863912
 30
-1.99586e-16
  70
    32
  0
VERTEX
  8
0
  5
2C23
 10
0.0500000
 20
0.858992
 30
-1.99271e-16
  70
    32
  0
VERTEX
  8
0
  5
2C24
 10
0.0500000
 20
0.854073
 30
-1.98870e-16
  70
    32
  0
VERTEX
  8
0
  5
2C25
 10
0.0500000
 20
0.849157
 30
-1.98387e-16
  70
    32
  0
VERTEX
  8
0
  5
2C26
 10
0.0500000
 20
0.844242
 30
-1.97824e-16
  70
    32
  0
VERTEX
  8
0
  5
2C27
 10
0.0500000
 20
0.839330
 30
-1.97183e-16
  70
    32
  0
VERTEX
  8
0
  5
2C28
 10
0.0500000
 20
0.834420
 30
-1.96467e-16
  70
    32
  0
VERTEX
  8
0
  5
2C29
 10
0.0500000
 20
0.829512
 30
-1.95677e-16
  70
    32
  0
VERTEX
  8
0
  5
2C2A
 10
0.0500000
 20
0.824608
 30
-1.94817e-16
  70
    32
  0
VERTEX
  8
0
  5
2C2B
 10
0.0500000
 20
0.819706
 30
-1.93889e-16
  70
    32
  0
VERTEX
  8
0
  5
2C2C
 10
0.0500000
 20
0.814808
 30
-1.92895e-16
  70
    32
  0
VERTEX
  8
0
  5
2C2D
 10
0.0500000
 20
0.809913
 30
-1.91837e-16
  70
    32
  0
VERTEX
  8
0
  5
2C2E
 10
0.0500000
 20
0.805022
 30
-1.90718e-16
  70
    32
  0
VERTEX
  8
0
  5
2C2F
 10
0.0500000
 20
0.800134
 30
-1.89540e-16
  70
    32
  0
VERTEX
  8
0
  5
2C30
 10
0.0500000
 20
0.795251
 30
-1.88305e-16
  70
    32
  0
VERTEX
  8
0
  5
2C31
 10
0.0500000
 20
0.790372
 30
-1.87017e-16
  70
    32
  0
VERTEX
  8
0
  5
2C32
 10
0.0500000
 20
0.785497
 30
-1.85676e-16
  70
    32
  0
VERTEX
  8
0
  5
2C33
 10
0.0500000
 20
0.780627
 30
-1.84287e-16
  70
    32
  0
VERTEX
  8
0
  5
2C34
 10
0.0500000
 20
0.775762
 30
-1.82850e-16
  70
    32
  0
VERTEX
  8
0
  5
2C35
 10
0.0500000
 20
0.770902
 30
-1.81369e-16
  70
    32
  0
VERTEX
  8
0
  5
2C36
 10
0.0500000
 20
0.766047
 30
-1.79845e-16
  70
    32
  0
VERTEX
  8
0
  5
2C37
 10
0.0500000
 20
0.761197
 30
-1.78281e-16
  70
    32
  0
VERTEX
  8
0
  5
2C38
 10
0.0500000
 20
0.756354
 30
-1.76680e-16
  70
    32
  0
VERTEX
  8
0
  5
2C39
 10
0.0500000
 20
0.751516
 30
-1.75044e-16
  70
    32
  0
VERTEX
  8
0
  5
2C3A
 10
0.0500000
 20
0.746684
 30
-1.73375e-16
  70
    32
  0
VERTEX
  8
0
  5
2C3B
 10
0.0500000
 20
0.741858
 30
-1.71675e-16
  70
    32
  0
VERTEX
  8
0
  5
2C3C
 10
0.0500000
 20
0.737039
 30
-1.69947e-16
  70
    32
  0
VERTEX
  8
0
  5
2C3D
 10
0.0500000
 20
0.732226
 30
-1.68194e-16
  70
    32
  0
VERTEX
  8
0
  5
2C3E
 10
0.0500000
 20
0.727420
 30
-1.66417e-16
  70
    32
  0
VERTEX
  8
0
  5
2C3F
 10
0.0500000
 20
0.722622
 30
-1.64619e-16
  70
    32
  0
VERTEX
  8
0
  5
2C40
 10
0.0500000
 20
0.717830
 30
-1.62803e-16
  70
    32
  0
VERTEX
  8
0
  5
2C41
 10
0.0500000
 20
0.713046
 30
-1.60970e-16
  70
    32
  0
VERTEX
  8
0
  5
2C42
 10
0.0500000
 20
0.708270
 30
-1.59124e-16
  70
    32
  0
VERTEX
  8
0
  5
2C43
 10
0.0500000
 20
0.703502
 30
-1.57265e-16
  70
    32
  0
VERTEX
  8
0
  5
2C44
 10
0.0500000
 20
0.698741
 30
-1.55398e-16
  70
    32
  0
VERTEX
  8
0
  5
2C45
 10
0.0500000
 20
0.693989
 30
-1.53524e-16
  70
    32
  0
VERTEX
  8
0
  5
2C46
 10
0.0500000
 20
0.689246
 30
-1.51645e-16
  70
    32
  0
VERTEX
  8
0
  5
2C47
 10
0.0500000
 20
0.684511
 30
-1.49765e-16
  70
    32
  0
VERTEX
  8
0
  5
2C48
 10
0.0500000
 20
0.679784
 30
-1.47885e-16
  70
    32
  0
VERTEX
  8
0
  5
2C49
 10
0.0500000
 20
0.675067
 30
-1.46007e-16
  70
    32
  0
VERTEX
  8
0
  5
2C4A
 10
0.0500000
 20
0.670360
 30
-1.44134e-16
  70
    32
  0
VERTEX
  8
0
  5
2C4B
 10
0.0500000
 20
0.665661
 30
-1.42269e-16
  70
    32
  0
VERTEX
  8
0
  5
2C4C
 10
0.0500000
 20
0.660973
 30
-1.40414e-16
  70
    32
  0
VERTEX
  8
0
  5
2C4D
 10
0.0500000
 20
0.656294
 30
-1.38570e-16
  70
    32
  0
VERTEX
  8
0
  5
2C4E
 10
0.0500000
 20
0.651626
 30
-1.36741e-16
  70
    32
  0
VERTEX
  8
0
  5
2C4F
 10
0.0500000
 20
0.646967
 30
-1.34929e-16
  70
    32
  0
VERTEX
  8
0
  5
2C50
 10
0.0500000
 20
0.642319
 30
-1.33137e-16
  70
    32
  0
VERTEX
  8
0
  5
2C51
 10
0.0500000
 20
0.637682
 30
-1.31365e-16
  70
    32
  0
VERTEX
  8
0
  5
2C52
 10
0.0500000
 20
0.633056
 30
-1.29618e-16
  70
    32
  0
VERTEX
  8
0
  5
2C53
 10
0.0500000
 20
0.628441
 30
-1.27897e-16
  70
    32
  0
VERTEX
  8
0
  5
2C54
 10
0.0500000
 20
0.623837
 30
-1.26205e-16
  70
    32
  0
VERTEX
  8
0
  5
2C55
 10
0.0500000
 20
0.619245
 30
-1.24544e-16
  70
    32
  0
VERTEX
  8
0
  5
2C56
 10
0.0500000
 20
0.614664
 30
-1.22916e-16
  70
    32
  0
VERTEX
  8
0
  5
2C57
 10
0.0500000
 20
0.610095
 30
-1.21324e-16
  70
    32
  0
VERTEX
  8
0
  5
2C58
 10
0.0500000
 20
0.605538
 30
-1.19770e-16
  70
    32
  0
VERTEX
  8
0
  5
2C59
 10
0.0500000
 20
0.600994
 30
-1.18257e-16
  70
    32
  0
VERTEX
  8
0
  5
2C5A
 10
0.0500000
 20
0.596462
 30
-1.16787e-16
  70
    32
  0
VERTEX
  8
0
  5
2C5B
 10
0.0500000
 20
0.591943
 30
-1.15361e-16
  70
    32
  0
VERTEX
  8
0
  5
2C5C
 10
0.0500000
 20
0.587437
 30
-1.13984e-16
  70
    32
  0
VERTEX
  8
0
  5
2C5D
 10
0.0500000
 20
0.582943
 30
-1.12656e-16
  70
    32
  0
VERTEX
  8
0
  5
2C5E
 10
0.0500000
 20
0.578463
 30
-1.11381e-16
  70
    32
  0
VERTEX
  8
0
  5
2C5F
 10
0.0500000
 20
0.573997
 30
-1.10160e-16
  70
    32
  0
VERTEX
  8
0
  5
2C60
 10
0.0500000
 20
0.569544
 30
-1.08997e-16
  70
    32
  0
VERTEX
  8
0
  5
2C61
 10
0.0500000
 20
0.565106
 30
-1.07893e-16
  70
    32
  0
VERTEX
  8
0
  5
2C62
 10
0.0500000
 20
0.560681
 30
-1.06851e-16
  70
    32
  0
VERTEX
  8
0
  5
2C63
 10
0.0500000
 20
0.556271
 30
-1.05873e-16
  70
    32
  0
VERTEX
  8
0
  5
2C64
 10
0.0500000
 20
0.551875
 30
-1.04961e-16
  70
    32
  0
VERTEX
  8
0
  5
2C65
 10
0.0500000
 20
0.547494
 30
-1.04119e-16
  70
    32
  0
VERTEX
  8
0
  5
2C66
 10
0.0500000
 20
0.543128
 30
-1.03347e-16
  70
    32
  0
VERTEX
  8
0
  5
2C67
 10
0.0500000
 20
0.538777
 30
-1.02650e-16
  70
    32
  0
VERTEX
  8
0
  5
2C68
 10
0.0500000
 20
0.534441
 30
-1.02028e-16
  70
    32
  0
VERTEX
  8
0
  5
2C69
 10
0.0500000
 20
0.530121
 30
-1.01485e-16
  70
    32
  0
VERTEX
  8
0
  5
2C6A
 10
0.0500000
 20
0.525816
 30
-1.01022e-16
  70
    32
  0
VERTEX
  8
0
  5
2C6B
 10
0.0500000
 20
0.521528
 30
-1.00643e-16
  70
    32
  0
VERTEX
  8
0
  5
2C6C
 10
0.0500000
 20
0.517255
 30
-1.00349e-16
  70
    32
  0
VERTEX
  8
0
  5
2C6D
 10
0.0500000
 20
0.512999
 30
-1.00142e-16
  70
    32
  0
VERTEX
  8
0
  5
2C6E
 10
0.0500000
 20
0.508760
 30
-1.00026e-16
  70
    32
  0
VERTEX
  8
0
  5
2C6F
 10
0.0500000
 20
0.504537
 30
-1.00000e-16
  70
    32
  0
VERTEX
  8
0
  5
2C70
 10
0.0500000
 20
0.500331
 30
-9.99998e-17
  70
    32
  0
VERTEX
  8
0
  5
2C71
 10
0.0500000
 20
0.496142
 30
-9.99989e-17
  70
    32
  0
VERTEX
  8
0
  5
2C72
 10
0.0500000
 20
0.491970
 30
-9.99966e-17
  70
    32
  0
VERTEX
  8
0
  5
2C73
 10
0.0500000
 20
0.487816
 30
-9.99924e-17
  70
    32
  0
VERTEX
  8
0
  5
2C74
 10
0.0500000
 20
0.483678
 30
-9.99857e-17
  70
    32
  0
VERTEX
  8
0
  5
2C75
 10
0.0500000
 20
0.479557
 30
-9.99759e-17
  70
    32
  0
VERTEX
  8
0
  5
2C76
 10
0.0500000
 20
0.475454
 30
-9.99624e-17
  70
    32
  0
VERTEX
  8
0
  5
2C77
 10
0.0500000
 20
0.471369
 30
-9.99446e-17
  70
    32
  0
VERTEX
  8
0
  5
2C78
 10
0.0500000
 20
0.467300
 30
-9.99220e-17
  70
    32
  0
VERTEX
  8
0
  5
2C79
 10
0.0500000
 20
0.463249
 30
-9.98938e-17
  70
    32
  0
VERTEX
  8
0
  5
2C7A
 10
0.0500000
 20
0.459216
 30
-9.98596e-17
  70
    32
  0
VERTEX
  8
0
  5
2C7B
 10
0.0500000
 20
0.455201
 30
-9.98188e-17
  70
    32
  0
VERTEX
  8
0
  5
2C7C
 10
0.0500000
 20
0.451203
 30
-9.97707e-17
  70
    32
  0
VERTEX
  8
0
  5
2C7D
 10
0.0500000
 20
0.447222
 30
-9.97148e-17
  70
    32
  0
VERTEX
  8
0
  5
2C7E
 10
0.0500000
 20
0.443260
 30
-9.96504e-17
  70
    32
  0
VERTEX
  8
0
  5
2C7F
 10
0.0500000
 20
0.439315
 30
-9.95770e-17
  70
    32
  0
VERTEX
  8
0
  5
2C80
 10
0.0500000
 20
0.435389
 30
-9.94940e-17
  70
    32
  0
VERTEX
  8
0
  5
2C81
 10
0.0500000
 20
0.431480
 30
-9.94008e-17
  70
    32
  0
VERTEX
  8
0
  5
2C82
 10
0.0500000
 20
0.427590
 30
-9.92968e-17
  70
    32
  0
VERTEX
  8
0
  5
2C83
 10
0.0500000
 20
0.423717
 30
-9.91814e-17
  70
    32
  0
VERTEX
  8
0
  5
2C84
 10
0.0500000
 20
0.419863
 30
-9.90541e-17
  70
    32
  0
VERTEX
  8
0
  5
2C85
 10
0.0500000
 20
0.416027
 30
-9.89142e-17
  70
    32
  0
VERTEX
  8
0
  5
2C86
 10
0.0500000
 20
0.412210
 30
-9.87611e-17
  70
    32
  0
VERTEX
  8
0
  5
2C87
 10
0.0500000
 20
0.408411
 30
-9.85942e-17
  70
    32
  0
VERTEX
  8
0
  5
2C88
 10
0.0500000
 20
0.404630
 30
-9.84131e-17
  70
    32
  0
VERTEX
  8
0
  5
2C89
 10
0.0500000
 20
0.400868
 30
-9.82169e-17
  70
    32
  0
VERTEX
  8
0
  5
2C8A
 10
0.0500000
 20
0.397124
 30
-9.80053e-17
  70
    32
  0
VERTEX
  8
0
  5
2C8B
 10
0.0500000
 20
0.393399
 30
-9.77775e-17
  70
    32
  0
VERTEX
  8
0
  5
2C8C
 10
0.0500000
 20
0.389693
 30
-9.75331e-17
  70
    32
  0
VERTEX
  8
0
  5
2C8D
 10
0.0500000
 20
0.386006
 30
-9.72713e-17
  70
    32
  0
VERTEX
  8
0
  5
2C8E
 10
0.0500000
 20
0.382337
 30
-9.69916e-17
  70
    32
  0
VERTEX
  8
0
  5
2C8F
 10
0.0500000
 20
0.378687
 30
-9.66935e-17
  70
    32
  0
VERTEX
  8
0
  5
2C90
 10
0.0500000
 20
0.375057
 30
-9.63763e-17
  70
    32
  0
VERTEX
  8
0
  5
2C91
 10
0.0500000
 20
0.371445
 30
-9.60394e-17
  70
    32
  0
VERTEX
  8
0
  5
2C92
 10
0.0500000
 20
0.367853
 30
-9.56823e-17
  70
    32
  0
VERTEX
  8
0
  5
2C93
 10
0.0500000
 20
0.364280
 30
-9.53043e-17
  70
    32
  0
VERTEX
  8
0
  5
2C94
 10
0.0500000
 20
0.360726
 30
-9.49048e-17
  70
    32
  0
VERTEX
  8
0
  5
2C95
 10
0.0500000
 20
0.357191
 30
-9.44834e-17
  70
    32
  0
VERTEX
  8
0
  5
2C96
 10
0.0500000
 20
0.353675
 30
-9.40393e-17
  70
    32
  0
VERTEX
  8
0
  5
2C97
 10
0.0500000
 20
0.350180
 30
-9.35720e-17
  70
    32
  0
VERTEX
  8
0
  5
2C98
 10
0.0500000
 20
0.346703
 30
-9.30809e-17
  70
    32
  0
VERTEX
  8
0
  5
2C99
 10
0.0500000
 20
0.343246
 30
-9.25654e-17
  70
    32
  0
VERTEX
  8
0
  5
2C9A
 10
0.0500000
 20
0.339809
 30
-9.20249e-17
  70
    32
  0
VERTEX
  8
0
  5
2C9B
 10
0.0500000
 20
0.336392
 30
-9.14588e-17
  70
    32
  0
VERTEX
  8
0
  5
2C9C
 10
0.0500000
 20
0.332994
 30
-9.08666e-17
  70
    32
  0
VERTEX
  8
0
  5
2C9D
 10
0.0500000
 20
0.329616
 30
-9.02476e-17
  70
    32
  0
VERTEX
  8
0
  5
2C9E
 10
0.0500000
 20
0.326258
 30
-8.96012e-17
  70
    32
  0
VERTEX
  8
0
  5
2C9F
 10
0.0500000
 20
0.322920
 30
-8.89269e-17
  70
    32
  0
VERTEX
  8
0
  5
2CA0
 10
0.0500000
 20
0.319602
 30
-8.82240e-17
  70
    32
  0
VERTEX
  8
0
  5
2CA1
 10
0.0500000
 20
0.316304
 30
-8.74920e-17
  70
    32
  0
VERTEX
  8
0
  5
2CA2
 10
0.0500000
 20
0.313026
 30
-8.67303e-17
  70
    32
  0
VERTEX
  8
0
  5
2CA3
 10
0.0500000
 20
0.309769
 30
-8.59383e-17
  70
    32
  0
VERTEX
  8
0
  5
2CA4
 10
0.0500000
 20
0.306531
 30
-8.51154e-17
  70
    32
  0
VERTEX
  8
0
  5
2CA5
 10
0.0500000
 20
0.303315
 30
-8.42610e-17
  70
    32
  0
VERTEX
  8
0
  5
2CA6
 10
0.0500000
 20
0.300118
 30
-8.33745e-17
  70
    32
  0
VERTEX
  8
0
  5
2CA7
 10
0.0500000
 20
0.296942
 30
-8.24553e-17
  70
    32
  0
VERTEX
  8
0
  5
2CA8
 10
0.0500000
 20
0.293787
 30
-8.15029e-17
  70
    32
  0
VERTEX
  8
0
  5
2CA9
 10
0.0500000
 20
0.290652
 30
-8.05165e-17
  70
    32
  0
VERTEX
  8
0
  5
2CAA
 10
0.0500000
 20
0.287538
 30
-7.94958e-17
  70
    32
  0
VERTEX
  8
0
  5
2CAB
 10
0.0500000
 20
0.284444
 30
-7.84400e-17
  70
    32
  0
VERTEX
  8
0
  5
2CAC
 10
0.0500000
 20
0.281372
 30
-7.73485e-17
  70
    32
  0
VERTEX
  8
0
  5
2CAD
 10
0.0500000
 20
0.278320
 30
-7.62209e-17
  70
    32
  0
VERTEX
  8
0
  5
2CAE
 10
0.0500000
 20
0.275289
 30
-7.50564e-17
  70
    32
  0
VERTEX
  8
0
  5
2CAF
 10
0.0500000
 20
0.272279
 30
-7.38545e-17
  70
    32
  0
VERTEX
  8
0
  5
2CB0
 10
0.0500000
 20
0.269290
 30
-7.26146e-17
  70
    32
  0
VERTEX
  8
0
  5
2CB1
 10
0.0500000
 20
0.266323
 30
-7.13361e-17
  70
    32
  0
VERTEX
  8
0
  5
2CB2
 10
0.0500000
 20
0.263376
 30
-7.00184e-17
  70
    32
  0
VERTEX
  8
0
  5
2CB3
 10
0.0500000
 20
0.260451
 30
-6.86609e-17
  70
    32
  0
VERTEX
  8
0
  5
2CB4
 10
0.0500000
 20
0.257547
 30
-6.72631e-17
  70
    32
  0
VERTEX
  8
0
  5
2CB5
 10
0.0500000
 20
0.254665
 30
-6.58243e-17
  70
    32
  0
VERTEX
  8
0
  5
2CB6
 10
0.0500000
 20
0.251804
 30
-6.43440e-17
  70
    32
  0
VERTEX
  8
0
  5
2CB7
 10
0.0500000
 20
0.248965
 30
-6.28215e-17
  70
    32
  0
VERTEX
  8
0
  5
2CB8
 10
0.0500000
 20
0.246147
 30
-6.12563e-17
  70
    32
  0
VERTEX
  8
0
  5
2CB9
 10
0.0500000
 20
0.243351
 30
-5.96478e-17
  70
    32
  0
VERTEX
  8
0
  5
2CBA
 10
0.0500000
 20
0.240576
 30
-5.79953e-17
  70
    32
  0
VERTEX
  8
0
  5
2CBB
 10
0.0500000
 20
0.237823
 30
-5.62984e-17
  70
    32
  0
VERTEX
  8
0
  5
2CBC
 10
0.0500000
 20
0.235093
 30
-5.45563e-17
  70
    32
  0
VERTEX
  8
0
  5
2CBD
 10
0.0500000
 20
0.232384
 30
-5.27686e-17
  70
    32
  0
VERTEX
  8
0
  5
2CBE
 10
0.0500000
 20
0.229697
 30
-5.09345e-17
  70
    32
  0
VERTEX
  8
0
  5
2CBF
 10
0.0500000
 20
0.227030
 30
-4.90654e-17
  70
    32
  0
VERTEX
  8
0
  5
2CC0
 10
0.0500000
 20
0.224375
 30
-4.72314e-17
  70
    32
  0
VERTEX
  8
0
  5
2CC1
 10
0.0500000
 20
0.221730
 30
-4.54436e-17
  70
    32
  0
VERTEX
  8
0
  5
2CC2
 10
0.0500000
 20
0.219095
 30
-4.37016e-17
  70
    32
  0
VERTEX
  8
0
  5
2CC3
 10
0.0500000
 20
0.216470
 30
-4.20046e-17
  70
    32
  0
VERTEX
  8
0
  5
2CC4
 10
0.0500000
 20
0.213856
 30
-4.03522e-17
  70
    32
  0
VERTEX
  8
0
  5
2CC5
 10
0.0500000
 20
0.211251
 30
-3.87437e-17
  70
    32
  0
VERTEX
  8
0
  5
2CC6
 10
0.0500000
 20
0.208658
 30
-3.71784e-17
  70
    32
  0
VERTEX
  8
0
  5
2CC7
 10
0.0500000
 20
0.206075
 30
-3.56560e-17
  70
    32
  0
VERTEX
  8
0
  5
2CC8
 10
0.0500000
 20
0.203503
 30
-3.41756e-17
  70
    32
  0
VERTEX
  8
0
  5
2CC9
 10
0.0500000
 20
0.200942
 30
-3.27369e-17
  70
    32
  0
VERTEX
  8
0
  5
2CCA
 10
0.0500000
 20
0.198393
 30
-3.13390e-17
  70
    32
  0
VERTEX
  8
0
  5
2CCB
 10
0.0500000
 20
0.195854
 30
-2.99816e-17
  70
    32
  0
VERTEX
  8
0
  5
2CCC
 10
0.0500000
 20
0.193327
 30
-2.86639e-17
  70
    32
  0
VERTEX
  8
0
  5
2CCD
 10
0.0500000
 20
0.190811
 30
-2.73854e-17
  70
    32
  0
VERTEX
  8
0
  5
2CCE
 10
0.0500000
 20
0.188307
 30
-2.61455e-17
  70
    32
  0
VERTEX
  8
0
  5
2CCF
 10
0.0500000
 20
0.185814
 30
-2.49436e-17
  70
    32
  0
VERTEX
  8
0
  5
2CD0
 10
0.0500000
 20
0.183334
 30
-2.37791e-17
  70
    32
  0
VERTEX
  8
0
  5
2CD1
 10
0.0500000
 20
0.180865
 30
-2.26514e-17
  70
    32
  0
VERTEX
  8
0
  5
2CD2
 10
0.0500000
 20
0.178409
 30
-2.15600e-17
  70
    32
  0
VERTEX
  8
0
  5
2CD3
 10
0.0500000
 20
0.175965
 30
-2.05042e-17
  70
    32
  0
VERTEX
  8
0
  5
2CD4
 10
0.0500000
 20
0.173533
 30
-1.94834e-17
  70
    32
  0
VERTEX
  8
0
  5
2CD5
 10
0.0500000
 20
0.171113
 30
-1.84971e-17
  70
    32
  0
VERTEX
  8
0
  5
2CD6
 10
0.0500000
 20
0.168707
 30
-1.75447e-17
  70
    32
  0
VERTEX
  8
0
  5
2CD7
 10
0.0500000
 20
0.166313
 30
-1.66255e-17
  70
    32
  0
VERTEX
  8
0
  5
2CD8
 10
0.0500000
 20
0.163932
 30
-1.57390e-17
  70
    32
  0
VERTEX
  8
0
  5
2CD9
 10
0.0500000
 20
0.161564
 30
-1.48846e-17
  70
    32
  0
VERTEX
  8
0
  5
2CDA
 10
0.0500000
 20
0.159209
 30
-1.40617e-17
  70
    32
  0
VERTEX
  8
0
  5
2CDB
 10
0.0500000
 20
0.156867
 30
-1.32696e-17
  70
    32
  0
VERTEX
  8
0
  5
2CDC
 10
0.0500000
 20
0.154539
 30
-1.25079e-17
  70
    32
  0
VERTEX
  8
0
  5
2CDD
 10
0.0500000
 20
0.152224
 30
-1.17760e-17
  70
    32
  0
VERTEX
  8
0
  5
2CDE
 10
0.0500000
 20
0.149923
 30
-1.10731e-17
  70
    32
  0
VERTEX
  8
0
  5
2CDF
 10
0.0500000
 20
0.147636
 30
-1.03988e-17
  70
    32
  0
VERTEX
  8
0
  5
2CE0
 10
0.0500000
 20
0.145362
 30
-9.75243e-18
  70
    32
  0
VERTEX
  8
0
  5
2CE1
 10
0.0500000
 20
0.143103
 30
-9.13342e-18
  70
    32
  0
VERTEX
  8
0
  5
2CE2
 10
0.0500000
 20
0.140858
 30
-8.54117e-18
  70
    32
  0
VERTEX
  8
0
  5
2CE3
 10
0.0500000
 20
0.138627
 30
-7.97510e-18
  70
    32
  0
VERTEX
  8
0
  5
2CE4
 10
0.0500000
 20
0.136410
 30
-7.43460e-18
  70
    32
  0
VERTEX
  8
0
  5
2CE5
 10
0.0500000
 20
0.134208
 30
-6.91910e-18
  70
    32
  0
VERTEX
  8
0
  5
2CE6
 10
0.0500000
 20
0.132021
 30
-6.42799e-18
  70
    32
  0
VERTEX
  8
0
  5
2CE7
 10
0.0500000
 20
0.129848
 30
-5.96069e-18
  70
    32
  0
VERTEX
  8
0
  5
2CE8
 10
0.0500000
 20
0.127691
 30
-5.51661e-18
  70
    32
  0
VERTEX
  8
0
  5
2CE9
 10
0.0500000
 20
0.125548
 30
-5.09514e-18
  70
    32
  0
VERTEX
  8
0
  5
2CEA
 10
0.0500000
 20
0.123421
 30
-4.69571e-18
  70
    32
  0
VERTEX
  8
0
  5
2CEB
 10
0.0500000
 20
0.121308
 30
-4.31772e-18
  70
    32
  0
VERTEX
  8
0
  5
2CEC
 10
0.0500000
 20
0.119212
 30
-3.96058e-18
  70
    32
  0
VERTEX
  8
0
  5
2CED
 10
0.0500000
 20
0.117131
 30
-3.62370e-18
  70
    32
  0
VERTEX
  8
0
  5
2CEE
 10
0.0500000
 20
0.115065
 30
-3.30649e-18
  70
    32
  0
VERTEX
  8
0
  5
2CEF
 10
0.0500000
 20
0.113016
 30
-3.00834e-18
  70
    32
  0
VERTEX
  8
0
  5
2CF0
 10
0.0500000
 20
0.110982
 30
-2.72869e-18
  70
    32
  0
VERTEX
  8
0
  5
2CF1
 10
0.0500000
 20
0.108964
 30
-2.46692e-18
  70
    32
  0
VERTEX
  8
0
  5
2CF2
 10
0.0500000
 20
0.106963
 30
-2.22245e-18
  70
    32
  0
VERTEX
  8
0
  5
2CF3
 10
0.0500000
 20
0.104978
 30
-1.99470e-18
  70
    32
  0
VERTEX
  8
0
  5
2CF4
 10
0.0500000
 20
0.103009
 30
-1.78306e-18
  70
    32
  0
VERTEX
  8
0
  5
2CF5
 10
0.0500000
 20
0.101057
 30
-1.58694e-18
  70
    32
  0
VERTEX
  8
0
  5
2CF6
 10
0.0500000
 20
0.0991217
 30
-1.40576e-18
  70
    32
  0
VERTEX
  8
0
  5
2CF7
 10
0.0500000
 20
0.0972031
 30
-1.23893e-18
  70
    32
  0
VERTEX
  8
0
  5
2CF8
 10
0.0500000
 20
0.0953016
 30
-1.08584e-18
  70
    32
  0
VERTEX
  8
0
  5
2CF9
 10
0.0500000
 20
0.0934171
 30
-9.45920e-19
  70
    32
  0
VERTEX
  8
0
  5
2CFA
 10
0.0500000
 20
0.0915498
 30
-8.18564e-19
  70
    32
  0
VERTEX
  8
0
  5
2CFB
 10
0.0500000
 20
0.0896999
 30
-7.03185e-19
  70
    32
  0
VERTEX
  8
0
  5
2CFC
 10
0.0500000
 20
0.0878674
 30
-5.99192e-19
  70
    32
  0
VERTEX
  8
0
  5
2CFD
 10
0.0500000
 20
0.0860525
 30
-5.05993e-19
  70
    32
  0
VERTEX
  8
0
  5
2CFE
 10
0.0500000
 20
0.0842554
 30
-4.22997e-19
  70
    32
  0
VERTEX
  8
0
  5
2CFF
 10
0.0500000
 20
0.0824761
 30
-3.49612e-19
  70
    32
  0
VERTEX
  8
0
  5
2D00
 10
0.0500000
 20
0.0807147
 30
-2.85247e-19
  70
    32
  0
VERTEX
  8
0
  5
2D01
 10
0.0500000
 20
0.0789715
 30
-2.29311e-19
  70
    32
  0
VERTEX
  8
0
  5
2D02
 10
0.0500000
 20
0.0772465
 30
-1.81211e-19
  70
    32
  0
VERTEX
  8
0
  5
2D03
 10
0.0500000
 20
0.0755399
 30
-1.40357e-19
  70
    32
  0
VERTEX
  8
0
  5
2D04
 10
0.0500000
 20
0.0738517
 30
-1.06157e-19
  70
    32
  0
VERTEX
  8
0
  5
2D05
 10
0.0500000
 20
0.0721822
 30
-7.80193e-20
  70
    32
  0
VERTEX
  8
0
  5
2D06
 10
0.0500000
 20
0.0705314
 30
-5.53527e-20
  70
    32
  0
VERTEX
  8
0
  5
2D07
 10
0.0500000
 20
0.0688995
 30
-3.75656e-20
  70
    32
  0
VERTEX
  8
0
  5
2D08
 10
0.0500000
 20
0.0672866
 30
-2.40667e-20
  70
    32
  0
VERTEX
  8
0
  5
2D09
 10
0.0500000
 20
0.0656928
 30
-1.42644e-20
  70
    32
  0
VERTEX
  8
0
  5
2D0A
 10
0.0500000
 20
0.0641182
 30
-7.56733e-21
  70
    32
  0
VERTEX
  8
0
  5
2D0B
 10
0.0500000
 20
0.0625631
 30
-3.38396e-21
  70
    32
  0
VERTEX
  8
0
  5
2D0C
 10
0.0500000
 20
0.0610274
 30
-1.12285e-21
  70
    32
  0
VERTEX
  8
0
  5
2D0D
 10
0.0500000
 20
0.0595114
 30
-1.92531e-22
  70
    32
  0
VERTEX
  8
0
  5
2D0E
 10
0.0500000
 20
0.0580151
 30
-1.54014e-24
  70
    32
  0
VERTEX
  8
0
  5
2D0F
 10
0.0500000
 20
0.0565387
 30
0.000000
  70
    32
  0
VERTEX
  8
0
  5
2D10
 10
0.0500000
 20
0.0550822
 30
0.000000
  70
    32
  0
VERTEX
  8
0
  5
2D11
 10
0.0500000
 20
0.0536456
 30
0.000000
  70
    32
  0
VERTEX
  8
0
  5
2D12
 10
0.0500000
 20
0.0522288
 30
0.000000
  70
    32
  0
VERTEX
  8
0
  5
2D13
 10
0.0500000
 20
0.0508318
 30
0.000000
  70
    32
  0
VERTEX
  8
0
  5
2D14
 10
0.0500000
 20
0.0494545
 30
0.000000
  70
    32
  0
VERTEX
  8
0
  5
2D15
 10
0.0500000
 20
0.0480970
 30
0.000000
  70
    32
  0
VERTEX
  8
0
  5
2D16
 10
0.0500000
 20
0.0467591
 30
0.000000
  70
    32
  0
VERTEX
  8
0
  5
2D17
 10
0.0500000
 20
0.0454410
 30
0.000000
  70
    32
  0
VERTEX
  8
0
  5
2D18
 10
0.0500000
 20
0.0441424
 30
0.000000
  70
    32
  0
VERTEX
  8
0
  5
2D19
 10
0.0500000
 20
0.0428635
 30
0.000000
  70
    32
  0
VERTEX
  8
0
  5
2D1A
 10
0.0500000
 20
0.0416040
 30
0.000000
  70
    32
  0
VERTEX
  8
0
  5
2D1B
 10
0.0500000
 20
0.0403642
 30
0.000000
  70
    32
  0
VERTEX
  8
0
  5
2D1C
 10
0.0500000
 20
0.0391438
 30
0.000000
  70
    32
  0
VERTEX
  8
0
  5
2D1D
 10
0.0500000
 20
0.0379428
 30
0.000000
  70
    32
  0
VERTEX
  8
0
  5
2D1E
 10
0.0500000
 20
0.0367613
 30
0.000000
  70
    32
  0
VERTEX
  8
0
  5
2D1F
 10
0.0500000
 20
0.0355992
 30
0.000000
  70
    32
  0
VERTEX
  8
0
  5
2D20
 10
0.0500000
 20
0.0344564
 30
0.000000
  70
    32
  0
VERTEX
  8
0
  5
2D21
 10
0.0500000
 20
0.0333330
 30
0.000000
  70
    32
  0
VERTEX
  8
0
  5
2D22
 10
0.0500000
 20
0.0322288
 30
0.000000
  70
    32
  0
VERTEX
  8
0
  5
2D23
 10
0.0500000
 20
0.0311439
 30
0.000000
  70
    32
  0
VERTEX
  8
0
  5
2D24
 10
0.0500000
 20
0.0300782
 30
0.000000
  70
    32
  0
VERTEX
  8
0
  5
2D25
 10
0.0500000
 20
0.0290317
 30
0.000000
  70
    32
  0
VERTEX
  8
0
  5
2D26
 10
0.0500000
 20
0.0280044
 30
0.000000
  70
    32
  0
VERTEX
  8
0
  5
2D27
 10
0.0500000
 20
0.0269961
 30
0.000000
  70
    32
  0
VERTEX
  8
0
  5
2D28
 10
0.0500000
 20
0.0260070
 30
0.000000
  70
    32
  0
VERTEX
  8
0
  5
2D29
 10
0.0500000
 20
0.0250369
 30
0.000000
  70
    32
  0
VERTEX
  8
0
  5
2D2A
 10
0.0500000
 20
0.0240858
 30
0.000000
  70
    32
  0
VERTEX
  8
0
  5
2D2B
 10
0.0500000
 20
0.0231537
 30
0.000000
  70
    32
  0
VERTEX
  8
0
  5
2D2C
 10
0.0500000
 20
0.0222406
 30
0.000000
  70
    32
  0
VERTEX
  8
0
  5
2D2D
 10
0.0500000
 20
0.0213464
 30
0.000000
  70
    32
  0
VERTEX
  8
0
  5
2D2E
 10
0.0500000
 20
0.0204710
 30
0.000000
  70
    32
  0
VERTEX
  8
0
  5
2D2F
 10
0.0500000
 20
0.0196146
 30
0.000000
  70
    32
  0
VERTEX
  8
0
  5
2D30
 10
0.0500000
 20
0.0187769
 30
0.000000
  70
    32
  0
VERTEX
  8
0
  5
2D31
 10
0.0500000
 20
0.0179580
 30
0.000000
  70
    32
  0
VERTEX
  8
0
  5
2D32
 10
0.0500000
 20
0.0171578
 30
0.000000
  70
    32
  0
VERTEX
  8
0
  5
2D33
 10
0.0500000
 20
0.0163764
 30
0.000000
  70
    32
  0
VERTEX
  8
0
  5
2D34
 10
0.0500000
 20
0.0156137
 30
0.000000
  70
    32
  0
VERTEX
  8
0
  5
2D35
 10
0.0500000
 20
0.0148696
 30
0.000000
  70
    32
  0
VERTEX
  8
0
  5
2D36
 10
0.0500000
 20
0.0141441
 30
0.000000
  70
    32
  0
VERTEX
  8
0
  5
2D37
 10
0.0500000
 20
0.0134371
 30
0.000000
  70
    32
  0
VERTEX
  8
0
  5
2D38
 10
0.0500000
 20
0.0127488
 30
0.000000
  70
    32
  0
VERTEX
  8
0
  5
2D39
 10
0.0500000
 20
0.0120789
 30
0.000000
  70
    32
  0
VERTEX
  8
0
  5
2D3A
 10
0.0500000
 20
0.0114276
 30
0.000000
  70
    32
  0
VERTEX
  8
0
  5
2D3B
 10
0.0500000
 20
0.0107946
 30
0.000000
  70
    32
  0
VERTEX
  8
0
  5
2D3C
 10
0.0500000
 20
0.0101801
 30
0.000000
  70
    32
  0
VERTEX
  8
0
  5
2D3D
 10
0.0500000
 20
0.00958395
 30
0.000000
  70
    32
  0
VERTEX
  8
0
  5
2D3E
 10
0.0500000
 20
0.00900615
 30
0.000000
  70
    32
  0
VERTEX
  8
0
  5
2D3F
 10
0.0500000
 20
0.00844666
 30
0.000000
  70
    32
  0
VERTEX
  8
0
  5
2D40
 10
0.0500000
 20
0.00790545
 30
0.000000
  70
    32
  0
VERTEX
  8
0
  5
2D41
 10
0.0500000
 20
0.00738247
 30
0.000000
  70
    32
  0
VERTEX
  8
0
  5
2D42
 10
0.0500000
 20
0.00687771
 30
0.000000
  70
    32
  0
VERTEX
  8
0
  5
2D43
 10
0.0500000
 20
0.00639112
 30
0.000000
  70
    32
  0
VERTEX
  8
0
  5
2D44
 10
0.0500000
 20
0.00592267
 30
0.000000
  70
    32
  0
VERTEX
  8
0
  5
2D45
 10
0.0500000
 20
0.00547233
 30
0.000000
  70
    32
  0
VERTEX
  8
0
  5
2D46
 10
0.0500000
 20
0.00504006
 30
0.000000
  70
    32
  0
VERTEX
  8
0
  5
2D47
 10
0.0500000
 20
0.00462583
 30
0.000000
  70
    32
  0
VERTEX
  8
0
  5
2D48
 10
0.0500000
 20
0.00422961
 30
0.000000
  70
    32
  0
VERTEX
  8
0
  5
2D49
 10
0.0500000
 20
0.00385136
 30
0.000000
  70
    32
  0
VERTEX
  8
0
  5
2D4A
 10
0.0500000
 20
0.00349105
 30
0.000000
  70
    32
  0
VERTEX
  8
0
  5
2D4B
 10
0.0500000
 20
0.00314864
 30
0.000000
  70
    32
  0
VERTEX
  8
0
  5
2D4C
 10
0.0500000
 20
0.00282411
 30
0.000000
  70
    32
  0
VERTEX
  8
0
  5
2D4D
 10
0.0500000
 20
0.00251741
 30
0.000000
  70
    32
  0
VERTEX
  8
0
  5
2D4E
 10
0.0500000
 20
0.00222852
 30
0.000000
  70
    32
  0
VERTEX
  8
0
  5
2D4F
 10
0.0500000
 20
0.00195739
 30
0.000000
  70
    32
  0
VERTEX
  8
0
  5
2D50
 10
0.0500000
 20
0.00170400
 30
0.000000
  70
    32
  0
VERTEX
  8
0
  5
2D51
 10
0.0500000
 20
0.00146832
 30
0.000000
  70
    32
  0
VERTEX
  8
0
  5
2D52
 10
0.0500000
 20
0.00125030
 30
0.000000
  70
    32
  0
VERTEX
  8
0
  5
2D53
 10
0.0500000
 20
0.00104992
 30
0.000000
  70
    32
  0
VERTEX
  8
0
  5
2D54
 10
0.0500000
 20
0.000867142
 30
0.000000
  70
    32
  0
VERTEX
  8
0
  5
2D55
 10
0.0500000
 20
0.000701930
 30
0.000000
  70
    32
  0
VERTEX
  8
0
  5
2D56
 10
0.0500000
 20
0.000554251
 30
0.000000
  70
    32
  0
VERTEX
  8
0
  5
2D57
 10
0.0500000
 20
0.000424073
 30
0.000000
  70
    32
  0
VERTEX
  8
0
  5
2D58
 10
0.0500000
 20
0.000311362
 30
0.000000
  70
    32
  0
VERTEX
  8
0
  5
2D59
 10
0.0500000
 20
0.000216083
 30
0.000000
  70
    32
  0
VERTEX
  8
0
  5
2D5A
 10
0.0500000
 20
0.000138203
 30
0.000000
  70
    32
  0
VERTEX
  8
0
  5
2D5B
 10
0.0500000
 20
7.76887e-05
 30
0.000000
  70
    32
  0
VERTEX
  8
0
  5
2D5C
 10
0.0500000
 20
3.45058e-05
 30
0.000000
  70
    32
  0
VERTEX
  8
0
  5
2D5D
 10
0.0500000
 20
8.62083e-06
 30
0.000000
  70
    32
  0
VERTEX
  8
0
  5
2D5E
 10
0.0500000
 20
-2.95610e-12
 30
0.000000
  70
    32
  0
SEQEND
  8
0
  5
2D5F
  0
LINE
  5
2527
  8
0
  6
CONTINUOUS
 62
     3
 10
0.0499999999999545
 20
2.2928932188103772
 30
-0.0000000000000005
 11
0.0499999999999545
 21
0.8786796564374983
 31
-0.0000000000000002
210
0.0
220
1.0
230
-0.0000000000000002
  0
LINE
  5
2528
  8
0
  6
CONTINUOUS
 62
     3
 10
0.0499999999999545
 20
2.9999999999968172
 30
-0.0000000000000007
 11
0.0499999999999545
 21
2.2928932188102631
 31
-0.0000000000000005
210
0.0
220
1.0
230
-0.0000000000000002
  0
LINE
  5
2529
  8
0
  6
CONTINUOUS
 62
     3
 10
-0.0499999999998409
 20
0.9999999999970443
 30
-0.0000000000000002
 11
0.0499999999999545
 21
0.9999999999970443
 31
-0.0000000000000002
210
0.0
220
1.0
230
-0.0000000000000002
  0
LINE
  5
252A
  8
0
  6
CONTINUOUS
 62
     3
 10
0.0499999999999545
 20
0.0
 30
0.0
 11
-0.0499999999998409
 21
0.0
 31
0.0
210
0.0
220
1.0
230
-0.0000000000000002
  0
LINE
  5
252B
  8
0
  6
CONTINUOUS
 62
     3
 10
-86.4644660940678023
 20
-0.0000000000029561
 30
0.0
 11
-0.0499999999998409
 21
-0.0000000000029508
 31
0.0
210
0.0
220
1.0
230
-0.0000000000000002
  0
LINE
  5
252C
  8
0
  6
CONTINUOUS
 62
     3
 10
-90.0000000000002274
 20
2.2928932188103772
 30
-0.0000000000000005
 11
-0.0499999999998409
 21
2.292893218810383
 31
-0.0000000000000005
210
0.0
220
1.0
230
-0.0000000000000002
  0
LINE
  5
252D
  8
0
  6
CONTINUOUS
 62
     3
 10
-89.2928932188136741
 20
2.99999999999693
 30
-0.0000000000000007
 11
-0.0499999999998409
 21
2.9999999999969358
 31
-0.0000000000000007
210
0.0
220
1.0
230
-0.0000000000000002
  0
LINE
  5
252E
  8
0
  6
CONTINUOUS
 62
     3
 10
0.0499999999999545
 20
2.9999999999969358
 30
-0.0000000000000007
 11
89.2928932188134468
 21
2.99999999999693
 31
-0.0000000000000007
210
0.0
220
1.0
230
-0.0000000000000002
  0
LINE
  5
252F
  8
0
  6
CONTINUOUS
 62
     3
 10
0.0499999999999545
 20
2.292893218810383
 30
-0.0000000000000005
 11
90.0
 21
2.2928932188103772
 31
-0.0000000000000005
210
0.0
220
1.0
230
-0.0000000000000002
  0
LINE
  5
2530
  8
0
  6
CONTINUOUS
 62
     3
 10
0.0499999999999545
 20
-0.0000000000029508
 30
0.0
 11
86.4644660940675749
 21
-0.0000000000029561
 31
0.0
210
0.0
220
1.0
230
-0.0000000000000002
  0
ARC
  5
2531
  8
0
  6
CONTINUOUS
 62
     3
 10
86.4644660940679159
 20
2.9999999999965241
 30
0.0
 40
2.9999999999994791
210
0.0
220
-0.0000000000000002
230
-1.0
 50
270.0
 51
315.0000000000085265
  0
LINE
  5
2532
  8
0
  6
CONTINUOUS
 62
     3
 10
-88.5857864376273483
 20
0.8786796564374981
 30
-0.0000000000000002
 11
-90.0000000000002274
 21
2.2928932188103772
 31
-0.0000000000000005
210
0.0
220
1.0
230
-0.0000000000000002
  0
LINE
  5
2533
  8
0
  6
CONTINUOUS
 62
     3
 10
-89.2928932188135605
 20
2.9999999999968732
 30
-0.0000000000000007
 11
-90.0000000000002274
 21
2.2928932188103199
 31
-0.0000000000000005
210
0.0
220
1.0
230
-0.0000000000000002
  0
LINE
  5
2534
  8
0
  6
CONTINUOUS
 62
     3
 10
89.2928932188133189
 20
2.9999999999968732
 30
-0.0000000000000007
 11
90.0
 21
2.2928932188103199
 31
-0.0000000000000005
210
0.0
220
1.0
230
-0.0000000000000002
  0
LINE
  5
2535
  8
0
  6
CONTINUOUS
 62
     3
 10
88.5857864376271209
 20
0.8786796564374981
 30
-0.0000000000000002
 11
90.0
 21
2.2928932188103772
 31
-0.0000000000000005
210
0.0
220
1.0
230
-0.0000000000000002
  0
ARC
  5
2536
  8
0
  6
CONTINUOUS
 62
     3
 10
-86.4644660940676886
 20
2.999999999996525
 30
0.0
 40
2.999999999999428
210
0.0
220
-0.0000000000000002
230
-1.0
 50
224.9999999999924967
 51
270.0
  0
LINE
  5
2537
  8
0
  6
VERDECKT
 62
     1
 10
-4.1277189999999564
 20
-0.0000000000029561
 30
0.0
 11
-4.1277189999999564
 21
0.9999999999970443
 31
-0.0000000000000002
210
0.0
220
1.0
230
-0.0000000000000002
  0
LINE
  5
2538
  8
0
  6
VERDECKT
 62
     1
 10
-4.1804255640256542
 20
-0.0000000000029561
 30
0.0
 11
-4.1804255640256542
 21
0.9999999999970443
 31
-0.0000000000000002
210
0.0
220
1.0
230
-0.0000000000000002
  0
LINE
  5
2539
  8
0
  6
VERDECKT
 62
     1
 10
-86.4644660940676886
 20
0.9999999999970443
 30
-0.0000000000000002
 11
-0.0499999999998409
 21
0.9999999999970496
 31
-0.0000000000000002
210
0.0
220
1.0
230
-0.0000000000000002
  0
LINE
  5
253A
  8
0
  6
VERDECKT
 62
     1
 10
0.0499999999999545
 20
0.9999999999970496
 30
-0.0000000000000002
 11
86.4644660940674612
 21
0.9999999999970443
 31
-0.0000000000000002
210
0.0
220
1.0
230
-0.0000000000000002
  0
LINE
  5
253B
  8
0
  6
VERDECKT
 62
     1
 10
-37.0000000000001208
 20
0.0
 30
0.0
 11
-37.0000000000001208
 21
0.9999999999970443
 31
-0.0000000000000002
210
0.0
220
1.0
230
-0.0000000000000002
  0
LINE
  5
253C
  8
0
  6
VERDECKT
 62
     1
 10
-10.4999997347086893
 20
0.9999999999970443
 30
-0.0000000000000002
 11
-10.4999997347086893
 21
0.0
 31
0.0
210
0.0
220
1.0
230
-0.0000000000000002
  0
LINE
  5
253D
  8
0
  6
VERDECKT
 62
     1
 10
-10.4000000000001993
 20
0.9999999999970443
 30
-0.0000000000000002
 11
-10.4000000000001993
 21
0.0
 31
0.0
210
0.0
220
1.0
230
-0.0000000000000002
  0
LINE
  5
253E
  8
0
  6
VERDECKT
 62
     1
 10
36.9999999999998934
 20
0.0
 30
0.0
 11
36.9999999999998934
 21
0.9999999999970443
 31
-0.0000000000000002
210
0.0
220
1.0
230
-0.0000000000000002
  0
ARC
  5
253F
  8
0
  6
VERDECKT
 62
     1
 10
86.4644660940676886
 20
2.9999999999970579
 30
0.0
 40
2.0000000000000151
210
0.0
220
-0.0000000000000002
230
-1.0
 50
270.0
 51
315.0000000000001137
  0
ARC
  5
2540
  8
0
  6
VERDECKT
 62
     1
 10
-86.4644660940674612
 20
2.999999999997057
 30
0.0
 40
2.0000000000000249
210
0.0
220
-0.0000000000000002
230
-1.0
 50
224.9999999999998863
 51
270.0
  0
LINE
  5
2541
  8
0
  6
VERDECKT
 62
     1
 10
-87.878679656440795
 20
1.5857864376239661
 30
-0.0000000000000004
 11
-89.2928932188136741
 21
2.9999999999969589
 31
-0.0000000000000007
210
0.0
220
1.0
230
-0.0000000000000002
  0
LINE
  5
2542
  8
0
  6
VERDECKT
 62
     1
 10
87.8786796564405677
 20
1.5857864376239661
 30
-0.0000000000000004
 11
89.2928932188134468
 21
2.9999999999969589
 31
-0.0000000000000007
210
0.0
220
1.0
230
-0.0000000000000002
  0
ENDBLK
  5
251D
  8
0
  0
ENDSEC
  0
SECTION
  2
ENTITIES
  0
INSERT
  5
573
  8
ADSK_ASSOC_ENTITY_BACKUPS
  2
*S0
 10
0.0
 20
0.0
 30
0.0
  0
INSERT
  5
24F9
  8
BEM
  2
A$CED30A377
 10
0.0
 20
0.0
 30
0.0
  0
INSERT
  5
251E
  8
BEM
  2
A$C1D1F714B
 10
0.0
 20
150.0
 30
0.0
  0
VIEWPORT
  5
609
 67
     1
  8
0
 10
99.9595808982849121
 20
143.4358978271484091
 30
0.0
 40
562.5251404939906479
 41
298.4565412383719263
 68
     1
 69
     1
1001
ACAD
1000
MVIEW
1002
{
1070
    16
1010
0.0
1020
0.0
1030
0.0
1010
0.0
1020
0.0
1030
1.0
1040
0.0
1040
298.4565412383719263
1040
99.9595808982849121
1040
143.4358978271484091
1040
50.0
1040
0.0
1040
0.0
1070
     0
1070
  1500
1070
     1
1070
     1
1070
     0
1070
     0
1070
     0
1070
     0
1040
0.0
1040
0.0
1040
0.0
1040
10.0
1040
10.0
1040
10.0
1040
10.0
1070
     0
1002
{
1002
}
1002
}
  0
ENDSEC
  0
EOF
