  0
SECTION
  2
HEADER
  9
$ACADVER
  1
AC1009
  9
$INSBASE
 10
0.0
 20
0.0
 30
0.0
  9
$EXTMIN
 10
-61.9614134144118225
 20
-172.0242757427326978
 30
-0.0028989487361741
  9
$EXTMAX
 10
61.0157996229480588
 20
95.0226142669821456
 30
0.0043488654823989
  9
$LIMMIN
 10
0.0
 20
0.0
  9
$LIMMAX
 10
297.0
 20
420.0
  9
$ORTHOMODE
 70
     1
  9
$REGENMODE
 70
     1
  9
$FILLMODE
 70
     1
  9
$QTEXTMODE
 70
     0
  9
$MIRRTEXT
 70
     1
  9
$DRAGMODE
 70
     2
  9
$LTSCALE
 40
10.0
  9
$OSMODE
 70
  2559
  9
$ATTMODE
 70
     1
  9
$TEXTSIZE
 40
3.5
  9
$TRACEWID
 40
0.5
  9
$TEXTSTYLE
  7
STANDARD
  9
$CLAYER
  8
STEMPEL
  9
$CELTYPE
  6
BYLAYER
  9
$CECOLOR
 62
   256
  9
$DIMSCALE
 40
1.0
  9
$DIMASZ
 40
3.5
  9
$DIMEXO
 40
1.0
  9
$DIMDLI
 40
7.0
  9
$DIMRND
 40
0.0
  9
$DIMDLE
 40
0.0
  9
$DIMEXE
 40
1.0
  9
$DIMTP
 40
4.0
  9
$DIMTM
 40
4.0
  9
$DIMTXT
 40
3.5
  9
$DIMCEN
 40
1.5
  9
$DIMTSZ
 40
0.0
  9
$DIMTOL
 70
     0
  9
$DIMLIM
 70
     0
  9
$DIMTIH
 70
     0
  9
$DIMTOH
 70
     0
  9
$DIMSE1
 70
     0
  9
$DIMSE2
 70
     0
  9
$DIMTAD
 70
     1
  9
$DIMZIN
 70
     8
  9
$DIMBLK
  1

  9
$DIMASO
 70
     1
  9
$DIMSHO
 70
     0
  9
$DIMPOST
  1

  9
$DIMAPOST
  1

  9
$DIMALT
 70
     0
  9
$DIMALTD
 70
     2
  9
$DIMALTF
 40
25.3999999999999986
  9
$DIMLFAC
 40
1.0
  9
$DIMTOFL
 70
     1
  9
$DIMTVP
 40
0.0
  9
$DIMTIX
 70
     0
  9
$DIMSOXD
 70
     0
  9
$DIMSAH
 70
     0
  9
$DIMBLK1
  1

  9
$DIMBLK2
  1

  9
$DIMSTYLE
  2
STANDARD
  9
$DIMCLRD
 70
     0
  9
$DIMCLRE
 70
     0
  9
$DIMCLRT
 70
     1
  9
$DIMTFAC
 40
0.5142857142857143
  9
$DIMGAP
 40
1.5
  9
$LUNITS
 70
     2
  9
$LUPREC
 70
     2
  9
$SKETCHINC
 40
1.0
  9
$FILLETRAD
 40
17.0
  9
$AUNITS
 70
     0
  9
$AUPREC
 70
     0
  9
$MENU
  1
ACAD
  9
$ELEVATION
 40
0.0
  9
$PELEVATION
 40
0.0
  9
$THICKNESS
 40
0.0
  9
$LIMCHECK
 70
     0
  9
$BLIPMODE
 70
     0
  9
$CHAMFERA
 40
0.0
  9
$CHAMFERB
 40
0.0
  9
$SKPOLY
 70
     0
  9
$TDCREATE
 40
2452544.6156365741044283
  9
$TDUPDATE
 40
2458388.5914930561557412
  9
$TDINDWG
 40
0.5026252894
  9
$TDUSRTIMER
 40
0.5026252894
  9
$USRTIMER
 70
     1
  9
$ANGBASE
 50
0.0
  9
$ANGDIR
 70
     0
  9
$PDMODE
 70
     0
  9
$PDSIZE
 40
0.0
  9
$PLINEWID
 40
0.0
  9
$COORDS
 70
     1
  9
$SPLFRAME
 70
     0
  9
$SPLINETYPE
 70
     6
  9
$SPLINESEGS
 70
     8
  9
$ATTDIA
 70
     1
  9
$ATTREQ
 70
     1
  9
$HANDLING
 70
     1
  9
$HANDSEED
  5
3000
  9
$SURFTAB1
 70
     6
  9
$SURFTAB2
 70
     6
  9
$SURFTYPE
 70
     6
  9
$SURFU
 70
     6
  9
$SURFV
 70
     6
  9
$UCSNAME
  2

  9
$UCSORG
 10
0.0
 20
0.0
 30
0.0
  9
$UCSXDIR
 10
1.0
 20
0.0
 30
0.0
  9
$UCSYDIR
 10
0.0
 20
1.0
 30
0.0
  9
$PUCSNAME
  2

  9
$PUCSORG
 10
0.0
 20
0.0
 30
0.0
  9
$PUCSXDIR
 10
1.0
 20
0.0
 30
0.0
  9
$PUCSYDIR
 10
0.0
 20
1.0
 30
0.0
  9
$USERI1
 70
     0
  9
$USERI2
 70
     0
  9
$USERI3
 70
     0
  9
$USERI4
 70
     0
  9
$USERI5
 70
     0
  9
$USERR1
 40
0.0
  9
$USERR2
 40
0.0
  9
$USERR3
 40
0.0
  9
$USERR4
 40
0.0
  9
$USERR5
 40
0.0
  9
$WORLDVIEW
 70
     1
  9
$SHADEDGE
 70
     3
  9
$SHADEDIF
 70
    70
  9
$TILEMODE
 70
     1
  9
$MAXACTVP
 70
    16
  9
$PLIMCHECK
 70
     0
  9
$PEXTMIN
 10
-0.1168978004450167
 20
-0.0827648871883931
 30
-0.0000000000112498
  9
$PEXTMAX
 10
8.2838283313738614
 20
11.0725752748782202
 30
0.0000000000002956
  9
$PLIMMIN
 10
-0.2500002402958907
 20
-0.2499999962453767
  9
$PLIMMAX
 10
10.7499995194082203
 20
8.2499997634587334
  9
$UNITMODE
 70
     0
  9
$VISRETAIN
 70
     0
  9
$PLINEGEN
 70
     0
  9
$PSLTSCALE
 70
     0
  0
ENDSEC
  0
SECTION
  2
TABLES
  0
TABLE
  2
VPORT
 70
     1
  0
VPORT
  2
*ACTIVE
 70
     0
 10
0.0
 20
0.0
 11
1.0
 21
1.0
 12
-0.4728068957318499
 22
-55.502957431600862
 13
0.0
 23
0.0
 14
1.0
 24
1.0
 15
10.0
 25
10.0
 16
-0.0000000000001131
 26
0.0
 36
509.2905738053175924
 17
0.0
 27
17.0021266937255788
 37
-0.0000000000000034
 40
268.4082165518203738
 41
1.868197278911564
 42
50.0
 43
0.0
 44
0.0
 50
0.0
 51
0.0
 71
     0
 72
  1500
 73
     1
 74
     0
 75
     0
 76
     0
 77
     0
 78
     0
  0
ENDTAB
  0
TABLE
  2
LTYPE
 70
     5
  0
LTYPE
  2
CONTINUOUS
 70
     0
  3
Solid line
 72
    65
 73
     0
 40
0.0
  0
LTYPE
  2
VERDECKT
 70
     0
  3
_ _ _ _ _ _ _ _ _ _ _ _ _ _ _ _ _ _ _ _ _ _ _
 72
    65
 73
     2
 40
0.375
 49
0.25
 49
-0.125
  0
ENDTAB
  0
TABLE
  2
LAYER
 70
    11
  0
LAYER
  2
0
 70
     0
 62
     7
  6
CONTINUOUS
  0
LAYER
  2
VOLL
 70
     0
 62
     1
  6
CONTINUOUS
  0
LAYER
  2
DEFPOINTS
 70
     0
 62
     7
  6
CONTINUOUS
  0
LAYER
  2
STEMPEL
 70
     0
 62
     3
  6
CONTINUOUS
  0
ENDTAB
  0
TABLE
  2
STYLE
 70
     2
  0
STYLE
  2
STANDARD
 70
     0
 40
0.0
 41
0.8
 50
0.0
 71
     0
 42
3.5
  3
simplex.shx
  4

  0
STYLE
  2
GREEKS
 70
     0
 40
0.0
 41
0.8
 50
0.0
 71
     0
 42
3.5
  3
SIMPLEX.shx
  4

  0
ENDTAB
  0
TABLE
  2
VIEW
 70
     1
  0
ENDTAB
  0
TABLE
  2
UCS
 70
     0
  0
ENDTAB
  0
TABLE
  2
APPID
 70
    10
  0
APPID
  2
ACAD
 70
     0
  0
APPID
  2
RAK
 70
     0
  0
APPID
  2
ACAD_NAV_VCDISPLAY
 70
     0
  0
APPID
  2
ACAD_PSEXT
 70
     0
  0
APPID
  2
ACAECLAYERSTANDARD
 70
     0
  0
APPID
  2
ACCMTRANSPARENCY
 70
     0
  0
APPID
  2
ACAD_EXEMPT_FROM_CAD_STANDARDS
 70
     0
  0
APPID
  2
ACAD_MLEADERVER
 70
     0
  0
APPID
  2
ACAD_OBJECT_CHANGE_GUID
 70
     0
  0
APPID
  2
ACADANNOMONITORALERTICONDI
 70
     0
  0
ENDTAB
  0
TABLE
  2
DIMSTYLE
 70
     2
  0
DIMSTYLE
  2
STANDARD
 70
     0
  3

  4

  5

  6

  7

 40
1.0
 41
0.18
 42
0.0625
 43
0.38
 44
0.18
 45
0.0
 46
0.0
 47
0.0
 48
0.0
140
0.18
141
0.09
142
0.0
143
25.3999999999999986
144
1.0
145
0.0
146
1.0
147
0.09
 71
     0
 72
     0
 73
     1
 74
     1
 75
     0
 76
     0
 77
     0
 78
     0
170
     0
171
     2
172
     0
173
     0
174
     0
175
     0
176
     0
177
     0
178
     0
  0
ENDTAB
  0
ENDSEC
  0
SECTION
  2
BLOCKS
  0
BLOCK
  8
0
  2
$MODEL_SPACE
 70
     0
 10
0.0
 20
0.0
 30
0.0
  3
$MODEL_SPACE
  1

  0
ENDBLK
  5
4F
  8
0
  0
BLOCK
 67
     1
  8
0
  2
$PAPER_SPACE
 70
     0
 10
0.0
 20
0.0
 30
0.0
  3
$PAPER_SPACE
  1

  0
ENDBLK
  5
4D
 67
     1
  8
0
  0
BLOCK
  8
0
  2
A$C66B5503C
 70
     0
 10
0.0
 20
0.0
 30
0.0
  3
A$C66B5503C
  1

  0
LINE
  5
2F08
  8
0
  6
CONTINUOUS
 62
     3
 10
-15.3090940417265902
 20
56.9792211215770124
 30
0.0
 11
-41.6909059582731416
 21
41.7476749098488327
 31
-0.0000000000000059
  0
LINE
  5
2F09
  8
0
  6
CONTINUOUS
 62
     3
 10
-56.9999999999998082
 20
15.2315462117283609
 30
-0.0000000000000142
 11
-56.9999999999999218
 21
-15.2315462117279203
 31
-0.0000000000000142
  0
LINE
  5
2F0A
  8
0
  6
CONTINUOUS
 62
     3
 10
57.0000000000000213
 20
-15.2315462117279203
 30
0.0000000000000142
 11
57.0000000000000213
 21
15.2315462117279097
 31
0.0000000000000142
  0
LINE
  5
2F0B
  8
0
  6
CONTINUOUS
 62
     3
 10
-41.6909059582728005
 20
-41.7476749098490032
 30
-0.0000000000000142
 11
-15.3090940417268104
 21
-56.9792211215768205
 31
-0.0000000000000084
  0
CIRCLE
  5
2F0C
  8
0
  6
CONTINUOUS
 62
     3
 10
0.0000000000000211
 20
0.0000000000000058
 30
0.0
 40
61.0
  0
CIRCLE
  5
2F0D
  8
0
  6
CONTINUOUS
 62
     3
 10
0.0000000000000211
 20
0.0000000000000058
 30
0.0
 40
59.0000000000001066
  0
ARC
  5
2F0E
  8
0
  6
CONTINUOUS
 62
     3
 10
-0.0000000000001132
 20
-0.0000000000000532
 30
0.0
 40
34.3818495990035373
 50
62.5004750317259976
 51
179.9999999999998863
  0
ARC
  5
2F0F
  8
0
  6
CONTINUOUS
 62
     3
 10
-0.0000000000002269
 20
0.0000000000000037
 30
0.0
 40
34.3818495990036013
 50
302.5004750317265803
 51
57.4995249682733984
  0
ARC
  5
2F10
  8
0
  6
CONTINUOUS
 62
     3
 10
-0.0000000000001132
 20
0.0000000000000534
 30
0.0
 40
34.3818495990036013
 50
180.0000000000001137
 51
297.4995249682739882
  0
ARC
  5
2F11
  8
0
  6
CONTINUOUS
 62
     3
 10
0.0000000000000116
 20
-0.0000000000000394
 30
0.0
 40
51.2033618071438923
 50
61.6787172504269705
 51
179.9999999999998863
  0
ARC
  5
2F12
  8
0
  6
CONTINUOUS
 62
     3
 10
0.0000000000001252
 20
0.0000000000000067
 30
0.0
 40
51.2033618071437715
 50
301.6787172504269279
 51
58.3212827495731432
  0
ARC
  5
2F13
  8
0
  6
CONTINUOUS
 62
     3
 10
0.0000000000000116
 20
0.0000000000000316
 30
0.0
 40
51.2033618071438497
 50
180.0
 51
298.3212827495730153
  0
ARC
  5
2F14
  8
0
  6
CONTINUOUS
 62
     3
 10
-0.0000000000001024
 20
0.0000000000000813
 30
0.0
 40
51.9999999999998792
 50
61.6529921672660279
 51
180.0
  0
ARC
  5
2F15
  8
0
  6
CONTINUOUS
 62
     3
 10
-0.0000000000003298
 20
0.0000000000000031
 30
0.0
 40
52.0000000000000711
 50
301.6529921672665182
 51
58.3470078327335102
  0
ARC
  5
2F16
  8
0
  6
CONTINUOUS
 62
     3
 10
-0.0000000000001024
 20
-0.0000000000000715
 30
0.0
 40
51.9999999999998579
 50
179.999999999999801
 51
298.3470078327341071
  0
ARC
  5
2F17
  8
0
  6
CONTINUOUS
 62
     3
 10
-0.0000000000001154
 20
-0.0000000000000036
 30
0.0
 40
34.8976329326268981
 50
0.0000000000000127
 51
57.5365046872015711
  0
ARC
  5
2F18
  8
0
  6
CONTINUOUS
 62
     3
 10
-0.000000000000103
 20
0.0000000000000036
 30
0.0
 40
34.897632932626891
 50
62.4634953127979671
 51
297.5365046872018979
  0
ARC
  5
2F19
  8
0
  6
CONTINUOUS
 62
     3
 10
-0.0000000000000977
 20
0.0000000000000071
 30
0.0
 40
34.8976329326268981
 50
302.4634953127983863
 51
0.0
  0
LINE
  5
2F1A
  8
0
  6
CONTINUOUS
 62
     3
 10
24.6914264549235583
 20
45.7668051312776285
 30
0.0
 11
17.6914264549235583
 21
33.642449478295589
 31
-0.0000000000000018
  0
LINE
  5
2F1B
  8
0
  6
CONTINUOUS
 62
     3
 10
20.2895026662767108
 20
32.142449478295589
 30
0.0
 11
17.6914264549234517
 21
33.642449478295589
 31
-0.0000000000000006
  0
LINE
  5
2F1C
  8
0
  6
CONTINUOUS
 62
     3
 10
20.2895026662767108
 20
32.142449478295589
 30
0.0
 11
27.2895026662767108
 21
44.2668051312776285
 31
0.0000000000000018
  0
LINE
  5
2F1D
  8
0
  6
CONTINUOUS
 62
     3
 10
27.2895026662767108
 20
44.266805131277458
 30
0.0
 11
24.6914264549234517
 21
45.7668051312774722
 31
-0.0000000000000006
  0
LINE
  5
2F1E
  8
0
  6
CONTINUOUS
 62
     3
 10
17.6914264549234517
 20
33.64244947829539
 30
0.0
 11
14.1914264549234392
 21
27.5802716518043098
 31
-0.0000000000000008
  0
LINE
  5
2F1F
  8
0
  6
CONTINUOUS
 62
     3
 10
16.7895026662767002
 20
26.0802716518043205
 30
0.0
 11
14.1914264549234392
 21
27.5802716518043205
 31
-0.0000000000000006
  0
LINE
  5
2F20
  8
0
  6
CONTINUOUS
 62
     3
 10
16.7895026662767002
 20
26.0802716518043205
 30
0.0
 11
20.2895026662767108
 21
32.14244947829539
 31
0.0000000000000008
  0
LINE
  5
2F21
  8
0
  6
CONTINUOUS
 62
     3
 10
30.7895026662767108
 20
50.3289829577685168
 30
0.0
 11
28.1914264549234517
 21
51.8289829577685097
 31
-0.0000000000000006
  0
LINE
  5
2F22
  8
0
  6
CONTINUOUS
 62
     3
 10
28.1914264549233415
 20
51.8289829577685381
 30
0.0
 11
24.6914264549233309
 21
45.7668051312774722
 31
-0.0000000000000008
  0
LINE
  5
2F23
  8
0
  6
CONTINUOUS
 62
     3
 10
27.2895026662767108
 20
44.266805131277458
 30
0.0
 11
30.7895026662767108
 21
50.328982957768531
 31
0.0000000000000008
  0
LINE
  5
2F24
  8
0
  6
CONTINUOUS
 62
     3
 10
24.6914264549235583
 20
-45.7668051312775717
 30
0.0
 11
17.6914264549235583
 21
-33.6424494782955321
 31
-0.0000000000000018
  0
LINE
  5
2F25
  8
0
  6
CONTINUOUS
 62
     3
 10
27.2895026662767108
 20
-44.2668051312775219
 30
0.0
 11
24.6914264549234517
 21
-45.7668051312775219
 31
-0.0000000000000006
  0
LINE
  5
2F26
  8
0
  6
CONTINUOUS
 62
     3
 10
20.2895026662767108
 20
-32.1424494782955321
 30
0.0
 11
27.2895026662767108
 21
-44.2668051312775788
 31
0.0000000000000018
  0
LINE
  5
2F27
  8
0
  6
CONTINUOUS
 62
     3
 10
20.2895026662767108
 20
-32.1424494782955321
 30
0.0
 11
17.6914264549234517
 21
-33.6424494782955321
 31
-0.0000000000000006
  0
LINE
  5
2F28
  8
0
  6
CONTINUOUS
 62
     3
 10
17.6914264549234517
 20
-33.6424494782954397
 30
0.0
 11
14.1914264549234392
 21
-27.5802716518043702
 31
-0.0000000000000008
  0
LINE
  5
2F29
  8
0
  6
CONTINUOUS
 62
     3
 10
16.7895026662767002
 20
-26.0802716518043596
 30
0.0
 11
20.2895026662767108
 21
-32.1424494782954397
 31
0.0000000000000008
  0
LINE
  5
2F2A
  8
0
  6
CONTINUOUS
 62
     3
 10
16.7895026662767002
 20
-26.0802716518043596
 30
0.0
 11
14.1914264549234392
 21
-27.5802716518043596
 31
-0.0000000000000006
  0
LINE
  5
2F2B
  8
0
  6
CONTINUOUS
 62
     3
 10
30.7895026662767108
 20
-50.3289829577684529
 30
0.0
 11
28.1914264549234517
 21
-51.82898295776846
 31
-0.0000000000000006
  0
LINE
  5
2F2C
  8
0
  6
CONTINUOUS
 62
     3
 10
28.1914264549233415
 20
-51.8289829577684813
 30
0.0
 11
24.6914264549233309
 21
-45.7668051312774011
 31
-0.0000000000000008
  0
LINE
  5
2F2D
  8
0
  6
CONTINUOUS
 62
     3
 10
27.2895026662767108
 20
-44.2668051312775219
 30
0.0
 11
30.7895026662767108
 21
-50.3289829577686021
 31
0.0000000000000008
  0
CIRCLE
  5
2F2E
  8
0
  6
VERDECKT
 62
     1
 10
0.0000000000000087
 20
0.0000000000000024
 30
0.0
 40
49.0
  0
CIRCLE
  5
2F2F
  8
0
  6
VERDECKT
 62
     1
 10
0.0000000000000087
 20
0.0000000000000024
 30
0.0
 40
51.0
  0
LINE
  5
2F30
  8
0
  6
VERDECKT
 62
     1
 10
-58.9999999999999218
 20
15.4919333848295793
 30
-0.0000000000000142
 11
-58.9999999999999218
 21
0.0000000000000053
 31
-0.0000000000000142
  0
LINE
  5
2F31
  8
0
  6
VERDECKT
 62
     1
 10
-58.9999999999999218
 20
0.0000000000000053
 30
-0.0000000000000142
 11
-58.9999999999999218
 21
-15.4919333848295704
 31
-0.0000000000000142
  0
LINE
  5
2F32
  8
0
  6
VERDECKT
 62
     1
 10
58.9999999999999076
 20
-15.4919333848299807
 30
0.0000000000000142
 11
59.0000000000000213
 21
-0.0000000000002114
 31
0.0000000000000142
  0
LINE
  5
2F33
  8
0
  6
VERDECKT
 62
     1
 10
59.0000000000000213
 20
-0.0000000000002114
 30
0.0000000000000142
 11
59.0000000000000213
 21
15.4919333848295295
 31
0.0000000000000142
  0
LINE
  5
2F34
  8
0
  6
VERDECKT
 62
     1
 10
-16.0835921350004902
 20
58.8414655156969104
 30
0.0
 11
-29.4999999999998117
 21
51.0954988232817584
 31
-0.000000000000003
  0
LINE
  5
2F35
  8
0
  6
VERDECKT
 62
     1
 10
-29.4999999999998117
 20
51.0954988232817584
 30
0.0
 11
-42.9164078649991296
 21
43.3495321308665922
 31
-0.000000000000003
  0
LINE
  5
2F36
  8
0
  6
VERDECKT
 62
     1
 10
-42.9164078649986678
 20
-43.3495321308668906
 30
-0.0000000000000142
 11
-29.4999999999998117
 21
-51.0954988232817726
 31
-0.0000000000000112
  0
LINE
  5
2F37
  8
0
  6
VERDECKT
 62
     1
 10
-29.4999999999998117
 20
-51.0954988232817726
 30
0.0
 11
-16.0835921350010587
 21
-58.8414655156965978
 31
0.000000000000003
  0
ARC
  5
2F38
  8
0
  6
VERDECKT
 62
     1
 10
-0.0000000000014775
 20
-0.000000000002302
 30
0.0
 40
34.3818495990062232
 50
57.4995249682736969
 51
62.5004750317257276
  0
ARC
  5
2F39
  8
0
  6
VERDECKT
 62
     1
 10
-0.000000000002387
 20
0.0000000000037376
 30
0.0
 40
34.3818495990079072
 50
297.4995249682744998
 51
302.500475031726296
  0
CIRCLE
  5
2F3A
  8
0
  6
VERDECKT
 62
     1
 10
-0.0000000000001048
 20
0.0000000000000024
 30
0.0
 40
34.8999999999999133
  0
ARC
  5
2F3B
  8
0
  6
VERDECKT
 62
     1
 10
0.0000000000197931
 20
0.0000000000343579
 30
0.0
 40
51.2033618071042085
 50
58.3212827495716724
 51
61.6787172504281926
  0
ARC
  5
2F3C
  8
0
  6
VERDECKT
 62
     1
 10
0.0000000000126308
 20
-0.0000000000218744
 30
0.0
 40
51.2033618071185828
 50
298.3212827495722763
 51
301.6787172504277805
  0
ARC
  5
2F3D
  8
0
  6
VERDECKT
 62
     1
 10
-0.0000000000280694
 20
-0.0000000000485554
 30
0.0
 40
52.0000000000559481
 50
58.3470078327355708
 51
61.6529921672643795
  0
ARC
  5
2F3E
  8
0
  6
VERDECKT
 62
     1
 10
0.0000000000092199
 20
-0.0000000000159273
 30
0.0
 40
51.9999999999814904
 50
298.3470078327334249
 51
301.6529921672666887
  0
CIRCLE
  5
2F3F
  8
0
  6
VERDECKT
 62
     1
 10
-0.0000000000001048
 20
0.0000000000000024
 30
0.0
 40
36.5000000000001634
  0
CIRCLE
  5
2F40
  8
0
  6
VERDECKT
 62
     1
 10
-0.0000000000001132
 20
0.0000000000000001
 30
0.0
 40
35.8875793553185076
  0
ARC
  5
2F41
  8
0
  6
VERDECKT
 62
     1
 10
0.00000000000008
 20
0.0000000000002984
 30
0.0
 40
34.89763293262655
 50
57.5365046872015924
 51
62.4634953127980168
  0
ARC
  5
2F42
  8
0
  6
VERDECKT
 62
     1
 10
0.0000000000005098
 20
-0.0000000000011227
 30
0.0
 40
34.8976329326256192
 50
297.5365046872018979
 51
302.4634953127986137
  0
LINE
  5
2F43
  8
0
  6
VERDECKT
 62
     1
 10
29.7895026662767108
 20
48.5969321501996774
 30
0.0
 11
27.1914264549234517
 21
50.0969321501996774
 31
-0.0000000000000006
  0
LINE
  5
2F44
  8
0
  6
VERDECKT
 62
     1
 10
29.7895026662767108
 20
-48.5969321501997271
 30
0.0
 11
27.1914264549234517
 21
-50.0969321501997271
 31
-0.0000000000000006
  0
ENDBLK
  5
2F46
  8
0
  0
BLOCK
  8
0
  2
A$C45EB1532
 70
     0
 10
0.0
 20
0.0
 30
0.0
  3
A$C45EB1532
  1

  0
LINE
  5
2F4A
  8
0
  6
CONTINUOUS
 62
     3
 10
-51.0
 20
0.0
 30
0.0
 11
51.0
 21
0.0
 31
0.0
210
0.0
220
1.0
230
-0.0000000000000002
  0
LINE
  5
2F4B
  8
0
  6
CONTINUOUS
 62
     3
 10
-58.9999999999999503
 20
87.0000000000000142
 30
-0.0000000000000193
 11
-58.9999999999999503
 21
80.0000000000000142
 31
-0.0000000000000178
210
0.0
220
1.0
230
-0.0000000000000002
  0
LINE
  5
2F4C
  8
0
  6
CONTINUOUS
 62
     3
 10
-61.0000000000003411
 20
80.0000000000000142
 30
-0.0000000000000178
 11
-59.0000000000003411
 21
80.0000000000000142
 31
-0.0000000000000178
210
0.0
220
1.0
230
-0.0000000000000002
  0
LINE
  5
2F4D
  8
0
  6
CONTINUOUS
 62
     3
 10
-59.0000000000003411
 20
87.0000000000000142
 30
-0.0000000000000193
 11
-61.0000000000003411
 21
87.0000000000000142
 31
-0.0000000000000193
210
0.0
220
1.0
230
-0.0000000000000002
  0
LINE
  5
2F4E
  8
0
  6
CONTINUOUS
 62
     3
 10
58.9999999999997726
 20
80.0000000000000142
 30
-0.0000000000000178
 11
58.9999999999997726
 21
87.0000000000000142
 31
-0.0000000000000193
210
0.0
220
1.0
230
-0.0000000000000002
  0
LINE
  5
2F4F
  8
0
  6
CONTINUOUS
 62
     3
 10
59.0000000000002274
 20
80.0000000000000142
 30
-0.0000000000000178
 11
61.0000000000003411
 21
80.0000000000000142
 31
-0.0000000000000178
210
0.0
220
1.0
230
-0.0000000000000002
  0
LINE
  5
2F50
  8
0
  6
CONTINUOUS
 62
     3
 10
61.0000000000003411
 20
87.0000000000000142
 30
-0.0000000000000193
 11
59.0000000000002274
 21
87.0000000000000142
 31
-0.0000000000000193
210
0.0
220
1.0
230
-0.0000000000000002
  0
LINE
  5
2F51
  8
0
  6
CONTINUOUS
 62
     3
 10
-42.9164078650002665
 20
80.0000000000000142
 30
-0.0000000000000178
 11
-42.9164078650002665
 21
87.0000000000000142
 31
-0.0000000000000193
210
0.0
220
1.0
230
-0.0000000000000002
  0
LINE
  5
2F52
  8
0
  6
CONTINUOUS
 62
     3
 10
-16.0835921349993782
 20
87.0000000000000142
 30
-0.0000000000000193
 11
-16.0835921349993782
 21
80.0000000000000142
 31
-0.0000000000000178
210
0.0
220
1.0
230
-0.0000000000000002
  0
LINE
  5
2F53
  8
0
  6
CONTINUOUS
 62
     3
 10
-16.0835921350012505
 20
87.0000000000000142
 30
-0.0000000000000193
 11
-42.9164078649990302
 21
87.0000000000000142
 31
-0.0000000000000193
210
0.0
220
1.0
230
-0.0000000000000002
  0
LINE
  5
2F54
  8
0
  6
CONTINUOUS
 62
     3
 10
-42.9164078649990515
 20
80.0000000000000142
 30
-0.0000000000000178
 11
-16.0835921350012505
 21
80.0000000000000142
 31
-0.0000000000000178
210
0.0
220
1.0
230
-0.0000000000000002
  0
LINE
  5
2F55
  8
0
  6
CONTINUOUS
 62
     3
 10
-61.0
 20
95.0000000000000142
 30
-0.0000000000000211
 11
61.0
 21
95.0000000000000142
 31
-0.0000000000000211
210
0.0
220
1.0
230
-0.0000000000000002
  0
ARC
  5
2F56
  8
0
  6
CONTINUOUS
 62
     3
 10
44.0000000000006466
 20
72.5640148580710189
 30
0.0
 40
16.9999999999994706
210
0.0
220
-0.0000000000000002
230
-1.0
 50
340.0515680240829965
 51
0.0000000000011577
  0
ARC
  5
2F57
  8
0
  6
CONTINUOUS
 62
     3
 10
-44.0000000000006182
 20
72.5640148580710047
 30
0.0
 40
16.9999999999994884
210
0.0
220
-0.0000000000000002
230
-1.0
 50
179.9999999999988063
 51
199.9484319759168898
  0
LINE
  5
2F58
  8
0
  6
CONTINUOUS
 62
     3
 10
-51.8999989627458618
 20
44.5021069559400217
 30
-0.0000000000000099
 11
-59.9800011755547899
 21
66.7640525798082365
 31
-0.0000000000000148
210
0.0
220
1.0
230
-0.0000000000000002
  0
LINE
  5
2F59
  8
0
  6
CONTINUOUS
 62
     3
 10
51.8999989627458476
 20
44.5021069559400004
 30
-0.0000000000000099
 11
59.9800011755547828
 21
66.7640525798082223
 31
-0.0000000000000148
210
0.0
220
1.0
230
-0.0000000000000002
  0
ARC
  5
2F5A
  8
0
  6
CONTINUOUS
 62
     3
 10
66.0000000000012221
 20
39.3844931810021777
 30
0.0
 40
15.0000000000012204
210
0.0
220
-0.0000000000000002
230
-1.0
 50
160.0515680240849008
 51
179.9999999999994884
  0
ARC
  5
2F5B
  8
0
  6
CONTINUOUS
 62
     3
 10
-66.0000000000013074
 20
39.3844931810021706
 30
0.0
 40
15.0000000000013003
210
0.0
220
-0.0000000000000002
230
-1.0
 50
0.0000000000005471
 51
19.94843197591495
  0
LINE
  5
2F5C
  8
0
  6
CONTINUOUS
 62
     3
 10
51.0
 20
39.3844931810023198
 30
-0.0000000000000087
 11
51.0
 21
0.0
 31
0.0
210
0.0
220
1.0
230
-0.0000000000000002
  0
LINE
  5
2F5D
  8
0
  6
CONTINUOUS
 62
     3
 10
-51.0
 20
39.3844931810023198
 30
-0.0000000000000087
 11
-51.0
 21
0.0
 31
0.0
210
0.0
220
1.0
230
-0.0000000000000002
  0
LINE
  5
2F5E
  8
0
  6
CONTINUOUS
 62
     3
 10
61.0000000000001208
 20
95.0000000000000142
 30
-0.0000000000000211
 11
61.0000000000001208
 21
87.0000000000000142
 31
-0.0000000000000193
210
0.0
220
1.0
230
-0.0000000000000002
  0
LINE
  5
2F5F
  8
0
  6
CONTINUOUS
 62
     3
 10
61.0000000000001208
 20
80.0000000000000142
 30
-0.0000000000000178
 11
61.0000000000001208
 21
72.56401485807136
 31
-0.0000000000000161
210
0.0
220
1.0
230
-0.0000000000000002
  0
LINE
  5
2F60
  8
0
  6
CONTINUOUS
 62
     3
 10
-61.0000000000001208
 20
95.0000000000000142
 30
-0.0000000000000211
 11
-61.0000000000001208
 21
87.0000000000000142
 31
-0.0000000000000193
210
0.0
220
1.0
230
-0.0000000000000002
  0
LINE
  5
2F61
  8
0
  6
CONTINUOUS
 62
     3
 10
-61.0000000000001208
 20
80.0000000000000142
 30
-0.0000000000000178
 11
-61.0000000000001208
 21
72.56401485807136
 31
-0.0000000000000161
210
0.0
220
1.0
230
-0.0000000000000002
  0
LINE
  5
2F62
  8
0
  6
VERDECKT
 62
     1
 10
-56.9999999999999432
 20
80.0000000000000142
 30
-0.0000000000000178
 11
-56.9999999999999432
 21
87.0000000000000142
 31
-0.0000000000000193
210
0.0
220
1.0
230
-0.0000000000000002
  0
LINE
  5
2F63
  8
0
  6
VERDECKT
 62
     1
 10
-57.0000000000001066
 20
80.0000000000000142
 30
-0.0000000000000178
 11
-59.0000000000001066
 21
80.0000000000000142
 31
-0.0000000000000178
210
0.0
220
1.0
230
-0.0000000000000002
  0
LINE
  5
2F64
  8
0
  6
VERDECKT
 62
     1
 10
-59.0000000000001066
 20
87.0000000000000142
 30
-0.0000000000000193
 11
-57.0000000000001066
 21
87.0000000000000142
 31
-0.0000000000000193
210
0.0
220
1.0
230
-0.0000000000000002
  0
LINE
  5
2F65
  8
0
  6
VERDECKT
 62
     1
 10
57.0
 20
87.0000000000000142
 30
-0.0000000000000193
 11
57.0
 21
80.0000000000000142
 31
-0.0000000000000178
210
0.0
220
1.0
230
-0.0000000000000002
  0
LINE
  5
2F66
  8
0
  6
VERDECKT
 62
     1
 10
59.0000000000001066
 20
80.0000000000000142
 30
-0.0000000000000178
 11
57.0000000000001066
 21
80.0000000000000142
 31
-0.0000000000000178
210
0.0
220
1.0
230
-0.0000000000000002
  0
LINE
  5
2F67
  8
0
  6
VERDECKT
 62
     1
 10
57.0000000000001208
 20
87.0000000000000142
 30
-0.0000000000000193
 11
59.0000000000001066
 21
87.0000000000000142
 31
-0.0000000000000193
210
0.0
220
1.0
230
-0.0000000000000002
  0
LINE
  5
2F68
  8
0
  6
VERDECKT
 62
     1
 10
-15.3090940417259294
 20
80.0000000000000142
 30
-0.0000000000000178
 11
-15.3090940417259294
 21
87.0000000000000142
 31
-0.0000000000000193
210
0.0
220
1.0
230
-0.0000000000000002
  0
LINE
  5
2F69
  8
0
  6
VERDECKT
 62
     1
 10
-41.6909059582734969
 20
87.0000000000000142
 30
-0.0000000000000193
 11
-41.6909059582734969
 21
80.0000000000000142
 31
-0.0000000000000178
210
0.0
220
1.0
230
-0.0000000000000002
  0
LINE
  5
2F6A
  8
0
  6
VERDECKT
 62
     1
 10
-16.0835921350010906
 20
87.0000000000000142
 30
-0.0000000000000193
 11
-15.3090940417269508
 21
87.0000000000000142
 31
-0.0000000000000193
210
0.0
220
1.0
230
-0.0000000000000002
  0
LINE
  5
2F6B
  8
0
  6
VERDECKT
 62
     1
 10
-15.3090940417269508
 20
80.0000000000000142
 30
-0.0000000000000178
 11
-16.08359213500108
 21
80.0000000000000142
 31
-0.0000000000000178
210
0.0
220
1.0
230
-0.0000000000000002
  0
LINE
  5
2F6C
  8
0
  6
VERDECKT
 62
     1
 10
49.0
 20
39.3844931810023198
 30
-0.0000000000000087
 11
49.0
 21
0.0
 31
0.0
210
0.0
220
1.0
230
-0.0000000000000002
  0
LINE
  5
2F6D
  8
0
  6
VERDECKT
 62
     1
 10
-49.0
 20
39.3844931810023198
 30
-0.0000000000000087
 11
-49.0
 21
0.0
 31
0.0
210
0.0
220
1.0
230
-0.0000000000000002
  0
ARC
  5
2F6E
  8
0
  6
VERDECKT
 62
     1
 10
66.0000000000016911
 20
39.3844931810023127
 30
0.0
 40
17.0000000000016911
210
0.0
220
-0.0000000000000002
230
-1.0
 50
160.0515680240854977
 51
179.9999999999998863
  0
ARC
  5
2F6F
  8
0
  6
VERDECKT
 62
     1
 10
-66.0000000000019185
 20
39.3844931810022771
 30
0.0
 40
17.0000000000019185
210
0.0
220
-0.0000000000000002
230
-1.0
 50
0.0000000000001527
 51
19.9484319759142288
  0
LINE
  5
2F70
  8
0
  6
VERDECKT
 62
     1
 10
-50.0199988244451816
 20
45.1844554592651377
 30
-0.00000000000001
 11
-58.1000010372540032
 21
67.4464010831327982
 31
-0.000000000000015
210
0.0
220
1.0
230
-0.0000000000000002
  0
LINE
  5
2F71
  8
0
  6
VERDECKT
 62
     1
 10
50.0199988244451816
 20
45.1844554592651306
 30
-0.00000000000001
 11
58.1000010372540032
 21
67.446401083132784
 31
-0.000000000000015
210
0.0
220
1.0
230
-0.0000000000000002
  0
ARC
  5
2F72
  8
0
  6
VERDECKT
 62
     1
 10
44.0000000000017479
 20
72.5640148580704647
 30
0.0
 40
14.9999999999982396
210
0.0
220
-0.0000000000000002
230
-1.0
 50
340.0515680240815186
 51
0.0000000000003817
  0
ARC
  5
2F73
  8
0
  6
VERDECKT
 62
     1
 10
-44.0000000000018474
 20
72.5640148580704505
 30
0.0
 40
14.9999999999981402
210
0.0
220
-0.0000000000000002
230
-1.0
 50
179.9999999999996021
 51
199.9484319759185951
  0
LINE
  5
2F74
  8
0
  6
VERDECKT
 62
     1
 10
58.9999999999999503
 20
95.0000000000000142
 30
-0.0000000000000211
 11
58.9999999999999503
 21
87.0000000000000142
 31
-0.0000000000000193
210
0.0
220
1.0
230
-0.0000000000000002
  0
LINE
  5
2F75
  8
0
  6
VERDECKT
 62
     1
 10
58.9999999999999503
 20
80.0000000000000142
 30
-0.0000000000000178
 11
58.9999999999999503
 21
72.5640148580705642
 31
-0.0000000000000161
210
0.0
220
1.0
230
-0.0000000000000002
  0
LINE
  5
2F76
  8
0
  6
VERDECKT
 62
     1
 10
-58.9999999999999503
 20
95.0000000000000142
 30
-0.0000000000000211
 11
-58.9999999999999503
 21
87.0000000000000142
 31
-0.0000000000000193
210
0.0
220
1.0
230
-0.0000000000000002
  0
LINE
  5
2F77
  8
0
  6
VERDECKT
 62
     1
 10
-58.9999999999999503
 20
80.0000000000000142
 30
-0.0000000000000178
 11
-58.9999999999999503
 21
72.5640148580705642
 31
-0.0000000000000161
210
0.0
220
1.0
230
-0.0000000000000002
  0
LINE
  5
2F78
  8
0
  6
VERDECKT
 62
     1
 10
-51.2033618071438923
 20
52.0263069100085289
 30
-0.0000000000000116
 11
51.2033618071438923
 21
52.0263069100084081
 31
-0.0000000000000116
210
0.0
220
1.0
230
-0.0000000000000002
  0
LINE
  5
2F79
  8
0
  6
VERDECKT
 62
     1
 10
-52.0
 20
50.6397359585102294
 30
-0.0000000000000112
 11
51.9999999999997726
 21
50.639735958510002
 31
-0.0000000000000112
210
0.0
220
1.0
230
-0.0000000000000002
  0
LINE
  5
2F7A
  8
0
  6
VERDECKT
 62
     1
 10
-35.8875793553186213
 20
1.9999999999999709
 30
-0.0000000000000004
 11
35.887579355318401
 21
1.999999999999915
 31
-0.0000000000000004
210
0.0
220
1.0
230
-0.0000000000000002
  0
LINE
  5
2F7B
  8
0
  6
VERDECKT
 62
     1
 10
-34.3818495990036581
 20
1.9999999999999709
 30
-0.0000000000000004
 11
-34.9000000000002117
 21
7.9224861840866376
 31
-0.0000000000000018
210
0.0
220
1.0
230
-0.0000000000000002
  0
LINE
  5
2F7C
  8
0
  6
VERDECKT
 62
     1
 10
34.3818495990034165
 20
1.9999999999999041
 30
-0.0000000000000004
 11
34.8999999999999773
 21
7.922486184086571
 31
-0.0000000000000018
210
0.0
220
1.0
230
-0.0000000000000002
  0
LINE
  5
2F7D
  8
0
  6
VERDECKT
 62
     1
 10
34.899999999999892
 20
39.9999999999998792
 30
-0.0000000000000089
 11
34.8999999999998423
 21
7.9224861840865666
 31
-0.0000000000000018
210
0.0
220
1.0
230
-0.0000000000000002
  0
LINE
  5
2F7E
  8
0
  6
VERDECKT
 62
     1
 10
-34.9000000000000696
 20
39.9999999999999787
 30
-0.0000000000000089
 11
-34.9000000000001123
 21
7.9224861840866376
 31
-0.0000000000000018
210
0.0
220
1.0
230
-0.0000000000000002
  0
ARC
  5
2F7F
  8
0
  6
VERDECKT
 62
     1
 10
39.2425170576115292
 20
40.1434003622597615
 30
0.0
 40
4.34488412498452
210
0.0
220
-0.0000000000000002
230
-1.0
 50
119.8790197411213967
 51
181.8913572098273903
  0
ARC
  5
2F80
  8
0
  6
VERDECKT
 62
     1
 10
-39.2425170576113089
 20
40.1434003622596691
 30
0.0
 40
4.3448841249845254
210
0.0
220
-0.0000000000000002
230
-1.0
 50
358.1086427901723823
 51
60.1209802588789088
  0
LINE
  5
2F81
  8
0
  6
VERDECKT
 62
     1
 10
-37.0780249565815581
 20
43.9107591192832274
 30
-0.0000000000000098
 11
-51.2033618071439065
 21
52.0263069100085005
 31
-0.0000000000000116
210
0.0
220
1.0
230
-0.0000000000000002
  0
LINE
  5
2F82
  8
0
  6
VERDECKT
 62
     1
 10
37.0780249565813591
 20
43.9107591192831705
 30
-0.0000000000000098
 11
51.2033618071438212
 21
52.0263069100084508
 31
-0.0000000000000116
210
0.0
220
1.0
230
-0.0000000000000002
  0
LINE
  5
2F83
  8
0
  6
VERDECKT
 62
     1
 10
51.2033618071437218
 20
52.0263069100083513
 30
-0.0000000000000116
 11
51.9999999999997868
 21
50.6397359585099807
 31
-0.0000000000000112
210
0.0
220
1.0
230
-0.0000000000000002
  0
LINE
  5
2F84
  8
0
  6
VERDECKT
 62
     1
 10
-51.2033618071439065
 20
52.0263069100085289
 30
-0.0000000000000116
 11
-52.0000000000000071
 21
50.6397359585101228
 31
-0.0000000000000112
210
0.0
220
1.0
230
-0.0000000000000002
  0
LINE
  5
2F85
  8
0
  6
VERDECKT
 62
     1
 10
-37.9204510586401824
 20
42.5504950777934283
 30
-0.0000000000000094
 11
-52.0
 21
50.6397359585101086
 31
-0.0000000000000112
210
0.0
220
1.0
230
-0.0000000000000002
  0
LINE
  5
2F86
  8
0
  6
VERDECKT
 62
     1
 10
37.9204510586399692
 20
42.5504950777933715
 30
-0.0000000000000094
 11
51.9999999999998224
 21
50.6397359585100233
 31
-0.0000000000000112
210
0.0
220
1.0
230
-0.0000000000000002
  0
ARC
  5
2F87
  8
0
  6
VERDECKT
 62
     1
 10
39.5000000000000497
 20
40.0000000000001279
 30
0.0
 40
2.999999999999778
210
0.0
220
-0.0000000000000002
230
-1.0
 50
121.7703769509514018
 51
180.000000000002899
  0
ARC
  5
2F88
  8
0
  6
VERDECKT
 62
     1
 10
-39.4999999999998508
 20
40.0000000000000284
 30
0.0
 40
2.999999999999801
210
0.0
220
-0.0000000000000002
230
-1.0
 50
359.9999999999969873
 51
58.2296230490489108
  0
LINE
  5
2F89
  8
0
  6
VERDECKT
 62
     1
 10
36.5000000000000213
 20
39.9999999999998792
 30
-0.0000000000000089
 11
36.4999999999999929
 21
8.9999999999999023
 31
-0.000000000000002
210
0.0
220
1.0
230
-0.0000000000000002
  0
LINE
  5
2F8A
  8
0
  6
VERDECKT
 62
     1
 10
-36.5000000000002203
 20
39.9999999999999787
 30
-0.0000000000000089
 11
-36.5000000000002416
 21
8.9999999999999734
 31
-0.000000000000002
210
0.0
220
1.0
230
-0.0000000000000002
  0
LINE
  5
2F8B
  8
0
  6
VERDECKT
 62
     1
 10
-35.8875793553186213
 20
1.9999999999999709
 30
-0.0000000000000004
 11
-36.5000000000002274
 21
8.9999999999999734
 31
-0.000000000000002
210
0.0
220
1.0
230
-0.0000000000000002
  0
LINE
  5
2F8C
  8
0
  6
VERDECKT
 62
     1
 10
35.8875793553183868
 20
1.999999999999903
 30
-0.0000000000000004
 11
36.5000000000000071
 21
8.9999999999999041
 31
-0.000000000000002
210
0.0
220
1.0
230
-0.0000000000000002
  0
LINE
  5
2F8D
  8
0
  6
VERDECKT
 62
     1
 10
24.6914264549235405
 20
87.0000000000000142
 30
-0.0000000000000193
 11
17.6914264549235405
 21
82.0000000000000142
 31
-0.0000000000000182
210
0.0
220
1.0
230
-0.0000000000000002
  0
LINE
  5
2F8E
  8
0
  6
VERDECKT
 62
     1
 10
20.2895026662766895
 20
82.0000000000000142
 30
-0.0000000000000182
 11
27.2895026662766895
 21
87.0000000000000142
 31
-0.0000000000000193
210
0.0
220
1.0
230
-0.0000000000000002
  0
LINE
  5
2F8F
  8
0
  6
VERDECKT
 62
     1
 10
20.2895026662766895
 20
82.0000000000000142
 30
-0.0000000000000182
 11
17.6914264549234304
 21
82.0000000000000142
 31
-0.0000000000000182
210
0.0
220
1.0
230
-0.0000000000000002
  0
LINE
  5
2F90
  8
0
  6
VERDECKT
 62
     1
 10
17.6914264549234304
 20
82.0000000000000142
 30
-0.0000000000000182
 11
14.1914264549234304
 21
82.0000000000001279
 31
-0.0000000000000182
210
0.0
220
1.0
230
-0.0000000000000002
  0
LINE
  5
2F91
  8
0
  6
VERDECKT
 62
     1
 10
14.1914264549235405
 20
82.0000000000001279
 30
-0.0000000000000182
 11
14.1914264549235405
 21
74.8000000000001961
 31
-0.0000000000000166
210
0.0
220
1.0
230
-0.0000000000000002
  0
LINE
  5
2F92
  8
0
  6
VERDECKT
 62
     1
 10
16.7895026662766895
 20
74.8000000000000824
 30
-0.0000000000000166
 11
16.7895026662766895
 21
82.0000000000000142
 31
-0.0000000000000182
210
0.0
220
1.0
230
-0.0000000000000002
  0
LINE
  5
2F93
  8
0
  6
VERDECKT
 62
     1
 10
14.1914264549234304
 20
74.8000000000001961
 30
-0.0000000000000166
 11
17.6914264549235405
 21
74.8000000000001961
 31
-0.0000000000000166
210
0.0
220
1.0
230
-0.0000000000000002
  0
LINE
  5
2F94
  8
0
  6
VERDECKT
 62
     1
 10
20.2895026662767997
 20
74.8000000000001961
 30
-0.0000000000000166
 11
17.6914264549235405
 21
74.8000000000001961
 31
-0.0000000000000166
210
0.0
220
1.0
230
-0.0000000000000002
  0
LINE
  5
2F95
  8
0
  6
VERDECKT
 62
     1
 10
17.6914264549233202
 20
74.8000000000003098
 30
-0.0000000000000166
 11
24.6914264549233202
 21
69.8000000000003098
 31
-0.0000000000000155
210
0.0
220
1.0
230
-0.0000000000000002
  0
LINE
  5
2F96
  8
0
  6
VERDECKT
 62
     1
 10
27.2895026662766895
 20
69.8000000000000824
 30
-0.0000000000000155
 11
20.2895026662766895
 21
74.8000000000000824
 31
-0.0000000000000166
210
0.0
220
1.0
230
-0.0000000000000002
  0
LINE
  5
2F97
  8
0
  6
VERDECKT
 62
     1
 10
24.6914264549233202
 20
69.8000000000001961
 30
-0.0000000000000155
 11
28.1914264549233202
 21
69.8000000000000824
 31
-0.0000000000000155
210
0.0
220
1.0
230
-0.0000000000000002
  0
LINE
  5
2F98
  8
0
  6
VERDECKT
 62
     1
 10
30.7895026662765794
 20
69.8000000000000824
 30
-0.0000000000000155
 11
28.1914264549233202
 21
69.8000000000000824
 31
-0.0000000000000155
210
0.0
220
1.0
230
-0.0000000000000002
  0
LINE
  5
2F99
  8
0
  6
VERDECKT
 62
     1
 10
28.1914264549233202
 20
69.7999999999999545
 30
-0.0000000000000155
 11
28.1914264549233202
 21
72.2999999999999545
 31
-0.0000000000000161
210
0.0
220
1.0
230
-0.0000000000000002
  0
LINE
  5
2F9A
  8
0
  6
VERDECKT
 62
     1
 10
30.7895026662765794
 20
72.3000000000000824
 30
-0.0000000000000161
 11
30.7895026662765794
 21
69.8000000000000824
 31
-0.0000000000000155
210
0.0
220
1.0
230
-0.0000000000000002
  0
LINE
  5
2F9B
  8
0
  6
VERDECKT
 62
     1
 10
30.7895026662765794
 20
72.3000000000000824
 30
-0.0000000000000161
 11
28.1914264549233202
 21
72.3000000000000824
 31
-0.0000000000000161
210
0.0
220
1.0
230
-0.0000000000000002
  0
LINE
  5
2F9C
  8
0
  6
VERDECKT
 62
     1
 10
28.1914264549233202
 20
72.3000000000000824
 30
-0.0000000000000161
 11
27.1914264549233202
 21
73.4547005383793845
 31
-0.0000000000000163
210
0.0
220
1.0
230
-0.0000000000000002
  0
LINE
  5
2F9D
  8
0
  6
VERDECKT
 62
     1
 10
29.7895026662766895
 20
73.4547005383793845
 30
-0.0000000000000163
 11
30.7895026662766895
 21
72.3000000000000824
 31
-0.0000000000000161
210
0.0
220
1.0
230
-0.0000000000000002
  0
LINE
  5
2F9E
  8
0
  6
VERDECKT
 62
     1
 10
29.7895026662766895
 20
73.4547005383793845
 30
-0.0000000000000163
 11
27.1914264549234304
 21
73.4547005383793845
 31
-0.0000000000000163
210
0.0
220
1.0
230
-0.0000000000000002
  0
LINE
  5
2F9F
  8
0
  6
VERDECKT
 62
     1
 10
27.1914264549233202
 20
73.4547005383793845
 30
-0.0000000000000163
 11
27.1914264549233202
 21
83.3452994616208258
 31
-0.0000000000000185
210
0.0
220
1.0
230
-0.0000000000000002
  0
LINE
  5
2FA0
  8
0
  6
VERDECKT
 62
     1
 10
29.7895026662766895
 20
83.3452994616207121
 30
-0.0000000000000185
 11
29.7895026662766895
 21
73.4547005383792708
 31
-0.0000000000000163
210
0.0
220
1.0
230
-0.0000000000000002
  0
LINE
  5
2FA1
  8
0
  6
VERDECKT
 62
     1
 10
29.7895026662766895
 20
83.3452994616207121
 30
-0.0000000000000185
 11
27.1914264549234304
 21
83.3452994616207121
 31
-0.0000000000000185
210
0.0
220
1.0
230
-0.0000000000000002
  0
LINE
  5
2FA2
  8
0
  6
VERDECKT
 62
     1
 10
27.1914264549233202
 20
83.3452994616208258
 30
-0.0000000000000185
 11
28.1914264549233202
 21
84.5000000000001279
 31
-0.0000000000000188
210
0.0
220
1.0
230
-0.0000000000000002
  0
LINE
  5
2FA3
  8
0
  6
VERDECKT
 62
     1
 10
30.7895026662766895
 20
84.5000000000000142
 30
-0.0000000000000188
 11
29.7895026662766895
 21
83.3452994616207121
 31
-0.0000000000000185
210
0.0
220
1.0
230
-0.0000000000000002
  0
LINE
  5
2FA4
  8
0
  6
VERDECKT
 62
     1
 10
30.7895026662766895
 20
84.5000000000000142
 30
-0.0000000000000188
 11
28.1914264549234304
 21
84.5000000000000142
 31
-0.0000000000000188
210
0.0
220
1.0
230
-0.0000000000000002
  0
LINE
  5
2FA5
  8
0
  6
VERDECKT
 62
     1
 10
28.1914264549233202
 20
84.5000000000001279
 30
-0.0000000000000188
 11
28.1914264549233202
 21
87.0000000000001279
 31
-0.0000000000000193
210
0.0
220
1.0
230
-0.0000000000000002
  0
LINE
  5
2FA6
  8
0
  6
VERDECKT
 62
     1
 10
30.7895026662766895
 20
87.0000000000000142
 30
-0.0000000000000193
 11
30.7895026662766895
 21
84.5000000000000142
 31
-0.0000000000000188
210
0.0
220
1.0
230
-0.0000000000000002
  0
LINE
  5
2FA7
  8
0
  6
VERDECKT
 62
     1
 10
30.7895026662766895
 20
87.0000000000000142
 30
-0.0000000000000193
 11
28.1914264549234304
 21
87.0000000000000142
 31
-0.0000000000000193
210
0.0
220
1.0
230
-0.0000000000000002
  0
LINE
  5
2FA8
  8
0
  6
VERDECKT
 62
     1
 10
28.1914264549233202
 20
87.0000000000001279
 30
-0.0000000000000193
 11
24.6914264549233202
 21
87.0000000000000142
 31
-0.0000000000000193
210
0.0
220
1.0
230
-0.0000000000000002
  0
ENDBLK
  5
2FAA
  8
0
  0
ENDSEC
  0
SECTION
  2
ENTITIES
  0
TEXT
  5
742
  8
VOLL
 10
406.9226713819618908
 20
88.16832126801296
 30
0.0
 40
1.8
  1

  7
GREEKS
  0
TEXT
  5
78F
  8
VOLL
 10
-250.0442275188771077
 20
199.4304662073776058
 30
0.0
 40
1.8
  1

  7
GREEKS
  0
TEXT
  5
220C
  8
VOLL
 10
6.5589613637888808
 20
467.1452161264372762
 30
0.0
 40
1.8
  1

  7
GREEKS
  0
INSERT
  5
2F47
  8
STEMPEL
  2
A$C66B5503C
 10
0.0
 20
-111.0
 30
0.0
  0
INSERT
  5
2FAB
  8
STEMPEL
  2
A$C45EB1532
 10
0.0
 20
0.0
 30
0.0
  0
VIEWPORT
  5
2BEA
 67
     1
  8
0
 10
4.0828743983735176
 20
5.494729865226863
 30
0.0
 40
19.7872867391767002
 41
11.2338181686560894
 68
     1
 69
     1
1001
ACAD
1000
MVIEW
1002
{
1070
    16
1010
0.0
1020
0.0
1030
0.0
1010
0.0
1020
0.0
1030
1.0
1040
0.0
1040
11.2338181686560894
1040
4.0828743983735176
1040
5.494729865226863
1040
50.0
1040
0.0
1040
0.0
1070
     0
1070
  1500
1070
     1
1070
     1
1070
     0
1070
     0
1070
     0
1070
     0
1040
0.0
1040
0.0
1040
0.0
1040
10.0
1040
10.0
1040
10.0
1040
10.0
1070
     0
1002
{
1002
}
1002
}
  0
VIEWPORT
  5
2BEE
 67
     1
  8
DEFPOINTS
 10
4.0832622537895213
 20
5.4946430739664036
 30
0.0
 40
8.3999996185302752
 41
11.1542674933600203
 68
     2
 69
     2
1001
ACAD
1000
MVIEW
1002
{
1070
    16
1010
656.7050790908755289
1020
283.1728224439684141
1030
53.4779130209785691
1010
0.0
1020
0.0
1030
1.0
1040
0.0
1040
427.7190695904321842
1040
-500.1249197481155875
1040
-73.5927371327114201
1040
50.0
1040
0.0
1040
0.0
1070
     0
1070
  1500
1070
     1
1070
     0
1070
     0
1070
     0
1070
     0
1070
     0
1040
0.0
1040
0.0
1040
0.0
1040
1.0
1040
1.0
1040
10.0
1040
10.0
1070
     0
1002
{
1002
}
1002
}
  0
VIEWPORT
  5
2BF2
 67
     1
  8
DEFPOINTS
 10
6.115185105216745
 20
3.0133923052469149
 30
0.0
 40
2.271315764790458
 41
2.8737974053936131
 68
     3
 69
     3
1001
ACAD
1000
MVIEW
1002
{
1070
    16
1010
545.1953420702285484
1020
293.461153771101408
1030
-3.9102374291374402
1010
34.0752910163106506
1020
101.9814919869028955
1030
271.2913384837003719
1040
2.7965515484262631
1040
174.8333328593392935
1040
0.0
1040
0.0
1040
50.0
1040
0.0
1040
0.0
1070
     0
1070
  1500
1070
     1
1070
     0
1070
     0
1070
     0
1070
     0
1070
     0
1040
0.0
1040
0.0
1040
0.0
1040
1.0
1040
1.0
1040
10.0
1040
10.0
1070
     0
1002
{
1002
}
1002
}
  0
ENDSEC
  0
EOF
