  0
SECTION
  2
HEADER
  9
$ACADVER
  1
AC1009
  9
$INSBASE
 10
0.0
 20
0.0
 30
0.0
  9
$EXTMIN
 10
-53.838981601188479
 20
-151.2000002211887022
 30
-0.0000000000000211
  9
$EXTMAX
 10
50.6007961765892915
 20
94.9999997788107606
 30
0.0000000000000142
  9
$LIMMIN
 10
0.0
 20
0.0
  9
$LIMMAX
 10
297.0
 20
420.0
  9
$ORTHOMODE
 70
     1
  9
$REGENMODE
 70
     1
  9
$FILLMODE
 70
     1
  9
$QTEXTMODE
 70
     0
  9
$MIRRTEXT
 70
     1
  9
$DRAGMODE
 70
     2
  9
$LTSCALE
 40
10.0
  9
$OSMODE
 70
  2559
  9
$ATTMODE
 70
     1
  9
$TEXTSIZE
 40
3.5
  9
$TRACEWID
 40
0.5
  9
$TEXTSTYLE
  7
STANDARD
  9
$CLAYER
  8
STEMPEL
  9
$CELTYPE
  6
BYLAYER
  9
$CECOLOR
 62
   256
  9
$DIMSCALE
 40
1.0
  9
$DIMASZ
 40
3.5
  9
$DIMEXO
 40
1.0
  9
$DIMDLI
 40
9.0
  9
$DIMRND
 40
0.0
  9
$DIMDLE
 40
0.0
  9
$DIMEXE
 40
1.0
  9
$DIMTP
 40
0.5
  9
$DIMTM
 40
0.0
  9
$DIMTXT
 40
3.5
  9
$DIMCEN
 40
1.5
  9
$DIMTSZ
 40
0.0
  9
$DIMTOL
 70
     0
  9
$DIMLIM
 70
     0
  9
$DIMTIH
 70
     0
  9
$DIMTOH
 70
     0
  9
$DIMSE1
 70
     0
  9
$DIMSE2
 70
     0
  9
$DIMTAD
 70
     1
  9
$DIMZIN
 70
     8
  9
$DIMBLK
  1

  9
$DIMASO
 70
     1
  9
$DIMSHO
 70
     0
  9
$DIMPOST
  1

  9
$DIMAPOST
  1

  9
$DIMALT
 70
     0
  9
$DIMALTD
 70
     2
  9
$DIMALTF
 40
25.3999999999999986
  9
$DIMLFAC
 40
1.0
  9
$DIMTOFL
 70
     1
  9
$DIMTVP
 40
0.0
  9
$DIMTIX
 70
     0
  9
$DIMSOXD
 70
     0
  9
$DIMSAH
 70
     0
  9
$DIMBLK1
  1

  9
$DIMBLK2
  1

  9
$DIMSTYLE
  2
STANDARD
  9
$DIMCLRD
 70
     0
  9
$DIMCLRE
 70
     0
  9
$DIMCLRT
 70
     1
  9
$DIMTFAC
 40
0.5142857142857143
  9
$DIMGAP
 40
1.0
  9
$LUNITS
 70
     2
  9
$LUPREC
 70
     2
  9
$SKETCHINC
 40
1.0
  9
$FILLETRAD
 40
10.0
  9
$AUNITS
 70
     0
  9
$AUPREC
 70
     2
  9
$MENU
  1
ACAD
  9
$ELEVATION
 40
0.0
  9
$PELEVATION
 40
0.0
  9
$THICKNESS
 40
0.0
  9
$LIMCHECK
 70
     0
  9
$BLIPMODE
 70
     0
  9
$CHAMFERA
 40
0.0
  9
$CHAMFERB
 40
0.0
  9
$SKPOLY
 70
     0
  9
$TDCREATE
 40
2452583.5101851848885417
  9
$TDUPDATE
 40
2458737.6205671299248934
  9
$TDINDWG
 40
0.6698825926
  9
$TDUSRTIMER
 40
0.6698825926
  9
$USRTIMER
 70
     1
  9
$ANGBASE
 50
0.0
  9
$ANGDIR
 70
     0
  9
$PDMODE
 70
     0
  9
$PDSIZE
 40
0.0
  9
$PLINEWID
 40
0.0
  9
$COORDS
 70
     1
  9
$SPLFRAME
 70
     0
  9
$SPLINETYPE
 70
     6
  9
$SPLINESEGS
 70
     8
  9
$ATTDIA
 70
     1
  9
$ATTREQ
 70
     1
  9
$HANDLING
 70
     1
  9
$HANDSEED
  5
60E8
  9
$SURFTAB1
 70
     6
  9
$SURFTAB2
 70
     6
  9
$SURFTYPE
 70
     6
  9
$SURFU
 70
     6
  9
$SURFV
 70
     6
  9
$UCSNAME
  2

  9
$UCSORG
 10
0.0
 20
0.0
 30
0.0
  9
$UCSXDIR
 10
1.0
 20
0.0
 30
0.0
  9
$UCSYDIR
 10
0.0
 20
1.0
 30
0.0
  9
$PUCSNAME
  2

  9
$PUCSORG
 10
0.0
 20
0.0
 30
0.0
  9
$PUCSXDIR
 10
1.0
 20
0.0
 30
0.0
  9
$PUCSYDIR
 10
0.0
 20
1.0
 30
0.0
  9
$USERI1
 70
     0
  9
$USERI2
 70
     0
  9
$USERI3
 70
     0
  9
$USERI4
 70
     0
  9
$USERI5
 70
     0
  9
$USERR1
 40
0.0
  9
$USERR2
 40
0.0
  9
$USERR3
 40
0.0
  9
$USERR4
 40
0.0
  9
$USERR5
 40
0.0
  9
$WORLDVIEW
 70
     1
  9
$SHADEDGE
 70
     3
  9
$SHADEDIF
 70
    70
  9
$TILEMODE
 70
     1
  9
$MAXACTVP
 70
    16
  9
$PLIMCHECK
 70
     0
  9
$PEXTMIN
 10
57.1072847111618103
 20
195.53148908321009
 30
-0.0313724630700563
  9
$PEXTMAX
 10
149.3075721111528082
 20
225.8576450914308111
 30
0.0000019150279513
  9
$PLIMMIN
 10
-5.7377405068367171
 20
-3.1785530134047848
  9
$PLIMMAX
 10
204.4705755150492053
 20
294.1221172219420055
  9
$UNITMODE
 70
     0
  9
$VISRETAIN
 70
     0
  9
$PLINEGEN
 70
     0
  9
$PSLTSCALE
 70
     0
  0
ENDSEC
  0
SECTION
  2
TABLES
  0
TABLE
  2
VPORT
 70
     1
  0
VPORT
  2
*ACTIVE
 70
     0
 10
0.0
 20
0.0
 11
1.0
 21
1.0
 12
0.0
 22
0.0
 13
0.0
 23
0.0
 14
1.0
 24
1.0
 15
10.0
 25
10.0
 16
-0.000000000000152
 26
0.0
 36
684.544700633488219
 17
0.0007953643798828
 27
-28.0982350501695102
 37
-0.0000000000000034
 40
266.1844136013339721
 41
1.868197278911564
 42
50.0
 43
0.0
 44
0.0
 50
0.0
 51
0.0
 71
     0
 72
  1500
 73
     1
 74
     0
 75
     0
 76
     0
 77
     0
 78
     0
  0
ENDTAB
  0
TABLE
  2
LTYPE
 70
     6
  0
LTYPE
  2
CONTINUOUS
 70
     0
  3
Solid line
 72
    65
 73
     0
 40
0.0
  0
LTYPE
  2
STRICHPUNKT
 70
     0
  3
__ . __ . __ . __ . __ . __ . __ . __ . __ . __
 72
    65
 73
     4
 40
1.0
 49
0.5
 49
-0.25
 49
0.0
 49
-0.25
  0
LTYPE
  2
VERDECKT
 70
     0
  3
_ _ _ _ _ _ _ _ _ _ _ _ _ _ _ _ _ _ _ _ _ _ _
 72
    65
 73
     2
 40
0.375
 49
0.25
 49
-0.125
  0
ENDTAB
  0
TABLE
  2
LAYER
 70
    19
  0
LAYER
  2
0
 70
     0
 62
     7
  6
CONTINUOUS
  0
LAYER
  2
VOLL
 70
     0
 62
     1
  6
CONTINUOUS
  0
LAYER
  2
BEM
 70
     0
 62
     7
  6
CONTINUOUS
  0
LAYER
  2
DEFPOINTS
 70
     0
 62
     7
  6
CONTINUOUS
  0
LAYER
  2
STEMPEL
 70
     0
 62
     3
  6
CONTINUOUS
  0
LAYER
  2
INDEX
 70
     0
 62
  -255
  6
CONTINUOUS
  0
LAYER
  2
ADSK_ASSOC_ENTITY_BACKUPS
 70
     1
 62
    -7
  6
CONTINUOUS
  0
ENDTAB
  0
TABLE
  2
STYLE
 70
     2
  0
STYLE
  2
STANDARD
 70
     0
 40
0.0
 41
0.8
 50
0.0
 71
     0
 42
3.5
  3
simplex.shx
  4

  0
STYLE
  2
GREEKS
 70
     0
 40
0.0
 41
0.8
 50
0.0
 71
     0
 42
3.5
  3
SIMPLEX.shx
  4

  0
ENDTAB
  0
TABLE
  2
VIEW
 70
     1
  0
ENDTAB
  0
TABLE
  2
UCS
 70
     0
  0
ENDTAB
  0
TABLE
  2
APPID
 70
    33
  0
APPID
  2
ACAD
 70
     0
  0
APPID
  2
RAK
 70
     0
  0
APPID
  2
MCAD_NO_VIS
 70
     0
  0
APPID
  2
ACAD_TEMP_GRAPHIC
 70
     0
  0
APPID
  2
AD_DRAW
 70
     0
  0
APPID
  2
ACATTRIBSERVICES
 70
     0
  0
APPID
  2
DESIGNERASSEMBLIES
 70
     0
  0
APPID
  2
ACADM_DIM_EDIT
 70
     0
  0
APPID
  2
AMDT_DM_ADJ
 70
     0
  0
APPID
  2
ACAD_NAV_VCDISPLAY
 70
     0
  0
APPID
  2
ACAECLAYERSTANDARD
 70
     0
  0
APPID
  2
ACCMTRANSPARENCY
 70
     0
  0
APPID
  2
ACAD_PSEXT
 70
     0
  0
APPID
  2
ACAD_EXEMPT_FROM_CAD_STANDARDS
 70
     0
  0
APPID
  2
ACAD_STEPID
 70
     0
  0
APPID
  2
ACAD_MLEADERVER
 70
     0
  0
APPID
  2
ACAD_OBJECT_CHANGE_GUID
 70
     0
  0
APPID
  2
ACDBDYNAMICBLOCKGUID
 70
     0
  0
APPID
  2
ACSYNERGY
 70
     0
  0
APPID
  2
SYNERGY_BODY_TBR_ID
 70
     0
  0
APPID
  2
ACAD_VIEW_EDGE_ID
 70
     0
  0
APPID
  2
ACSYNERGYSKETCH
 70
     0
  0
APPID
  2
ACAD_MODELDOC_XFORM
 70
     0
  0
APPID
  2
ACAD_DSTYLE_DIMJAG
 70
     0
  0
APPID
  2
ACAD_DSTYLE_DIMTALN
 70
     0
  0
APPID
  2
ACAD_DIMASSOC_CALC_DIMLFAC
 70
     0
  0
APPID
  2
ACAD_DIMASSOC_DIMLFAC
 70
     0
  0
APPID
  2
ACAD_DIMASSOC_OVERRIDDEN_D
 70
     0
  0
APPID
  2
ACADANNOMONITORALERTICONDI
 70
     0
  0
APPID
  2
ACAD_DSTYLE_DIMRADIAL_EXTENSION
 70
     0
  0
APPID
  2
ACADANNOPO
 70
     0
  0
APPID
  2
ACAD_ASSOCPERSSUBENTMANAGER
 70
     0
  0
APPID
  2
AcDbAttr
 70
     0
  0
ENDTAB
  0
TABLE
  2
DIMSTYLE
 70
     1
  0
DIMSTYLE
  2
STANDARD
 70
     0
  3

  4

  5

  6

  7

 40
1.0
 41
0.18
 42
0.0625
 43
0.38
 44
0.18
 45
0.0
 46
0.0
 47
0.0
 48
0.0
140
0.18
141
0.09
142
0.0
143
25.3999999999999986
144
1.0
145
0.0
146
1.0
147
0.09
 71
     0
 72
     0
 73
     1
 74
     1
 75
     0
 76
     0
 77
     0
 78
     0
170
     0
171
     2
172
     0
173
     0
174
     0
175
     0
176
     0
177
     0
178
     0
  0
ENDTAB
  0
ENDSEC
  0
SECTION
  2
BLOCKS
  0
BLOCK
  8
0
  2
$MODEL_SPACE
 70
     0
 10
0.0
 20
0.0
 30
0.0
  3
$MODEL_SPACE
  1

  0
ENDBLK
  5
51
  8
0
  0
BLOCK
 67
     1
  8
0
  2
$PAPER_SPACE
 70
     0
 10
0.0
 20
0.0
 30
0.0
  3
$PAPER_SPACE
  1

  0
ENDBLK
  5
4F
 67
     1
  8
0
  0
BLOCK
  8
0
  2
*S27
 70
     1
 10
0.0
 20
0.0
 30
0.0
  3
*S27
  1

  0
ENDBLK
  5
3F97
  8
0
  0
BLOCK
  8
0
  2
_NONE
 70
     0
 10
0.0
 20
0.0
 30
0.0
  3
_NONE
  1

  0
ENDBLK
  5
4C06
  8
0
  0
BLOCK
  8
0
  2
A$C6F653A4F
 70
     0
 10
0.0
 20
0.0
 30
0.0
  3
A$C6F653A4F
  1

  0
LINE
  5
5FDC
  8
0
  6
CONTINUOUS
 62
     3
 10
-50.5992038234107468
 20
79.999999778810988
 30
-0.0000000000000178
 11
-48.999203823410781
 21
79.999999778810988
 31
-0.0000000000000178
210
0.0
220
1.0
230
-0.0000000000000002
  0
LINE
  5
5FDD
  8
0
  6
CONTINUOUS
 62
     3
 10
-48.9992038234107881
 20
86.9999997788107464
 30
-0.0000000000000193
 11
-48.9992038234107881
 21
79.999999778810988
 31
-0.0000000000000178
210
0.0
220
1.0
230
-0.0000000000000002
  0
LINE
  5
5FDE
  8
0
  6
CONTINUOUS
 62
     3
 10
-48.9992038234107881
 20
86.9999997788107464
 30
-0.0000000000000193
 11
-50.5992038234107468
 21
86.9999997788107464
 31
-0.0000000000000193
210
0.0
220
1.0
230
-0.0000000000000002
  0
LINE
  5
5FDF
  8
0
  6
CONTINUOUS
 62
     3
 10
49.0007961765893185
 20
79.999999778810988
 30
-0.0000000000000178
 11
50.6007961765892915
 21
79.999999778810988
 31
-0.0000000000000178
210
0.0
220
1.0
230
-0.0000000000000002
  0
LINE
  5
5FE0
  8
0
  6
CONTINUOUS
 62
     3
 10
50.6007961765892915
 20
86.9999997788107464
 30
-0.0000000000000193
 11
49.0007961765893185
 21
86.9999997788107464
 31
-0.0000000000000193
210
0.0
220
1.0
230
-0.0000000000000002
  0
LINE
  5
5FE1
  8
0
  6
CONTINUOUS
 62
     3
 10
49.0007961765893185
 20
79.999999778810988
 30
-0.0000000000000178
 11
49.0007961765893185
 21
86.9999997788107464
 31
-0.0000000000000193
210
0.0
220
1.0
230
-0.0000000000000002
  0
LINE
  5
5FE2
  8
0
  6
CONTINUOUS
 62
     3
 10
-35.4317241183837268
 20
79.999999778810988
 30
-0.0000000000000178
 11
-13.5666835284378298
 21
79.999999778810988
 31
-0.0000000000000178
210
0.0
220
1.0
230
-0.0000000000000002
  0
LINE
  5
5FE3
  8
0
  6
CONTINUOUS
 62
     3
 10
-13.5666835284378209
 20
86.9999997788107464
 30
-0.0000000000000193
 11
-35.4317241183837481
 21
86.9999997788107464
 31
-0.0000000000000193
210
0.0
220
1.0
230
-0.0000000000000002
  0
LINE
  5
5FE4
  8
0
  6
CONTINUOUS
 62
     3
 10
-13.5666835284378493
 20
86.9999997788107464
 30
-0.0000000000000193
 11
-13.5666835284378493
 21
79.999999778810988
 31
-0.0000000000000178
210
0.0
220
1.0
230
-0.0000000000000002
  0
LINE
  5
5FE5
  8
0
  6
CONTINUOUS
 62
     3
 10
-35.4317241183837197
 20
79.999999778810988
 30
-0.0000000000000178
 11
-35.4317241183837197
 21
86.9999997788107464
 31
-0.0000000000000193
210
0.0
220
1.0
230
-0.0000000000000002
  0
LINE
  5
5FE6
  8
0
  6
CONTINUOUS
 62
     3
 10
44.5007961765892688
 20
-0.0000002211886283
 30
0.0
 11
-44.4992038234107312
 21
-0.0000002211886283
 31
0.0
210
0.0
220
1.0
230
-0.0000000000000002
  0
LINE
  5
5FE7
  8
0
  6
CONTINUOUS
 62
     3
 10
50.6007961765892773
 20
94.9999997788107606
 30
-0.0000000000000211
 11
-50.5992038234107468
 21
94.9999997788107606
 31
-0.0000000000000211
210
0.0
220
1.0
230
-0.0000000000000002
  0
LINE
  5
5FE8
  8
0
  6
CONTINUOUS
 62
     3
 10
-44.4992038234107525
 20
-0.0000002211886283
 30
0.0
 11
-44.4992038234107525
 21
46.8674323930268102
 31
-0.0000000000000104
210
0.0
220
1.0
230
-0.0000000000000002
  0
LINE
  5
5FE9
  8
0
  6
CONTINUOUS
 62
     3
 10
44.5007961765892901
 20
-0.0000002211886283
 30
0.0
 11
44.5007961765892901
 21
46.8674323930268102
 31
-0.0000000000000104
210
0.0
220
1.0
230
-0.0000000000000002
  0
ARC
  5
5FEA
  8
0
  6
CONTINUOUS
 62
     3
 10
-54.500796176589553
 20
46.8674323930267391
 30
0.0
 40
10.0000000000002292
210
0.0
220
-0.0000000000000002
230
-1.0
 50
0.0000000000003689
 51
37.1870388698018033
  0
ARC
  5
5FEB
  8
0
  6
CONTINUOUS
 62
     3
 10
54.4992038234110083
 20
46.8674323930267391
 30
0.0
 40
10.0000000000002292
210
0.0
220
-0.0000000000000002
230
-1.0
 50
142.8129611301980901
 51
179.9999999999996021
  0
ARC
  5
5FEC
  8
0
  6
CONTINUOUS
 62
     3
 10
-30.6007961765892915
 20
64.9999997788108601
 30
0.0
 40
20.0
210
0.0
220
-0.0000000000000002
230
-1.0
 50
180.000000000000199
 51
217.1870388698023078
  0
ARC
  5
5FED
  8
0
  6
CONTINUOUS
 62
     3
 10
30.5992038234107397
 20
64.9999997788108601
 30
0.0
 40
20.0000000000000213
210
0.0
220
-0.0000000000000002
230
-1.0
 50
322.8129611301977206
 51
359.9999999999997158
  0
LINE
  5
5FEE
  8
0
  6
CONTINUOUS
 62
     3
 10
-50.5992038234107611
 20
64.9999997788107606
 30
-0.0000000000000144
 11
-50.5992038234107611
 21
79.999999778810988
 31
-0.0000000000000178
210
0.0
220
1.0
230
-0.0000000000000002
  0
LINE
  5
5FEF
  8
0
  6
CONTINUOUS
 62
     3
 10
-50.5992038234107611
 20
86.9999997788107464
 30
-0.0000000000000193
 11
-50.5992038234107611
 21
94.9999997788107606
 31
-0.0000000000000211
210
0.0
220
1.0
230
-0.0000000000000002
  0
LINE
  5
5FF0
  8
0
  6
CONTINUOUS
 62
     3
 10
50.6007961765892915
 20
64.9999997788107606
 30
-0.0000000000000144
 11
50.6007961765892915
 21
79.999999778810988
 31
-0.0000000000000178
210
0.0
220
1.0
230
-0.0000000000000002
  0
LINE
  5
5FF1
  8
0
  6
CONTINUOUS
 62
     3
 10
50.6007961765892915
 20
86.9999997788107464
 30
-0.0000000000000193
 11
50.6007961765892915
 21
94.9999997788107606
 31
-0.0000000000000211
210
0.0
220
1.0
230
-0.0000000000000002
  0
LINE
  5
5FF2
  8
0
  6
VERDECKT
 62
     1
 10
-46.9992038234107383
 20
79.999999778810988
 30
-0.0000000000000178
 11
-48.9992038234107312
 21
79.999999778810988
 31
-0.0000000000000178
210
0.0
220
1.0
230
-0.0000000000000002
  0
LINE
  5
5FF3
  8
0
  6
VERDECKT
 62
     1
 10
-46.9992038234107312
 20
79.999999778810988
 30
-0.0000000000000178
 11
-46.9992038234107312
 21
86.9999997788107464
 31
-0.0000000000000193
210
0.0
220
1.0
230
-0.0000000000000002
  0
LINE
  5
5FF4
  8
0
  6
VERDECKT
 62
     1
 10
-48.9992038234107383
 20
86.9999997788107464
 30
-0.0000000000000193
 11
-46.9992038234107312
 21
86.9999997788107464
 31
-0.0000000000000193
210
0.0
220
1.0
230
-0.0000000000000002
  0
LINE
  5
5FF5
  8
0
  6
VERDECKT
 62
     1
 10
-11.4992038234108094
 20
79.999999778810988
 30
-0.0000000000000178
 11
-11.4992038234108094
 21
86.9999997788107464
 31
-0.0000000000000193
210
0.0
220
1.0
230
-0.0000000000000002
  0
LINE
  5
5FF6
  8
0
  6
VERDECKT
 62
     1
 10
-35.4992038234107028
 20
86.9999997788107464
 30
-0.0000000000000193
 11
-35.4992038234107028
 21
79.999999778810988
 31
-0.0000000000000178
210
0.0
220
1.0
230
-0.0000000000000002
  0
LINE
  5
5FF7
  8
0
  6
VERDECKT
 62
     1
 10
-35.4992038234107028
 20
86.9999997788107464
 30
-0.0000000000000193
 11
-35.4317241183837481
 21
86.9999997788107464
 31
-0.0000000000000193
210
0.0
220
1.0
230
-0.0000000000000002
  0
LINE
  5
5FF8
  8
0
  6
VERDECKT
 62
     1
 10
-13.5666835284378298
 20
86.9999997788107464
 30
-0.0000000000000193
 11
-11.4992038234108698
 21
86.9999997788107464
 31
-0.0000000000000193
210
0.0
220
1.0
230
-0.0000000000000002
  0
LINE
  5
5FF9
  8
0
  6
VERDECKT
 62
     1
 10
-35.4317241183837481
 20
79.999999778810988
 30
-0.0000000000000178
 11
-35.4992038234107028
 21
79.999999778810988
 31
-0.0000000000000178
210
0.0
220
1.0
230
-0.0000000000000002
  0
LINE
  5
5FFA
  8
0
  6
VERDECKT
 62
     1
 10
-11.4992038234108698
 20
79.999999778810988
 30
-0.0000000000000178
 11
-13.5666835284378298
 21
79.999999778810988
 31
-0.0000000000000178
210
0.0
220
1.0
230
-0.0000000000000002
  0
LINE
  5
5FFB
  8
0
  6
VERDECKT
 62
     1
 10
47.0007961765892688
 20
86.9999997788107464
 30
-0.0000000000000193
 11
47.0007961765892688
 21
79.999999778810988
 31
-0.0000000000000178
210
0.0
220
1.0
230
-0.0000000000000002
  0
LINE
  5
5FFC
  8
0
  6
VERDECKT
 62
     1
 10
47.0007961765892617
 20
86.9999997788107464
 30
-0.0000000000000193
 11
49.0007961765892688
 21
86.9999997788107464
 31
-0.0000000000000193
210
0.0
220
1.0
230
-0.0000000000000002
  0
LINE
  5
5FFD
  8
0
  6
VERDECKT
 62
     1
 10
49.0007961765892688
 20
79.999999778810988
 30
-0.0000000000000178
 11
47.0007961765892688
 21
79.999999778810988
 31
-0.0000000000000178
210
0.0
220
1.0
230
-0.0000000000000002
  0
LINE
  5
5FFE
  8
0
  6
VERDECKT
 62
     1
 10
-48.9992038234107312
 20
64.9999997788107606
 30
-0.0000000000000144
 11
-48.9992038234107312
 21
79.999999778810988
 31
-0.0000000000000178
210
0.0
220
1.0
230
-0.0000000000000002
  0
LINE
  5
5FFF
  8
0
  6
VERDECKT
 62
     1
 10
-48.9992038234107312
 20
86.9999997788107464
 30
-0.0000000000000193
 11
-48.9992038234107312
 21
94.9999997788107606
 31
-0.0000000000000211
210
0.0
220
1.0
230
-0.0000000000000002
  0
LINE
  5
6000
  8
0
  6
VERDECKT
 62
     1
 10
49.0007961765892688
 20
64.9999997788107606
 30
-0.0000000000000144
 11
49.0007961765892688
 21
79.999999778810988
 31
-0.0000000000000178
210
0.0
220
1.0
230
-0.0000000000000002
  0
LINE
  5
6001
  8
0
  6
VERDECKT
 62
     1
 10
49.0007961765892688
 20
86.9999997788107464
 30
-0.0000000000000193
 11
49.0007961765892688
 21
94.9999997788107606
 31
-0.0000000000000211
210
0.0
220
1.0
230
-0.0000000000000002
  0
ARC
  5
6002
  8
0
  6
VERDECKT
 62
     1
 10
-30.6007961765891991
 20
64.9999997788108743
 30
0.0
 40
18.4000000000000803
210
0.0
220
-0.0000000000000002
230
-1.0
 50
180.0000000000003979
 51
217.1870388698023078
  0
ARC
  5
6003
  8
0
  6
VERDECKT
 62
     1
 10
30.5992038234106616
 20
64.9999997788108743
 30
0.0
 40
18.4000000000000696
210
0.0
220
-0.0000000000000002
230
-1.0
 50
322.8129611301977206
 51
359.9999999999996021
  0
ARC
  5
6004
  8
0
  6
VERDECKT
 62
     1
 10
-54.5007961765893967
 20
46.8674323930269168
 30
0.0
 40
11.6000000000000298
210
0.0
220
-0.0000000000000002
230
-1.0
 50
359.9999999999993747
 51
37.1870388698014835
  0
ARC
  5
6005
  8
0
  6
VERDECKT
 62
     1
 10
54.4992038234108733
 20
46.8674323930269168
 30
0.0
 40
11.6000000000000298
210
0.0
220
-0.0000000000000002
230
-1.0
 50
142.812961130198488
 51
180.0000000000005116
  0
LINE
  5
6006
  8
0
  6
VERDECKT
 62
     1
 10
-42.8992038234107582
 20
-0.0000002211886283
 30
0.0
 11
-42.8992038234107582
 21
46.8674323930268102
 31
-0.0000000000000104
210
0.0
220
1.0
230
-0.0000000000000002
  0
LINE
  5
6007
  8
0
  6
VERDECKT
 62
     1
 10
42.9007961765893029
 20
-0.0000002211886283
 30
0.0
 11
42.9007961765893029
 21
46.8674323930268102
 31
-0.0000000000000104
210
0.0
220
1.0
230
-0.0000000000000002
  0
LINE
  5
6008
  8
0
  6
VERDECKT
 62
     1
 10
19.7017580709127493
 20
86.9999997788106469
 30
-0.0000000000000193
 11
12.7017580709127493
 21
81.9999997788106469
 31
-0.0000000000000182
210
0.0
220
1.0
230
-0.0000000000000002
  0
LINE
  5
6009
  8
0
  6
VERDECKT
 62
     1
 10
15.2998342822660103
 20
81.9999997788106469
 30
-0.0000000000000182
 11
22.2998342822660085
 21
86.9999997788106469
 31
-0.0000000000000193
210
0.0
220
1.0
230
-0.0000000000000002
  0
LINE
  5
600A
  8
0
  6
VERDECKT
 62
     1
 10
15.2998342822660103
 20
81.9999997788106469
 30
-0.0000000000000182
 11
12.7017580709127493
 21
81.9999997788106469
 31
-0.0000000000000182
210
0.0
220
1.0
230
-0.0000000000000002
  0
LINE
  5
600B
  8
0
  6
VERDECKT
 62
     1
 10
12.7017580709127493
 20
81.9999997788106469
 30
-0.0000000000000182
 11
9.2017580709127547
 21
81.9999997788107464
 31
-0.0000000000000182
210
0.0
220
1.0
230
-0.0000000000000002
  0
LINE
  5
600C
  8
0
  6
VERDECKT
 62
     1
 10
9.2017580709126392
 20
81.9999997788107464
 30
-0.0000000000000182
 11
9.2017580709126374
 21
74.799999778810772
 31
-0.0000000000000166
210
0.0
220
1.0
230
-0.0000000000000002
  0
LINE
  5
600D
  8
0
  6
VERDECKT
 62
     1
 10
11.7998342822660103
 20
74.7999997788108288
 30
-0.0000000000000166
 11
11.7998342822660103
 21
81.9999997788108175
 31
-0.0000000000000182
210
0.0
220
1.0
230
-0.0000000000000002
  0
LINE
  5
600E
  8
0
  6
VERDECKT
 62
     1
 10
9.2017580709126392
 20
74.7999997788108288
 30
-0.0000000000000166
 11
12.7017580709127493
 21
74.7999997788108288
 31
-0.0000000000000166
210
0.0
220
1.0
230
-0.0000000000000002
  0
LINE
  5
600F
  8
0
  6
VERDECKT
 62
     1
 10
15.2998342822660103
 20
74.7999997788108288
 30
-0.0000000000000166
 11
12.7017580709127493
 21
74.7999997788108288
 31
-0.0000000000000166
210
0.0
220
1.0
230
-0.0000000000000002
  0
LINE
  5
6010
  8
0
  6
VERDECKT
 62
     1
 10
12.7017580709126392
 20
74.7999997788108288
 30
-0.0000000000000166
 11
19.7017580709126285
 21
69.7999997788108288
 31
-0.0000000000000155
210
0.0
220
1.0
230
-0.0000000000000002
  0
LINE
  5
6011
  8
0
  6
VERDECKT
 62
     1
 10
22.2998342822660085
 20
69.7999997788108288
 30
-0.0000000000000155
 11
15.2998342822660103
 21
74.7999997788108288
 31
-0.0000000000000166
210
0.0
220
1.0
230
-0.0000000000000002
  0
LINE
  5
6012
  8
0
  6
VERDECKT
 62
     1
 10
19.7017580709126392
 20
69.7999997788108288
 30
-0.0000000000000155
 11
23.2017580709126392
 21
69.7999997788107152
 31
-0.0000000000000155
210
0.0
220
1.0
230
-0.0000000000000002
  0
LINE
  5
6013
  8
0
  6
VERDECKT
 62
     1
 10
25.7998342822660085
 20
69.7999997788107152
 30
-0.0000000000000155
 11
23.2017580709127493
 21
69.7999997788107152
 31
-0.0000000000000155
210
0.0
220
1.0
230
-0.0000000000000002
  0
LINE
  5
6014
  8
0
  6
VERDECKT
 62
     1
 10
23.2017580709126392
 20
69.7999997788107152
 30
-0.0000000000000155
 11
23.2017580709126392
 21
72.2999997788107152
 31
-0.0000000000000161
210
0.0
220
1.0
230
-0.0000000000000002
  0
LINE
  5
6015
  8
0
  6
VERDECKT
 62
     1
 10
25.7998342822660085
 20
72.2999997788107152
 30
-0.0000000000000161
 11
25.7998342822660085
 21
69.7999997788107152
 31
-0.0000000000000155
210
0.0
220
1.0
230
-0.0000000000000002
  0
LINE
  5
6016
  8
0
  6
VERDECKT
 62
     1
 10
25.7998342822660085
 20
72.2999997788107152
 30
-0.0000000000000161
 11
23.2017580709127493
 21
72.2999997788107152
 31
-0.0000000000000161
210
0.0
220
1.0
230
-0.0000000000000002
  0
LINE
  5
6017
  8
0
  6
VERDECKT
 62
     1
 10
23.2017580709126392
 20
72.2999997788107152
 30
-0.0000000000000161
 11
22.2017580709126392
 21
73.4547003171900172
 31
-0.0000000000000163
210
0.0
220
1.0
230
-0.0000000000000002
  0
LINE
  5
6018
  8
0
  6
VERDECKT
 62
     1
 10
24.7998342822660192
 20
73.4547003171900172
 30
-0.0000000000000163
 11
25.7998342822660085
 21
72.2999997788107152
 31
-0.0000000000000161
210
0.0
220
1.0
230
-0.0000000000000002
  0
LINE
  5
6019
  8
0
  6
VERDECKT
 62
     1
 10
24.7998342822660192
 20
73.4547003171900172
 30
-0.0000000000000163
 11
22.2017580709127493
 21
73.4547003171900172
 31
-0.0000000000000163
210
0.0
220
1.0
230
-0.0000000000000002
  0
LINE
  5
601A
  8
0
  6
VERDECKT
 62
     1
 10
22.2017580709126392
 20
73.4547003171900741
 30
-0.0000000000000163
 11
22.2017580709126392
 21
83.3452992404315154
 31
-0.0000000000000185
210
0.0
220
1.0
230
-0.0000000000000002
  0
LINE
  5
601B
  8
0
  6
VERDECKT
 62
     1
 10
24.7998342822660192
 20
83.3452992404314443
 30
-0.0000000000000185
 11
24.7998342822660085
 21
73.4547003171900172
 31
-0.0000000000000163
210
0.0
220
1.0
230
-0.0000000000000002
  0
LINE
  5
601C
  8
0
  6
VERDECKT
 62
     1
 10
24.7998342822660192
 20
83.3452992404314443
 30
-0.0000000000000185
 11
22.2017580709127493
 21
83.3452992404314443
 31
-0.0000000000000185
210
0.0
220
1.0
230
-0.0000000000000002
  0
LINE
  5
601D
  8
0
  6
VERDECKT
 62
     1
 10
22.2017580709126392
 20
83.3452992404314443
 30
-0.0000000000000185
 11
23.2017580709126392
 21
84.4999997788107464
 31
-0.0000000000000188
210
0.0
220
1.0
230
-0.0000000000000002
  0
LINE
  5
601E
  8
0
  6
VERDECKT
 62
     1
 10
25.7998342822660085
 20
84.4999997788107464
 30
-0.0000000000000188
 11
24.7998342822660192
 21
83.3452992404314443
 31
-0.0000000000000185
210
0.0
220
1.0
230
-0.0000000000000002
  0
LINE
  5
601F
  8
0
  6
VERDECKT
 62
     1
 10
25.7998342822660085
 20
84.4999997788107464
 30
-0.0000000000000188
 11
23.2017580709127493
 21
84.4999997788107464
 31
-0.0000000000000188
210
0.0
220
1.0
230
-0.0000000000000002
  0
LINE
  5
6020
  8
0
  6
VERDECKT
 62
     1
 10
23.2017580709126392
 20
84.4999997788107464
 30
-0.0000000000000188
 11
23.2017580709126392
 21
86.9999997788107464
 31
-0.0000000000000193
210
0.0
220
1.0
230
-0.0000000000000002
  0
LINE
  5
6021
  8
0
  6
VERDECKT
 62
     1
 10
25.7998342822660085
 20
86.9999997788107464
 30
-0.0000000000000193
 11
25.7998342822660085
 21
84.4999997788107464
 31
-0.0000000000000188
210
0.0
220
1.0
230
-0.0000000000000002
  0
LINE
  5
6022
  8
0
  6
VERDECKT
 62
     1
 10
25.7998342822660085
 20
86.9999997788107464
 30
-0.0000000000000193
 11
23.2017580709127493
 21
86.9999997788107464
 31
-0.0000000000000193
210
0.0
220
1.0
230
-0.0000000000000002
  0
LINE
  5
6023
  8
0
  6
VERDECKT
 62
     1
 10
23.2017580709126392
 20
86.9999997788107464
 30
-0.0000000000000193
 11
19.7017580709126392
 21
86.9999997788106469
 31
-0.0000000000000193
210
0.0
220
1.0
230
-0.0000000000000002
  0
LINE
  5
6024
  8
0
  6
VERDECKT
 62
     1
 10
47.9569590619100765
 20
60.1537781719752402
 30
-0.0000000000000134
 11
-47.9553667087316597
 21
60.1537781719752402
 31
-0.0000000000000134
210
0.0
220
1.0
230
-0.0000000000000002
  0
LINE
  5
6025
  8
0
  6
VERDECKT
 62
     1
 10
47.2994023417264486
 20
61.5019692414239572
 30
-0.0000000000000137
 11
-47.2978099885480319
 21
61.5019692414239572
 31
-0.0000000000000137
210
0.0
220
1.0
230
-0.0000000000000002
  0
LINE
  5
6026
  8
0
  6
VERDECKT
 62
     1
 10
24.5082403912742208
 20
2.1492553573430371
 30
-0.0000000000000005
 11
-24.5066480380958005
 21
2.1492553573430371
 31
-0.0000000000000005
210
0.0
220
1.0
230
-0.0000000000000002
  0
LINE
  5
6027
  8
0
  6
VERDECKT
 62
     1
 10
26.0007961765892084
 20
1.999999778811542
 30
-0.0000000000000004
 11
-25.9992038234107916
 21
1.999999778811542
 31
-0.0000000000000004
210
0.0
220
1.0
230
-0.0000000000000002
  0
LINE
  5
6028
  8
0
  6
VERDECKT
 62
     1
 10
-26.4992038234107916
 20
6.9999997788122261
 30
-0.0000000000000016
 11
-26.4992038234107916
 21
38.1288252969041892
 31
-0.0000000000000085
210
0.0
220
1.0
230
-0.0000000000000002
  0
LINE
  5
6029
  8
0
  6
VERDECKT
 62
     1
 10
26.5007961765892084
 20
6.9999997788122261
 30
-0.0000000000000016
 11
26.5007961765892084
 21
38.1288252969041892
 31
-0.0000000000000085
210
0.0
220
1.0
230
-0.0000000000000002
  0
ARC
  5
602A
  8
0
  6
VERDECKT
 62
     1
 10
-45.0007961765892617
 20
38.1288252969042176
 30
0.0
 40
18.5000000000000497
210
0.0
220
-0.0000000000000002
230
-1.0
 50
359.9999999999998863
 51
63.99999999999919
  0
ARC
  5
602B
  8
0
  6
VERDECKT
 62
     1
 10
44.9992038234108378
 20
38.1288252969042105
 30
0.0
 40
18.5000000000000604
210
0.0
220
-0.0000000000000002
230
-1.0
 50
116.0000000000007958
 51
180.0
  0
LINE
  5
602C
  8
0
  6
VERDECKT
 62
     1
 10
-36.8893376078126423
 20
54.7565151534387624
 30
-0.0000000000000122
 11
-47.9553667087316668
 21
60.1537781719752402
 31
-0.0000000000000134
210
0.0
220
1.0
230
-0.0000000000000002
  0
LINE
  5
602D
  8
0
  6
VERDECKT
 62
     1
 10
36.8909299609910732
 20
54.7565151534387624
 30
-0.0000000000000122
 11
47.9569590619100907
 21
60.1537781719752402
 31
-0.0000000000000134
210
0.0
220
1.0
230
-0.0000000000000002
  0
LINE
  5
602E
  8
0
  6
VERDECKT
 62
     1
 10
47.2994023417264486
 20
61.5019692414239572
 30
-0.0000000000000137
 11
47.9569590619100907
 21
60.1537781719752402
 31
-0.0000000000000134
210
0.0
220
1.0
230
-0.0000000000000002
  0
LINE
  5
602F
  8
0
  6
VERDECKT
 62
     1
 10
-47.2978099885480319
 20
61.5019692414239572
 30
-0.0000000000000137
 11
-47.9553667087316668
 21
60.1537781719752402
 31
-0.0000000000000134
210
0.0
220
1.0
230
-0.0000000000000002
  0
LINE
  5
6030
  8
0
  6
VERDECKT
 62
     1
 10
-36.2317808876290428
 20
56.1047062228874296
 30
-0.0000000000000125
 11
-47.2978099885480319
 21
61.5019692414239572
 31
-0.0000000000000137
210
0.0
220
1.0
230
-0.0000000000000002
  0
LINE
  5
6031
  8
0
  6
VERDECKT
 62
     1
 10
36.2333732408074596
 20
56.1047062228874296
 30
-0.0000000000000125
 11
47.2994023417264486
 21
61.5019692414239572
 31
-0.0000000000000137
210
0.0
220
1.0
230
-0.0000000000000002
  0
ARC
  5
6032
  8
0
  6
VERDECKT
 62
     1
 10
-45.0007961765891906
 20
38.1288252969042105
 30
0.0
 40
19.9999999999999716
210
0.0
220
-0.0000000000000002
230
-1.0
 50
359.9999999999998863
 51
63.9999999999993818
  0
ARC
  5
6033
  8
0
  6
VERDECKT
 62
     1
 10
44.9992038234107596
 20
38.1288252969042176
 30
0.0
 40
19.9999999999999609
210
0.0
220
-0.0000000000000002
230
-1.0
 50
116.0000000000005969
 51
180.0
  0
LINE
  5
6034
  8
0
  6
VERDECKT
 62
     1
 10
-24.9992038234107916
 20
7.0748132104937742
 30
-0.0000000000000016
 11
-24.9992038234107916
 21
38.1288252969041892
 31
-0.0000000000000085
210
0.0
220
1.0
230
-0.0000000000000002
  0
LINE
  5
6035
  8
0
  6
VERDECKT
 62
     1
 10
25.0007961765892084
 20
7.0748132104937742
 30
-0.0000000000000016
 11
25.0007961765892084
 21
38.1288252969041892
 31
-0.0000000000000085
210
0.0
220
1.0
230
-0.0000000000000002
  0
LINE
  5
6036
  8
0
  6
VERDECKT
 62
     1
 10
-24.5066480380958005
 20
2.1492553573430371
 30
-0.0000000000000005
 11
-24.9992038234107916
 21
7.0748132104937742
 31
-0.0000000000000016
210
0.0
220
1.0
230
-0.0000000000000002
  0
LINE
  5
6037
  8
0
  6
VERDECKT
 62
     1
 10
24.5082403912742208
 20
2.1492553573430371
 30
-0.0000000000000005
 11
25.0007961765892084
 21
7.0748132104937742
 31
-0.0000000000000016
210
0.0
220
1.0
230
-0.0000000000000002
  0
LINE
  5
6038
  8
0
  6
VERDECKT
 62
     1
 10
24.5082403912742208
 20
2.1492553573430371
 30
-0.0000000000000005
 11
26.0007961765892084
 21
1.999999778811542
 31
-0.0000000000000004
210
0.0
220
1.0
230
-0.0000000000000002
  0
LINE
  5
6039
  8
0
  6
VERDECKT
 62
     1
 10
-24.5066480380958005
 20
2.1492553573430371
 30
-0.0000000000000005
 11
-25.9992038234107916
 21
1.999999778811542
 31
-0.0000000000000004
210
0.0
220
1.0
230
-0.0000000000000002
  0
LINE
  5
603A
  8
0
  6
VERDECKT
 62
     1
 10
-25.9992038234107916
 20
1.999999778811542
 30
-0.0000000000000004
 11
-26.4992038234107916
 21
6.9999997788122261
 31
-0.0000000000000016
210
0.0
220
1.0
230
-0.0000000000000002
  0
LINE
  5
603B
  8
0
  6
VERDECKT
 62
     1
 10
26.0007961765892084
 20
1.999999778811542
 30
-0.0000000000000004
 11
26.5007961765892084
 21
6.9999997788122261
 31
-0.0000000000000016
210
0.0
220
1.0
230
-0.0000000000000002
  0
ENDBLK
  5
603D
  8
0
  0
BLOCK
  8
0
  2
A$C49BA416A
 70
     0
 10
0.0
 20
0.0
 30
0.0
  3
A$C49BA416A
  1

  0
LINE
  5
6041
  8
0
  6
CONTINUOUS
 62
     3
 10
19.7009618943235587
 20
37.1230669589464526
 30
0.0
 11
12.7009618943235605
 21
24.9987113059644095
 31
-0.0000000000000018
  0
LINE
  5
6042
  8
0
  6
CONTINUOUS
 62
     3
 10
15.2990381056768197
 20
23.4987113059644095
 30
0.0
 11
12.7009618943235605
 21
24.9987113059644095
 31
-0.0000000000000006
  0
LINE
  5
6043
  8
0
  6
CONTINUOUS
 62
     3
 10
15.2990381056768197
 20
23.4987113059644095
 30
0.0
 11
22.2990381056768214
 21
35.6230669589464526
 31
0.0000000000000018
  0
LINE
  5
6044
  8
0
  6
CONTINUOUS
 62
     3
 10
22.2990381056768214
 20
35.6230669589464028
 30
0.0
 11
19.7009618943235587
 21
37.1230669589464028
 31
-0.0000000000000006
  0
LINE
  5
6045
  8
0
  6
CONTINUOUS
 62
     3
 10
12.7009618943235605
 20
24.9987113059644308
 30
0.0
 11
9.2009618943235587
 21
18.9365334794733613
 31
-0.0000000000000008
  0
LINE
  5
6046
  8
0
  6
CONTINUOUS
 62
     3
 10
11.7990381056768197
 20
17.4365334794733613
 30
0.0
 11
9.2009618943235587
 21
18.9365334794733613
 31
-0.0000000000000006
  0
LINE
  5
6047
  8
0
  6
CONTINUOUS
 62
     3
 10
11.7990381056768197
 20
17.4365334794733613
 30
0.0
 11
15.2990381056768197
 21
23.4987113059644308
 31
0.0000000000000008
  0
LINE
  5
6048
  8
0
  6
CONTINUOUS
 62
     3
 10
23.1894796118171094
 20
43.1653568887495709
 30
0.0
 11
19.7009618943234415
 21
37.1230669589464028
 31
-0.0000000000000008
  0
LINE
  5
6049
  8
0
  6
CONTINUOUS
 62
     3
 10
22.2990381056768214
 20
35.6230669589464028
 30
0.0
 11
25.7875558231704787
 21
41.6653568887495496
 31
0.0000000000000008
  0
LINE
  5
604A
  8
0
  6
CONTINUOUS
 62
     3
 10
-46.9999999999999218
 20
-13.8564064605510495
 30
-0.0000000000000142
 11
-46.9999999999999218
 21
13.8564064605509802
 31
-0.0000000000000142
  0
LINE
  5
604B
  8
0
  6
CONTINUOUS
 62
     3
 10
-11.5000000000000604
 20
-47.6313972081441221
 30
0.0
 11
-35.4999999999999005
 21
-33.7749907475931792
 31
-0.0000000000000053
  0
LINE
  5
604C
  8
0
  6
CONTINUOUS
 62
     3
 10
-35.4999999999999218
 20
33.7749907475930513
 30
-0.0000000000000142
 11
-11.4999999999999201
 21
47.6313972081440795
 31
-0.0000000000000089
  0
LINE
  5
604D
  8
0
  6
CONTINUOUS
 62
     3
 10
47.0000000000000782
 20
13.8564064605509696
 30
0.0000000000000142
 11
47.0000000000000782
 21
-13.8564064605510602
 31
0.0000000000000142
  0
CIRCLE
  5
604E
  8
0
  6
CONTINUOUS
 62
     3
 10
0.0000000000000779
 20
-0.0000000000000447
 30
0.0
 40
50.6000000000000227
  0
CIRCLE
  5
604F
  8
0
  6
CONTINUOUS
 62
     3
 10
0.0000000000000779
 20
-0.0000000000000447
 30
0.0
 40
49.0
  0
LINE
  5
6050
  8
0
  6
CONTINUOUS
 62
     3
 10
19.7009618943235587
 20
-37.1230669589457776
 30
0.0
 11
12.7009618943235605
 21
-24.9987113059637309
 31
-0.0000000000000018
  0
LINE
  5
6051
  8
0
  6
CONTINUOUS
 62
     3
 10
22.2990381056768214
 20
-35.6230669589457278
 30
0.0
 11
19.7009618943235587
 21
-37.1230669589457278
 31
-0.0000000000000006
  0
LINE
  5
6052
  8
0
  6
CONTINUOUS
 62
     3
 10
15.2990381056768197
 20
-23.4987113059637309
 30
0.0
 11
22.2990381056768214
 21
-35.6230669589457776
 31
0.0000000000000018
  0
LINE
  5
6053
  8
0
  6
CONTINUOUS
 62
     3
 10
15.2990381056768197
 20
-23.4987113059637309
 30
0.0
 11
12.7009618943235605
 21
-24.9987113059637309
 31
-0.0000000000000006
  0
LINE
  5
6054
  8
0
  6
CONTINUOUS
 62
     3
 10
12.7009618943235605
 20
-24.9987113059637487
 30
0.0
 11
9.2009618943235605
 21
-18.9365334794726685
 31
-0.0000000000000008
  0
LINE
  5
6055
  8
0
  6
CONTINUOUS
 62
     3
 10
11.7990381056768197
 20
-17.4365334794726685
 30
0.0
 11
15.2990381056768108
 21
-23.4987113059637416
 31
0.0000000000000008
  0
LINE
  5
6056
  8
0
  6
CONTINUOUS
 62
     3
 10
11.7990381056768197
 20
-17.4365334794726685
 30
0.0
 11
9.2009618943235587
 21
-18.9365334794726685
 31
-0.0000000000000006
  0
LINE
  5
6057
  8
0
  6
CONTINUOUS
 62
     3
 10
23.1894796118174504
 20
-43.1653568887494927
 30
0.0
 11
19.7009618943234415
 21
-37.1230669589457278
 31
-0.0000000000000008
  0
LINE
  5
6058
  8
0
  6
CONTINUOUS
 62
     3
 10
22.2990381056768214
 20
-35.6230669589457278
 30
0.0
 11
25.7875558231707096
 21
-41.6653568887494004
 31
0.0000000000000008
  0
ARC
  5
6059
  8
0
  6
CONTINUOUS
 62
     3
 10
-0.0000000000000222
 20
-0.0000000000000295
 30
0.0
 40
47.9561628853209072
 50
11.4605536935704801
 51
58.2075778360109908
  0
ARC
  5
605A
  8
0
  6
CONTINUOUS
 62
     3
 10
0.0000000000000214
 20
0.0000000000000273
 30
0.0
 40
47.9561628853208433
 50
61.7924221639887321
 51
108.5394463064288999
  0
ARC
  5
605B
  8
0
  6
CONTINUOUS
 62
     3
 10
0.0000000000000063
 20
0.0000000000000024
 30
0.0
 40
47.9561628853208575
 50
131.4605536935710859
 51
168.5394463064288004
  0
ARC
  5
605C
  8
0
  6
CONTINUOUS
 62
     3
 10
-0.0000000000000328
 20
-0.0000000000000295
 30
0.0
 40
47.956162885320829
 50
191.4605536935710859
 51
228.539446306429312
  0
ARC
  5
605D
  8
0
  6
CONTINUOUS
 62
     3
 10
0.0000000000000063
 20
0.0000000000000131
 30
0.0
 40
47.9561628853209001
 50
251.4605536935706027
 51
298.2075778360116942
  0
ARC
  5
605E
  8
0
  6
CONTINUOUS
 62
     3
 10
-0.000000000000008
 20
0.0000000000000024
 30
0.0
 40
47.9561628853209001
 50
301.7924221639894995
 51
348.5394463064296247
  0
ARC
  5
605F
  8
0
  6
CONTINUOUS
 62
     3
 10
-0.0000000000000006
 20
-0.0000000000000152
 30
0.0
 40
47.2986061651372509
 50
6.4415679384137352
 51
58.1826508446915582
  0
ARC
  5
6060
  8
0
  6
CONTINUOUS
 62
     3
 10
0.0000000000000154
 20
-0.0000000000000366
 30
0.0
 40
47.298606165137258
 50
61.8173491553081789
 51
113.5584320615849947
  0
ARC
  5
6061
  8
0
  6
CONTINUOUS
 62
     3
 10
0.000000000000035
 20
-0.0000000000000295
 30
0.0
 40
47.298606165137258
 50
126.4415679384150053
 51
173.5584320615849094
  0
ARC
  5
6062
  8
0
  6
CONTINUOUS
 62
     3
 10
-0.0000000000000041
 20
-0.0000000000000224
 30
0.0
 40
47.2986061651372225
 50
186.4415679384148916
 51
233.5584320615857905
  0
ARC
  5
6063
  8
0
  6
CONTINUOUS
 62
     3
 10
0.0000000000000172
 20
-0.0000000000000366
 30
0.0
 40
47.2986061651372083
 50
246.4415679384140958
 51
298.1826508446923185
  0
ARC
  5
6064
  8
0
  6
CONTINUOUS
 62
     3
 10
0.0000000000000492
 20
-0.0000000000000277
 30
0.0
 40
47.2986061651372083
 50
301.8173491553088184
 51
353.5584320615863021
  0
ARC
  5
6065
  8
0
  6
CONTINUOUS
 62
     3
 10
-0.0000000000000022
 20
-0.0000000000000167
 30
0.0
 40
25.0000000000000284
 50
0.0000000000000254
 51
56.5601872324847079
  0
ARC
  5
6066
  8
0
  6
CONTINUOUS
 62
     3
 10
0.0000000000000094
 20
-0.0000000000000078
 30
0.0
 40
25.0000000000000107
 50
63.4398127675149723
 51
296.5601872324858732
  0
ARC
  5
6067
  8
0
  6
CONTINUOUS
 62
     3
 10
0.0000000000000014
 20
-0.0000000000000069
 30
0.0
 40
25.0000000000000213
 50
303.4398127675161163
 51
0.0
  0
ARC
  5
6068
  8
0
  6
CONTINUOUS
 62
     3
 10
-0.0000000000000102
 20
-0.0000000000000189
 30
0.0
 40
24.5074442146850195
 50
0.0000000000000254
 51
56.4909674389274414
  0
ARC
  5
6069
  8
0
  6
CONTINUOUS
 62
     3
 10
-0.0000000000000004
 20
-0.0000000000000118
 30
0.0
 40
24.5074442146850089
 50
63.5090325610722388
 51
296.4909674389285783
  0
ARC
  5
606A
  8
0
  6
CONTINUOUS
 62
     3
 10
0.0000000000000005
 20
-0.0000000000000118
 30
0.0
 40
24.5074442146850089
 50
303.5090325610734112
 51
0.0
  0
LINE
  5
606B
  8
0
  6
VERDECKT
 62
     1
 10
24.7990381056768214
 20
39.953193977868608
 30
0.0
 11
22.2009618943235587
 21
41.4531939778686009
 31
-0.0000000000000006
  0
LINE
  5
606C
  8
0
  6
VERDECKT
 62
     1
 10
25.7990381056768214
 20
41.6852447854374404
 30
0.0
 11
23.2009618943235587
 21
43.1852447854374475
 31
-0.0000000000000006
  0
LINE
  5
606D
  8
0
  6
VERDECKT
 62
     1
 10
23.2009618943234415
 20
43.1852447854374475
 30
0.0
 11
23.1894796118171094
 21
43.1653568887495709
 31
0.0
  0
LINE
  5
606E
  8
0
  6
VERDECKT
 62
     1
 10
25.7875558231704787
 20
41.6653568887495496
 30
0.0
 11
25.7990381056768214
 21
41.6852447854374617
 31
0.0
  0
LINE
  5
606F
  8
0
  6
VERDECKT
 62
     1
 10
-48.9999999999999787
 20
-12.6237870704475394
 30
-0.0000000000000142
 11
-48.9999999999999787
 21
-0.0000000000000391
 31
-0.0000000000000142
  0
LINE
  5
6070
  8
0
  6
VERDECKT
 62
     1
 10
-48.9999999999999787
 20
-0.0000000000000392
 30
-0.0000000000000142
 11
-48.9999999999999787
 21
12.62378707044744
 31
-0.0000000000000142
  0
LINE
  5
6071
  8
0
  6
VERDECKT
 62
     1
 10
49.0000000000001279
 20
-0.0000000000000398
 30
0.0000000000000142
 11
49.0000000000001279
 21
-12.6237870704475199
 31
0.0000000000000142
  0
LINE
  5
6072
  8
0
  6
VERDECKT
 62
     1
 10
49.0000000000001279
 20
12.62378707044744
 30
0.0000000000000142
 11
49.0000000000001279
 21
-0.0000000000000391
 31
0.0000000000000142
  0
LINE
  5
6073
  8
0
  6
VERDECKT
 62
     1
 10
-24.4999999999999289
 20
42.4352447854375114
 30
0.0
 11
-13.5674797050268499
 21
48.7471383206612501
 31
0.0000000000000024
  0
LINE
  5
6074
  8
0
  6
VERDECKT
 62
     1
 10
-35.4325202949730027
 20
36.1233512502137728
 30
-0.0000000000000142
 11
-24.4999999999999183
 21
42.4352447854375114
 31
-0.0000000000000118
  0
LINE
  5
6075
  8
0
  6
VERDECKT
 62
     1
 10
-24.4999999999999787
 20
-42.4352447854375967
 30
0.0
 11
-35.432520294972953
 21
-36.123351250213922
 31
-0.0000000000000024
  0
LINE
  5
6076
  8
0
  6
VERDECKT
 62
     1
 10
-13.5674797050270204
 20
-48.7471383206612927
 30
0.0
 11
-24.4999999999999787
 21
-42.4352447854375967
 31
-0.0000000000000024
  0
CIRCLE
  5
6077
  8
0
  6
VERDECKT
 62
     1
 10
0.0000000000000673
 20
-0.0000000000000476
 30
0.0
 40
44.5000000000000497
  0
CIRCLE
  5
6078
  8
0
  6
VERDECKT
 62
     1
 10
0.0000000000000673
 20
-0.0000000000000476
 30
0.0
 40
42.9000000000000767
  0
LINE
  5
6079
  8
0
  6
VERDECKT
 62
     1
 10
24.7990381056768214
 20
-39.9531939778679401
 30
0.0
 11
22.2009618943235587
 21
-41.4531939778679401
 31
-0.0000000000000006
  0
LINE
  5
607A
  8
0
  6
VERDECKT
 62
     1
 10
25.7990381056768214
 20
-41.6852447854367796
 30
0.0
 11
23.2009618943235587
 21
-43.1852447854367796
 31
-0.0000000000000006
  0
LINE
  5
607B
  8
0
  6
VERDECKT
 62
     1
 10
23.2009618943234415
 20
-43.1852447854367867
 30
0.0
 11
23.1894796118174504
 21
-43.1653568887494927
 31
0.0
  0
LINE
  5
607C
  8
0
  6
VERDECKT
 62
     1
 10
25.7875558231707096
 20
-41.6653568887494004
 30
0.0
 11
25.7990381056768214
 21
-41.6852447854367867
 31
0.0
  0
CIRCLE
  5
607D
  8
0
  6
VERDECKT
 62
     1
 10
0.0000000000000085
 20
-0.0000000000000096
 30
0.0
 40
26.5
  0
ARC
  5
607E
  8
0
  6
VERDECKT
 62
     1
 10
0.0000000000000773
 20
-0.0000000000000056
 30
0.0
 40
47.9561628853208006
 50
0.0
 51
11.4605536935704606
  0
ARC
  5
607F
  8
0
  6
VERDECKT
 62
     1
 10
0.0000000000013954
 20
0.0000000000024218
 30
0.0
 40
47.9561628853180792
 50
58.2075778360108913
 51
61.7924221639888316
  0
ARC
  5
6080
  8
0
  6
VERDECKT
 62
     1
 10
-0.0000000000000506
 20
0.000000000000077
 30
0.0
 40
47.9561628853207722
 50
108.5394463064288004
 51
131.4605536935710859
  0
ARC
  5
6081
  8
0
  6
VERDECKT
 62
     1
 10
-0.0000000000001074
 20
-0.0000000000000091
 30
0.0
 40
47.956162885320758
 50
168.5394463064288004
 51
191.4605536935710859
  0
ARC
  5
6082
  8
0
  6
VERDECKT
 62
     1
 10
0.0000000000000347
 20
-0.0000000000000011
 30
0.0
 40
47.9561628853209001
 50
228.5394463064291983
 51
251.4605536935706027
  0
ARC
  5
6083
  8
0
  6
VERDECKT
 62
     1
 10
-0.0000000000022675
 20
0.00000000000412
 30
0.0
 40
47.9561628853255897
 50
298.2075778360118079
 51
301.7924221639891016
  0
ARC
  5
6084
  8
0
  6
VERDECKT
 62
     1
 10
0.0000000000005036
 20
-0.000000000000062
 30
0.0
 40
47.9561628853203885
 50
348.539446306429511
 51
0.0000000000000509
  0
ARC
  5
6085
  8
0
  6
VERDECKT
 62
     1
 10
-0.0000000000023738
 20
-0.0000000000001489
 30
0.0
 40
47.298606165139617
 50
0.0000000000001781
 51
6.4415679384135807
  0
ARC
  5
6086
  8
0
  6
VERDECKT
 62
     1
 10
-0.0000000000012191
 20
-0.0000000000021114
 30
0.0
 40
47.298606165139681
 50
58.1826508446916506
 51
61.8173491553080581
  0
ARC
  5
6087
  8
0
  6
VERDECKT
 62
     1
 10
-0.0000000000004446
 20
0.0000000000007877
 30
0.0
 40
47.2986061651363272
 50
113.5584320615848952
 51
126.4415679384151048
  0
ARC
  5
6088
  8
0
  6
VERDECKT
 62
     1
 10
0.000000000000305
 20
0.0000000000000078
 30
0.0
 40
47.298606165137528
 50
173.5584320615849947
 51
186.4415679384148916
  0
ARC
  5
6089
  8
0
  6
VERDECKT
 62
     1
 10
0.000000000000202
 20
0.0000000000003613
 30
0.0
 40
47.2986061651376488
 50
233.5584320615857905
 51
246.4415679384140958
  0
ARC
  5
608A
  8
0
  6
VERDECKT
 62
     1
 10
0.0000000000001344
 20
-0.0000000000001005
 30
0.0
 40
47.2986061651371017
 50
298.1826508446920911
 51
301.8173491553087047
  0
ARC
  5
608B
  8
0
  6
VERDECKT
 62
     1
 10
-0.0000000000015353
 20
0.000000000000078
 30
0.0
 40
47.2986061651387928
 50
353.5584320615864158
 51
359.9999999999998863
  0
ARC
  5
608C
  8
0
  6
VERDECKT
 62
     1
 10
-0.0000000000001017
 20
-0.0000000000002014
 30
0.0
 40
25.0000000000002416
 50
56.5601872324847506
 51
63.4398127675149368
  0
ARC
  5
608D
  8
0
  6
VERDECKT
 62
     1
 10
-0.0000000000000875
 20
0.0000000000001787
 30
0.0
 40
25.0000000000002203
 50
296.5601872324858732
 51
303.4398127675161163
  0
ARC
  5
608E
  8
0
  6
VERDECKT
 62
     1
 10
0.0000000000005813
 20
0.0000000000009723
 30
0.0
 40
24.5074442146838685
 50
56.4909674389273135
 51
63.5090325610724165
  0
ARC
  5
608F
  8
0
  6
VERDECKT
 62
     1
 10
-0.0000000000001807
 20
0.0000000000003257
 30
0.0
 40
24.5074442146853784
 50
296.4909674389285783
 51
303.5090325610732975
  0
CIRCLE
  5
6090
  8
0
  6
VERDECKT
 62
     1
 10
0.0000000000000004
 20
-0.0000000000000118
 30
0.0
 40
26.0
  0
ENDBLK
  5
6092
  8
0
  0
ENDSEC
  0
SECTION
  2
ENTITIES
  0
TEXT
  5
707
  8
VOLL
 10
406.9226713819618908
 20
88.16832126801296
 30
0.0
 40
1.8
  1

  7
GREEKS
  0
TEXT
  5
144D
  8
VOLL
 10
-250.0442275188771077
 20
199.4304662073776058
 30
0.0
 40
1.8
  1

  7
GREEKS
  0
TEXT
  5
2641
  8
VOLL
 10
-146.7301301204718982
 20
472.3474046293471247
 30
0.0
 40
1.8
  1

  7
GREEKS
  0
TEXT
  5
2B08
  8
VOLL
 10
436.9420172372055049
 20
454.8233504623087242
 30
0.0
 40
1.8
  1

  7
GREEKS
  0
INSERT
  5
3F99
  8
ADSK_ASSOC_ENTITY_BACKUPS
  2
*S27
 10
0.0
 20
0.0
 30
0.0
  0
INSERT
  5
603E
  8
STEMPEL
  2
A$C6F653A4F
 10
0.0
 20
0.0
 30
0.0
  0
INSERT
  5
6093
  8
STEMPEL
  2
A$C49BA416A
 10
0.0007961765891877
 20
-100.6000002211885942
 30
0.0
  0
VIEWPORT
  5
3881
 67
     1
  8
0
 10
103.207428411157295
 20
210.6945670873203937
 30
0.0
 40
92.4518721584974372
 41
49.4872105864328589
 68
     1
 69
     1
1001
ACAD
1000
MVIEW
1002
{
1070
    16
1010
0.0
1020
0.0
1030
0.0
1010
0.0
1020
0.0
1030
1.0
1040
0.0
1040
49.4872105864328589
1040
103.207428411157295
1040
210.6945670873203937
1040
50.0
1040
0.0
1040
0.0
1070
     0
1070
  1500
1070
     1
1070
     1
1070
     0
1070
     0
1070
     0
1070
     0
1040
0.0
1040
0.0
1040
0.0
1040
10.0
1040
10.0
1040
10.0
1040
10.0
1070
     0
1002
{
1002
}
1002
}
  0
INSERT
  5
519B
 67
     1
  8
BEM
 62
     2
  2
_NONE
 10
116.8727516741367936
 20
132.2480309269002134
 30
-0.0000000000000524
 41
3.0
 42
3.0
 43
3.0
 50
223.9532687185227928
  0
CIRCLE
  5
5234
 67
     1
  8
INDEX
 62
   152
 10
146.7976711118002981
 20
223.3449272115821032
 30
0.0
 40
2.5
  0
TEXT
  5
5235
 67
     1
  8
INDEX
 62
   152
 10
148.5476711118002981
 20
222.4115938782487945
 30
0.0
 40
3.5
  1
B
 50
90.0
 41
0.8
 72
     4
 11
146.7976711118002981
 21
223.3449272115821032
 31
0.0
  0
CIRCLE
  5
5236
 67
     1
  8
INDEX
 62
   152
 10
69.6227516741369783
 20
198.0455361907463043
 30
0.0
 40
2.5
  0
TEXT
  5
5237
 67
     1
  8
INDEX
 62
   152
 10
71.3727516741369641
 20
197.1122028574129956
 30
0.0
 40
3.5
  1
B
 50
90.0
 41
0.8
 72
     4
 11
69.6227516741369783
 21
198.0455361907463043
 31
0.0
  0
CIRCLE
  5
5238
 67
     1
  8
INDEX
 62
   152
 10
59.6227516741369001
 20
207.9284079610293929
 30
0.0
 40
2.5
  0
TEXT
  5
5239
 67
     1
  8
INDEX
 62
   152
 10
61.372751674136893
 20
206.9950746276961127
 30
0.0
 40
3.5
  1
B
 50
90.0
 41
0.8
 72
     4
 11
59.6227516741369001
 21
207.9284079610293929
 31
0.0
  0
ENDSEC
  0
EOF
