  0
SECTION
  2
HEADER
  9
$ACADVER
  1
AC1009
  9
$INSBASE
 10
0.0
 20
0.0
 30
0.0
  9
$EXTMIN
 10
-72.4999999999999005
 20
-195.0
 30
-0.0000000000000444
  9
$EXTMAX
 10
72.5000000000001279
 20
200.0000000000003126
 30
22.0000000000000604
  9
$LIMMIN
 10
0.0
 20
0.0
  9
$LIMMAX
 10
296.9999999999998863
 20
420.0000000000001137
  9
$ORTHOMODE
 70
     1
  9
$REGENMODE
 70
     1
  9
$FILLMODE
 70
     1
  9
$QTEXTMODE
 70
     0
  9
$MIRRTEXT
 70
     1
  9
$DRAGMODE
 70
     2
  9
$LTSCALE
 40
10.0
  9
$OSMODE
 70
  2559
  9
$ATTMODE
 70
     1
  9
$TEXTSIZE
 40
3.5
  9
$TRACEWID
 40
0.5
  9
$TEXTSTYLE
  7
STANDARD
  9
$CLAYER
  8
DEFPOINTS
  9
$CELTYPE
  6
BYLAYER
  9
$CECOLOR
 62
   256
  9
$DIMSCALE
 40
1.0
  9
$DIMASZ
 40
3.5
  9
$DIMEXO
 40
1.0
  9
$DIMDLI
 40
7.0
  9
$DIMRND
 40
0.0
  9
$DIMDLE
 40
0.0
  9
$DIMEXE
 40
1.0
  9
$DIMTP
 40
0.0
  9
$DIMTM
 40
0.0
  9
$DIMTXT
 40
3.5
  9
$DIMCEN
 40
1.5
  9
$DIMTSZ
 40
0.0
  9
$DIMTOL
 70
     0
  9
$DIMLIM
 70
     0
  9
$DIMTIH
 70
     0
  9
$DIMTOH
 70
     0
  9
$DIMSE1
 70
     0
  9
$DIMSE2
 70
     0
  9
$DIMTAD
 70
     1
  9
$DIMZIN
 70
     8
  9
$DIMBLK
  1

  9
$DIMASO
 70
     1
  9
$DIMSHO
 70
     0
  9
$DIMPOST
  1

  9
$DIMAPOST
  1

  9
$DIMALT
 70
     0
  9
$DIMALTD
 70
     2
  9
$DIMALTF
 40
25.3999999999999986
  9
$DIMLFAC
 40
1.0
  9
$DIMTOFL
 70
     1
  9
$DIMTVP
 40
0.0
  9
$DIMTIX
 70
     0
  9
$DIMSOXD
 70
     0
  9
$DIMSAH
 70
     0
  9
$DIMBLK1
  1

  9
$DIMBLK2
  1

  9
$DIMSTYLE
  2
STANDARD
  9
$DIMCLRD
 70
     0
  9
$DIMCLRE
 70
     0
  9
$DIMCLRT
 70
     1
  9
$DIMTFAC
 40
0.5142857142857143
  9
$DIMGAP
 40
1.5
  9
$LUNITS
 70
     2
  9
$LUPREC
 70
     2
  9
$SKETCHINC
 40
1.0
  9
$FILLETRAD
 40
0.0
  9
$AUNITS
 70
     0
  9
$AUPREC
 70
     0
  9
$MENU
  1
ACAD
  9
$ELEVATION
 40
0.0
  9
$PELEVATION
 40
0.0
  9
$THICKNESS
 40
0.0
  9
$LIMCHECK
 70
     0
  9
$BLIPMODE
 70
     0
  9
$CHAMFERA
 40
0.0
  9
$CHAMFERB
 40
0.0
  9
$SKPOLY
 70
     0
  9
$TDCREATE
 40
2451337.6017592591233552
  9
$TDUPDATE
 40
2458388.5884143519215286
  9
$TDINDWG
 40
0.1806367361
  9
$TDUSRTIMER
 40
0.1806367361
  9
$USRTIMER
 70
     1
  9
$ANGBASE
 50
0.0
  9
$ANGDIR
 70
     0
  9
$PDMODE
 70
     0
  9
$PDSIZE
 40
0.0
  9
$PLINEWID
 40
0.0
  9
$COORDS
 70
     1
  9
$SPLFRAME
 70
     0
  9
$SPLINETYPE
 70
     6
  9
$SPLINESEGS
 70
     8
  9
$ATTDIA
 70
     1
  9
$ATTREQ
 70
     1
  9
$HANDLING
 70
     1
  9
$HANDSEED
  5
3EAB
  9
$SURFTAB1
 70
     6
  9
$SURFTAB2
 70
     6
  9
$SURFTYPE
 70
     6
  9
$SURFU
 70
     6
  9
$SURFV
 70
     6
  9
$UCSNAME
  2

  9
$UCSORG
 10
0.0
 20
0.0
 30
0.0
  9
$UCSXDIR
 10
1.0
 20
0.0
 30
0.0
  9
$UCSYDIR
 10
0.0
 20
1.0
 30
0.0
  9
$PUCSNAME
  2

  9
$PUCSORG
 10
0.0
 20
0.0
 30
0.0
  9
$PUCSXDIR
 10
1.0
 20
0.0
 30
0.0
  9
$PUCSYDIR
 10
0.0
 20
1.0
 30
0.0
  9
$USERI1
 70
     0
  9
$USERI2
 70
     0
  9
$USERI3
 70
     0
  9
$USERI4
 70
     0
  9
$USERI5
 70
     0
  9
$USERR1
 40
0.0
  9
$USERR2
 40
0.0
  9
$USERR3
 40
0.0
  9
$USERR4
 40
0.0
  9
$USERR5
 40
0.0
  9
$WORLDVIEW
 70
     1
  9
$SHADEDGE
 70
     3
  9
$SHADEDIF
 70
    70
  9
$TILEMODE
 70
     1
  9
$MAXACTVP
 70
    16
  9
$PLIMCHECK
 70
     0
  9
$PEXTMIN
 10
-0.1278078343990714
 20
-0.1249914757646131
 30
-0.0000000349181948
  9
$PEXTMAX
 10
9.9027095234798352
 20
13.9244053012683402
 30
0.0000000814935746
  9
$PLIMMIN
 10
-0.2500002402958907
 20
-0.2499999962453767
  9
$PLIMMAX
 10
10.7499995194082203
 20
8.2499997634587334
  9
$UNITMODE
 70
     0
  9
$VISRETAIN
 70
     0
  9
$PLINEGEN
 70
     0
  9
$PSLTSCALE
 70
     0
  0
ENDSEC
  0
SECTION
  2
TABLES
  0
TABLE
  2
VPORT
 70
     1
  0
VPORT
  2
*ACTIVE
 70
     0
 10
0.0
 20
0.0
 11
1.0
 21
1.0
 12
0.0000000000001137
 22
-61.2525291442869388
 13
0.0
 23
0.0
 14
1.0
 24
1.0
 15
10.0
 25
10.0
 16
-0.0000000000001767
 26
0.0
 36
795.8237821186775136
 17
0.0
 27
63.7525291442871094
 37
11.0
 40
397.0135938827531277
 41
1.868197278911564
 42
50.0
 43
0.0
 44
0.0
 50
0.0
 51
0.0
 71
     0
 72
  1500
 73
     1
 74
     0
 75
     0
 76
     0
 77
     0
 78
     0
  0
ENDTAB
  0
TABLE
  2
LTYPE
 70
     4
  0
LTYPE
  2
CONTINUOUS
 70
     0
  3
Solid line
 72
    65
 73
     0
 40
0.0
  0
LTYPE
  2
VERDECKT
 70
     0
  3
_ _ _ _ _ _ _ _ _ _ _ _ _ _ _ _ _ _ _ _ _ _ _
 72
    65
 73
     2
 40
0.375
 49
0.25
 49
-0.125
  0
ENDTAB
  0
TABLE
  2
LAYER
 70
    11
  0
LAYER
  2
0
 70
     0
 62
     7
  6
CONTINUOUS
  0
LAYER
  2
VOLL
 70
     0
 62
     1
  6
CONTINUOUS
  0
LAYER
  2
DEFPOINTS
 70
     0
 62
     7
  6
CONTINUOUS
  0
ENDTAB
  0
TABLE
  2
STYLE
 70
     2
  0
STYLE
  2
STANDARD
 70
     0
 40
0.0
 41
0.8
 50
0.0
 71
     0
 42
3.5
  3
simplex.shx
  4

  0
STYLE
  2
GREEKS
 70
     0
 40
0.0
 41
0.8
 50
0.0
 71
     0
 42
2.5
  3
SIMPLEX.shx
  4

  0
ENDTAB
  0
TABLE
  2
VIEW
 70
     1
  0
ENDTAB
  0
TABLE
  2
UCS
 70
     0
  0
ENDTAB
  0
TABLE
  2
APPID
 70
     9
  0
APPID
  2
ACAD
 70
     0
  0
APPID
  2
ACAD_NAV_VCDISPLAY
 70
     0
  0
APPID
  2
ACAECLAYERSTANDARD
 70
     0
  0
APPID
  2
ACCMTRANSPARENCY
 70
     0
  0
APPID
  2
ACAD_PSEXT
 70
     0
  0
APPID
  2
ACAD_EXEMPT_FROM_CAD_STANDARDS
 70
     0
  0
APPID
  2
ACAD_MLEADERVER
 70
     0
  0
APPID
  2
ACAD_OBJECT_CHANGE_GUID
 70
     0
  0
APPID
  2
ACADANNOMONITORALERTICONDI
 70
     0
  0
ENDTAB
  0
TABLE
  2
DIMSTYLE
 70
     2
  0
DIMSTYLE
  2
STANDARD
 70
     0
  3

  4

  5

  6

  7

 40
1.0
 41
0.18
 42
0.0625
 43
0.38
 44
0.18
 45
0.0
 46
0.0
 47
0.0
 48
0.0
140
0.18
141
0.09
142
0.0
143
25.3999999999999986
144
1.0
145
0.0
146
1.0
147
0.09
 71
     0
 72
     0
 73
     1
 74
     1
 75
     0
 76
     0
 77
     0
 78
     0
170
     0
171
     2
172
     0
173
     0
174
     0
175
     0
176
     0
177
     0
178
     0
  0
ENDTAB
  0
ENDSEC
  0
SECTION
  2
BLOCKS
  0
BLOCK
  8
0
  2
$MODEL_SPACE
 70
     0
 10
0.0
 20
0.0
 30
0.0
  3
$MODEL_SPACE
  1

  0
ENDBLK
  5
36
  8
0
  0
BLOCK
 67
     1
  8
0
  2
$PAPER_SPACE
 70
     0
 10
0.0
 20
0.0
 30
0.0
  3
$PAPER_SPACE
  1

  0
ENDBLK
  5
34
 67
     1
  8
0
  0
BLOCK
  8
0
  2
A$C4D1C7A59
 70
     0
 10
0.0
 20
0.0
 30
0.0
  3
A$C4D1C7A59
  1

  0
ARC
  5
3D83
  8
0
  6
CONTINUOUS
 62
     3
 10
0.0000000000001423
 20
-0.0000000000000033
 30
0.0
 40
56.2430984176012316
 50
61.5282561481628676
 51
180.0
  0
ARC
  5
3D84
  8
0
  6
CONTINUOUS
 62
     3
 10
0.0000000000001423
 20
-0.0000000000000175
 30
0.0
 40
56.2430984176012387
 50
301.5282561481631092
 51
58.4717438518370187
  0
ARC
  5
3D85
  8
0
  6
CONTINUOUS
 62
     3
 10
0.0000000000001423
 20
-0.0000000000000104
 30
0.0
 40
56.2430984176012174
 50
180.0
 51
298.4717438518370045
  0
LINE
  5
3D86
  8
0
  6
CONTINUOUS
 62
     3
 10
-67.4999999999999574
 20
18.5404962177389514
 30
-0.0000000000000284
 11
-67.4999999999999574
 21
-18.5404962177394594
 31
-0.0000000000000284
  0
LINE
  5
3D87
  8
0
  6
CONTINUOUS
 62
     3
 10
-49.8065407233313735
 20
-49.1864666465803211
 30
0.0
 11
-17.6934592766684311
 21
-67.7269628643194608
 31
0.0000000000000071
  0
LINE
  5
3D88
  8
0
  6
CONTINUOUS
 62
     3
 10
67.5000000000001563
 20
-18.5404962177388306
 30
0.0000000000000284
 11
67.5000000000001563
 21
18.5404962177386992
 31
0.0000000000000284
  0
LINE
  5
3D89
  8
0
  6
CONTINUOUS
 62
     3
 10
-17.6934592766682108
 20
67.7269628643190202
 30
0.0
 11
-49.8065407233313735
 21
49.1864666465797598
 31
-0.0000000000000071
  0
CIRCLE
  5
3D8A
  8
0
  6
CONTINUOUS
 62
     3
 10
0.0000000000001581
 20
0.0000000000000082
 30
0.0
 40
72.5
  0
CIRCLE
  5
3D8B
  8
0
  6
CONTINUOUS
 62
     3
 10
0.0000000000001581
 20
0.0000000000000082
 30
0.0
 40
70.0
  0
ARC
  5
3D8C
  8
0
  6
CONTINUOUS
 62
     3
 10
0.0000000000000799
 20
0.0000000000000165
 30
0.0
 40
49.0000000000000497
 50
61.7542264905848626
 51
180.0
  0
ARC
  5
3D8D
  8
0
  6
CONTINUOUS
 62
     3
 10
-0.0000000000000338
 20
0.0000000000000023
 30
0.0
 40
49.0000000000001634
 50
301.7542264905849265
 51
58.2457735094150877
  0
ARC
  5
3D8E
  8
0
  6
CONTINUOUS
 62
     3
 10
0.0000000000001367
 20
-0.0000000000000155
 30
0.0
 40
49.0000000000000426
 50
180.0
 51
298.2457735094151872
  0
ARC
  5
3D8F
  8
0
  6
CONTINUOUS
 62
     3
 10
0.0000000000000004
 20
-0.0000000000000324
 30
0.0
 40
48.3799396802317005
 50
61.7767166553239022
 51
179.9999999999998863
  0
ARC
  5
3D90
  8
0
  6
CONTINUOUS
 62
     3
 10
-0.0000000000000564
 20
-0.0000000000000039
 30
0.0
 40
48.379939680231729
 50
301.7767166553240941
 51
58.2232833446759201
  0
ARC
  5
3D91
  8
0
  6
CONTINUOUS
 62
     3
 10
0.0000000000000004
 20
0.0000000000000174
 30
0.0
 40
48.3799396802317219
 50
180.0
 51
298.2232833446760765
  0
LINE
  5
3D92
  8
0
  6
CONTINUOUS
 62
     3
 10
30.20096189432358
 20
55.3096004384196505
 30
0.0
 11
23.2009618943235907
 21
43.1852447854375967
 31
-0.0000000000000018
  0
LINE
  5
3D93
  8
0
  6
CONTINUOUS
 62
     3
 10
25.79903810567696
 20
41.6852447854375896
 30
0.0
 11
23.2009618943237008
 21
43.1852447854375967
 31
-0.0000000000000006
  0
LINE
  5
3D94
  8
0
  6
CONTINUOUS
 62
     3
 10
25.79903810567696
 20
41.6852447854375896
 30
0.0
 11
32.7990381056769635
 21
53.8096004384196434
 31
0.0000000000000018
  0
LINE
  5
3D95
  8
0
  6
CONTINUOUS
 62
     3
 10
32.7990381056767291
 20
53.8096004384194728
 30
0.0
 11
30.2009618943234699
 21
55.3096004384194728
 31
-0.0000000000000006
  0
LINE
  5
3D96
  8
0
  6
CONTINUOUS
 62
     3
 10
23.2009618943235907
 20
43.1852447854376109
 30
0.0
 11
19.70096189432358
 21
37.1230669589465521
 31
-0.0000000000000008
  0
LINE
  5
3D97
  8
0
  6
CONTINUOUS
 62
     3
 10
22.2990381056767291
 20
35.6230669589465521
 30
0.0
 11
19.7009618943234699
 21
37.1230669589465521
 31
-0.0000000000000006
  0
LINE
  5
3D98
  8
0
  6
CONTINUOUS
 62
     3
 10
22.2990381056767291
 20
35.6230669589465521
 30
0.0
 11
25.7990381056767291
 21
41.6852447854376109
 31
0.0000000000000008
  0
LINE
  5
3D99
  8
0
  6
CONTINUOUS
 62
     3
 10
33.6929252573586808
 20
61.3578584013657675
 30
0.0
 11
30.2009618943233598
 21
55.3096004384194728
 31
-0.0000000000000008
  0
LINE
  5
3D9A
  8
0
  6
CONTINUOUS
 62
     3
 10
32.7990381056767291
 20
53.8096004384194728
 30
0.0
 11
36.2910014687120608
 21
59.8578584013657391
 31
0.0000000000000008
  0
LINE
  5
3D9B
  8
0
  6
CONTINUOUS
 62
     3
 10
30.20096189432358
 20
-55.309600438419622
 30
0.0
 11
23.2009618943235907
 21
-43.1852447854375825
 31
-0.0000000000000018
  0
LINE
  5
3D9C
  8
0
  6
CONTINUOUS
 62
     3
 10
32.7990381056767291
 20
-53.8096004384194586
 30
0.0
 11
30.2009618943234699
 21
-55.3096004384194586
 31
-0.0000000000000006
  0
LINE
  5
3D9D
  8
0
  6
CONTINUOUS
 62
     3
 10
25.79903810567696
 20
-41.6852447854375825
 30
0.0
 11
32.7990381056769635
 21
-53.809600438419622
 31
0.0000000000000018
  0
LINE
  5
3D9E
  8
0
  6
CONTINUOUS
 62
     3
 10
25.79903810567696
 20
-41.6852447854375825
 30
0.0
 11
23.2009618943237008
 21
-43.1852447854375825
 31
-0.0000000000000006
  0
LINE
  5
3D9F
  8
0
  6
CONTINUOUS
 62
     3
 10
23.2009618943235907
 20
-43.1852447854375967
 30
0.0
 11
19.70096189432358
 21
-37.1230669589465307
 31
-0.0000000000000008
  0
LINE
  5
3DA0
  8
0
  6
CONTINUOUS
 62
     3
 10
22.2990381056767291
 20
-35.6230669589465307
 30
0.0
 11
25.7990381056767291
 21
-41.6852447854375896
 31
0.0000000000000008
  0
LINE
  5
3DA1
  8
0
  6
CONTINUOUS
 62
     3
 10
22.2990381056767291
 20
-35.6230669589465307
 30
0.0
 11
19.7009618943234699
 21
-37.1230669589465307
 31
-0.0000000000000006
  0
LINE
  5
3DA2
  8
0
  6
CONTINUOUS
 62
     3
 10
33.6929252573586808
 20
-61.3578584013657604
 30
0.0
 11
30.2009618943233598
 21
-55.3096004384194586
 31
-0.0000000000000008
  0
LINE
  5
3DA3
  8
0
  6
CONTINUOUS
 62
     3
 10
32.7990381056767291
 20
-53.8096004384194586
 30
0.0
 11
36.2910014687120608
 21
-59.8578584013657178
 31
0.0000000000000008
  0
CIRCLE
  5
3DA4
  8
0
  6
VERDECKT
 62
     1
 10
0.0000000000001421
 20
0.0000000000000038
 30
0.0
 40
58.6167791997671728
  0
ARC
  5
3DA5
  8
0
  6
VERDECKT
 62
     1
 10
-0.0000000000343048
 20
-0.0000000000591347
 30
0.0
 40
56.2430984176696427
 50
58.471743851838589
 51
61.5282561481607573
  0
ARC
  5
3DA6
  8
0
  6
VERDECKT
 62
     1
 10
-0.0000000000343048
 20
0.0000000000600376
 30
0.0
 40
56.2430984176704172
 50
298.4717438518387098
 51
301.5282561481611197
  0
LINE
  5
3DA7
  8
0
  6
VERDECKT
 62
     1
 10
-18.654128961721721
 20
70.0590713090001458
 30
0.0
 11
-35.0000000000001918
 21
60.6217782649111498
 31
-0.0000000000000036
  0
LINE
  5
3DA8
  8
0
  6
VERDECKT
 62
     1
 10
-35.0000000000001918
 20
60.6217782649111498
 30
0.0
 11
-51.3458710382765986
 21
51.1844852208233476
 31
-0.0000000000000036
  0
LINE
  5
3DA9
  8
0
  6
VERDECKT
 62
     1
 10
70.0000000000008384
 20
-18.8745860881761516
 30
0.0000000000000284
 11
70.0000000000008384
 21
0.0000000000000071
 31
0.0000000000000284
  0
LINE
  5
3DAA
  8
0
  6
VERDECKT
 62
     1
 10
70.0000000000008384
 20
0.0000000000000076
 30
0.0000000000000284
 11
70.0000000000008384
 21
18.8745860881781908
 31
0.0000000000000284
  0
LINE
  5
3DAB
  8
0
  6
VERDECKT
 62
     1
 10
-51.3458710382765986
 20
-51.1844852208212586
 30
0.0
 11
-34.9999999999991616
 21
-60.6217782649096435
 31
0.0000000000000036
  0
LINE
  5
3DAC
  8
0
  6
VERDECKT
 62
     1
 10
-34.9999999999991616
 20
-60.6217782649096435
 30
0.0
 11
-18.6541289617215007
 21
-70.0590713089981705
 31
0.0000000000000036
  0
LINE
  5
3DAD
  8
0
  6
VERDECKT
 62
     1
 10
-69.9999999999991616
 20
18.8745860881777716
 30
-0.0000000000000284
 11
-69.9999999999991616
 21
0.0000000000000071
 31
-0.0000000000000284
  0
LINE
  5
3DAE
  8
0
  6
VERDECKT
 62
     1
 10
-69.9999999999991616
 20
0.0000000000000076
 30
-0.0000000000000284
 11
-69.9999999999991616
 21
-18.8745860881757004
 31
-0.0000000000000284
  0
ARC
  5
3DAF
  8
0
  6
VERDECKT
 62
     1
 10
0.0000000000216804
 20
0.0000000000370287
 30
0.0
 40
48.9999999999572395
 50
58.2457735094138584
 51
61.7542264905866318
  0
ARC
  5
3DB0
  8
0
  6
VERDECKT
 62
     1
 10
-0.0000000000143015
 20
0.0000000000247363
 30
0.0
 40
49.0000000000286917
 50
298.2457735094163809
 51
301.7542264905839033
  0
CIRCLE
  5
3DB1
  8
0
  6
VERDECKT
 62
     1
 10
0.0000000000001422
 20
0.0000000000000038
 30
0.0
 40
56.717834574034427
  0
CIRCLE
  5
3DB2
  8
0
  6
VERDECKT
 62
     1
 10
0.0000000000001421
 20
0.0000000000000038
 30
0.0
 40
58.6167791997671586
  0
CIRCLE
  5
3DB3
  8
0
  6
VERDECKT
 62
     1
 10
0.0000000000000799
 20
0.0000000000000023
 30
0.0
 40
51.000000000000199
  0
ARC
  5
3DB4
  8
0
  6
VERDECKT
 62
     1
 10
-0.0000000000219411
 20
-0.0000000000379043
 30
0.0
 40
48.3799396802754629
 50
58.2232833446775118
 51
61.7767166553222395
  0
ARC
  5
3DB5
  8
0
  6
VERDECKT
 62
     1
 10
-0.0000000000250107
 20
0.0000000000434528
 30
0.0
 40
48.3799396802818222
 50
298.2232833446777818
 51
301.7767166553221045
  0
CIRCLE
  5
3DB6
  8
0
  6
VERDECKT
 62
     1
 10
0.0000000000000004
 20
-0.0000000000000039
 30
0.0
 40
50.3875793553183868
  0
CIRCLE
  5
3DB7
  8
0
  6
VERDECKT
 62
     1
 10
0.0000000000000233
 20
0.0000000000000024
 30
0.0
 40
55.3673449736886596
  0
CIRCLE
  5
3DB8
  8
0
  6
VERDECKT
 62
     1
 10
0.0000000000000245
 20
0.0000000000000027
 30
0.0
 40
52.8523308606436331
  0
CIRCLE
  5
3DB9
  8
0
  6
VERDECKT
 62
     1
 10
0.000000000000024
 20
0.0000000000000025
 30
0.0
 40
53.7201112156668614
  0
CIRCLE
  5
3DBA
  8
0
  6
VERDECKT
 62
     1
 10
0.0000000000000237
 20
0.0000000000000025
 30
0.0
 40
51.5605545267395726
  0
CIRCLE
  5
3DBB
  8
0
  6
VERDECKT
 62
     1
 10
0.0000000000000237
 20
0.0000000000000025
 30
0.0
 40
55.6764475495008497
  0
CIRCLE
  5
3DBC
  8
0
  6
VERDECKT
 62
     1
 10
0.0000000000001415
 20
0.0000000000000036
 30
0.0
 40
57.6439527329506376
  0
CIRCLE
  5
3DBD
  8
0
  6
VERDECKT
 62
     1
 10
0.0000000000001428
 20
0.000000000000004
 30
0.0
 40
59.7182675581577769
  0
CIRCLE
  5
3DBE
  8
0
  6
VERDECKT
 62
     1
 10
0.0000000000001423
 20
0.0000000000000038
 30
0.0
 40
60.6150586136506533
  0
CIRCLE
  5
3DBF
  8
0
  6
VERDECKT
 62
     1
 10
0.0000000000000753
 20
0.000000000000001
 30
0.0
 40
64.0000000000000995
  0
CIRCLE
  5
3DC0
  8
0
  6
VERDECKT
 62
     1
 10
0.0000000000000805
 20
0.0000000000000025
 30
0.0
 40
51.5605545267398426
  0
CIRCLE
  5
3DC1
  8
0
  6
VERDECKT
 62
     1
 10
0.0000000000000808
 20
0.0000000000000025
 30
0.0
 40
53.7201112156669183
  0
CIRCLE
  5
3DC2
  8
0
  6
VERDECKT
 62
     1
 10
0.0000000000000753
 20
0.000000000000001
 30
0.0
 40
66.4999999999999289
  0
LINE
  5
3DC3
  8
0
  6
VERDECKT
 62
     1
 10
35.2990381056767291
 20
58.1397274573416922
 30
0.0
 11
32.7009618943234699
 21
59.639727457341678
 31
-0.0000000000000006
  0
LINE
  5
3DC4
  8
0
  6
VERDECKT
 62
     1
 10
36.2990381056771767
 20
59.8717782649105175
 30
0.0
 11
33.7009618943239317
 21
61.3717782649105175
 31
-0.0000000000000006
  0
LINE
  5
3DC5
  8
0
  6
VERDECKT
 62
     1
 10
33.7009618943233633
 20
61.3717782649105388
 30
0.0
 11
33.6929252573586808
 21
61.3578584013657675
 31
0.0
  0
LINE
  5
3DC6
  8
0
  6
VERDECKT
 62
     1
 10
36.2910014687120608
 20
59.8578584013657391
 30
0.0
 11
36.2990381056767291
 21
59.8717782649105388
 31
0.0
  0
LINE
  5
3DC7
  8
0
  6
VERDECKT
 62
     1
 10
35.2990381056767291
 20
-58.1397274573416709
 30
0.0
 11
32.7009618943234699
 21
-59.6397274573416709
 31
-0.0000000000000006
  0
LINE
  5
3DC8
  8
0
  6
VERDECKT
 62
     1
 10
36.2990381056771767
 20
-59.8717782649105104
 30
0.0
 11
33.7009618943239317
 21
-61.3717782649105104
 31
-0.0000000000000006
  0
LINE
  5
3DC9
  8
0
  6
VERDECKT
 62
     1
 10
33.7009618943233633
 20
-61.3717782649105175
 30
0.0
 11
33.6929252573586808
 21
-61.3578584013657604
 31
0.0
  0
LINE
  5
3DCA
  8
0
  6
VERDECKT
 62
     1
 10
36.2910014687120608
 20
-59.8578584013657178
 30
0.0
 11
36.2990381056767291
 21
-59.8717782649105175
 31
0.0
  0
ENDBLK
  5
3DCC
  8
0
  0
BLOCK
  8
0
  2
A$C58F7278D
 70
     0
 10
0.0
 20
0.0
 30
0.0
  3
A$C58F7278D
  1

  0
LINE
  5
3DD0
  8
0
  6
CONTINUOUS
 62
     3
 10
70.0000000000007958
 20
183.0000000000001137
 30
-0.0000000000000406
 11
70.0000000000007958
 21
190.0000000000001137
 31
-0.0000000000000422
210
0.0
220
1.0
230
-0.0000000000000002
  0
LINE
  5
3DD1
  8
0
  6
CONTINUOUS
 62
     3
 10
70.0000000000003411
 20
183.0000000000001137
 30
-0.0000000000000406
 11
72.5000000000001137
 21
183.0000000000001137
 31
-0.0000000000000406
210
0.0
220
1.0
230
-0.0000000000000002
  0
LINE
  5
3DD2
  8
0
  6
CONTINUOUS
 62
     3
 10
72.5000000000000853
 20
190.0000000000001137
 30
-0.0000000000000422
 11
70.0000000000003268
 21
190.0000000000001137
 31
-0.0000000000000422
210
0.0
220
1.0
230
-0.0000000000000002
  0
LINE
  5
3DD3
  8
0
  6
CONTINUOUS
 62
     3
 10
-51.3458710382808476
 20
183.0000000000001137
 30
-0.0000000000000406
 11
-51.3458710382808476
 21
190.0000000000001137
 31
-0.0000000000000422
210
0.0
220
1.0
230
-0.0000000000000002
  0
LINE
  5
3DD4
  8
0
  6
CONTINUOUS
 62
     3
 10
-18.6541289617175607
 20
190.0000000000001137
 30
-0.0000000000000422
 11
-18.6541289617175607
 21
183.0000000000001137
 31
-0.0000000000000406
210
0.0
220
1.0
230
-0.0000000000000002
  0
LINE
  5
3DD5
  8
0
  6
CONTINUOUS
 62
     3
 10
-51.3458710382775507
 20
183.0000000000001137
 30
-0.0000000000000406
 11
-18.6541289617218808
 21
183.0000000000001137
 31
-0.0000000000000406
210
0.0
220
1.0
230
-0.0000000000000002
  0
LINE
  5
3DD6
  8
0
  6
CONTINUOUS
 62
     3
 10
-18.6541289617218702
 20
190.0000000000001137
 30
-0.0000000000000422
 11
-51.3458710382775507
 21
190.0000000000001137
 31
-0.0000000000000422
210
0.0
220
1.0
230
-0.0000000000000002
  0
LINE
  5
3DD7
  8
0
  6
CONTINUOUS
 62
     3
 10
-69.9999999999992042
 20
190.0000000000001137
 30
-0.0000000000000422
 11
-69.9999999999992042
 21
183.0000000000001137
 31
-0.0000000000000406
210
0.0
220
1.0
230
-0.0000000000000002
  0
LINE
  5
3DD8
  8
0
  6
CONTINUOUS
 62
     3
 10
-72.4999999999998863
 20
183.0000000000001137
 30
-0.0000000000000406
 11
-70.0000000000001137
 21
183.0000000000001137
 31
-0.0000000000000406
210
0.0
220
1.0
230
-0.0000000000000002
  0
LINE
  5
3DD9
  8
0
  6
CONTINUOUS
 62
     3
 10
-70.0000000000001279
 20
190.0000000000001137
 30
-0.0000000000000422
 11
-72.4999999999998863
 21
190.0000000000001137
 31
-0.0000000000000422
210
0.0
220
1.0
230
-0.0000000000000002
  0
LINE
  5
3DDA
  8
0
  6
CONTINUOUS
 62
     3
 10
-72.4999999999998863
 20
200.000000000000199
 30
-0.0000000000000444
 11
72.5000000000001137
 21
200.000000000000199
 31
-0.0000000000000444
210
0.0
220
1.0
230
-0.0000000000000002
  0
ARC
  5
3DDB
  8
0
  6
CONTINUOUS
 62
     3
 10
63.999999999996362
 20
171.3684379180101018
 30
0.0
 40
8.5000000000035385
210
0.0
220
-0.0000000000000002
230
-1.0
 50
341.7085481866635064
 51
359.9999999999945999
  0
ARC
  5
3DDC
  8
0
  6
CONTINUOUS
 62
     3
 10
-63.9999999999965894
 20
171.3684379180101018
 30
0.0
 40
8.5000000000035385
210
0.0
220
-0.0000000000000002
230
-1.0
 50
180.0000000000052864
 51
198.2914518133364083
  0
LINE
  5
3DDD
  8
0
  6
CONTINUOUS
 62
     3
 10
-59.7182675581577271
 20
131.3322606993064028
 30
-0.0000000000000292
 11
-72.0705146593639938
 21
168.7007060849743141
 31
-0.0000000000000375
210
0.0
220
1.0
230
-0.0000000000000002
  0
LINE
  5
3DDE
  8
0
  6
CONTINUOUS
 62
     3
 10
59.7182675581578621
 20
131.3322606993060901
 30
-0.0000000000000292
 11
72.0705146593642212
 21
168.7007060849743141
 31
-0.0000000000000375
210
0.0
220
1.0
230
-0.0000000000000002
  0
LINE
  5
3DDF
  8
0
  6
CONTINUOUS
 62
     3
 10
72.5000000000001137
 20
200.000000000000199
 30
-0.0000000000000444
 11
72.5000000000001137
 21
190.0000000000001137
 31
-0.0000000000000422
210
0.0
220
1.0
230
-0.0000000000000002
  0
LINE
  5
3DE0
  8
0
  6
CONTINUOUS
 62
     3
 10
72.5000000000001137
 20
183.0000000000001137
 30
-0.0000000000000406
 11
72.5000000000001137
 21
171.368437918009306
 31
-0.0000000000000381
210
0.0
220
1.0
230
-0.0000000000000002
  0
LINE
  5
3DE1
  8
0
  6
CONTINUOUS
 62
     3
 10
-72.4999999999998863
 20
200.000000000000199
 30
-0.0000000000000444
 11
-72.4999999999998863
 21
190.0000000000001137
 31
-0.0000000000000422
210
0.0
220
1.0
230
-0.0000000000000002
  0
LINE
  5
3DE2
  8
0
  6
CONTINUOUS
 62
     3
 10
-72.4999999999998863
 20
183.0000000000001137
 30
-0.0000000000000406
 11
-72.4999999999998863
 21
171.368437918009306
 31
-0.0000000000000381
210
0.0
220
1.0
230
-0.0000000000000002
  0
LINE
  5
3DE3
  8
0
  6
CONTINUOUS
 62
     3
 10
-52.8523308606437467
 20
110.5611914031428995
 30
-0.0000000000000245
 11
-57.6439527329504813
 21
125.0569717074866958
 31
-0.0000000000000278
210
0.0
220
1.0
230
-0.0000000000000002
  0
LINE
  5
3DE4
  8
0
  6
CONTINUOUS
 62
     3
 10
52.8523308606439812
 20
110.5611914031428
 30
-0.0000000000000245
 11
57.6439527329506092
 21
125.0569717074862979
 31
-0.0000000000000278
210
0.0
220
1.0
230
-0.0000000000000002
  0
LINE
  5
3DE5
  8
0
  6
CONTINUOUS
 62
     3
 10
-55.3673449736886596
 20
105.0883617856465975
 30
-0.0000000000000233
 11
55.3673449736886596
 21
105.0883617856465975
 31
-0.0000000000000233
210
0.0
220
1.0
230
-0.0000000000000002
  0
LINE
  5
3DE6
  8
0
  6
CONTINUOUS
 62
     3
 10
-52.8523308606436331
 20
110.5611914031428995
 30
-0.0000000000000245
 11
52.8523308606436331
 21
110.5611914031428995
 31
-0.0000000000000245
210
0.0
220
1.0
230
-0.0000000000000002
  0
ARC
  5
3DE7
  8
0
  6
CONTINUOUS
 62
     3
 10
51.5605545267402405
 20
106.6532649353115971
 30
0.0
 40
4.115893022760603
210
0.0
220
-0.0000000000000002
230
-1.0
 50
337.6533169300100781
 51
71.7085481866719334
  0
ARC
  5
3DE8
  8
0
  6
CONTINUOUS
 62
     3
 10
-51.5605545267402405
 20
106.6532649353115971
 30
0.0
 40
4.1158930227606048
210
0.0
220
-0.0000000000000002
230
-1.0
 50
108.291451813328095
 51
202.3466830699900925
  0
LINE
  5
3DE9
  8
0
  6
CONTINUOUS
 62
     3
 10
-57.6439527329505381
 20
125.0569717074867953
 30
-0.0000000000000278
 11
57.6439527329507584
 21
125.0569717074862979
 31
-0.0000000000000278
210
0.0
220
1.0
230
-0.0000000000000002
  0
LINE
  5
3DEA
  8
0
  6
CONTINUOUS
 62
     3
 10
-59.7182675581576632
 20
131.332260699306488
 30
-0.0000000000000292
 11
59.7182675581578906
 21
131.3322606993060901
 31
-0.0000000000000292
210
0.0
220
1.0
230
-0.0000000000000002
  0
ARC
  5
3DEB
  8
0
  6
CONTINUOUS
 62
     3
 10
56.7155773839722173
 20
128.8443287109950006
 30
0.0
 40
3.899481229678313
210
0.0
220
-0.0000000000000002
230
-1.0
 50
283.7730492523415933
 51
39.644047120982961
  0
ARC
  5
3DEC
  8
0
  6
CONTINUOUS
 62
     3
 10
-56.7155773839724517
 20
128.8443287109946027
 30
0.0
 40
3.8994812296783099
210
0.0
220
-0.0000000000000002
230
-1.0
 50
140.35595287901711
 51
256.2269507476585773
  0
LINE
  5
3DED
  8
0
  6
CONTINUOUS
 62
     3
 10
-66.5
 20
0.0000000000000284
 30
0.0
 11
66.5
 21
-0.0000000000000284
 31
0.0
210
0.0
220
1.0
230
-0.0000000000000002
  0
LINE
  5
3DEE
  8
0
  6
CONTINUOUS
 62
     3
 10
55.3673449736886312
 20
105.0883617856463985
 30
-0.0000000000000233
 11
65.0701380934940516
 21
88.4516812306130191
 31
-0.0000000000000196
210
0.0
220
1.0
230
-0.0000000000000002
  0
LINE
  5
3DEF
  8
0
  6
CONTINUOUS
 62
     3
 10
-55.3673449736886099
 20
105.088361785646299
 30
-0.0000000000000233
 11
-65.0701380934939664
 21
88.4516812306130902
 31
-0.0000000000000196
210
0.0
220
1.0
230
-0.0000000000000002
  0
ARC
  5
3DF0
  8
0
  6
CONTINUOUS
 62
     3
 10
55.9999999999996874
 20
83.1618234853663267
 30
0.0
 40
10.5000000000001599
210
0.0
220
-0.0000000000000002
230
-1.0
 50
0.0000000000002417
 51
30.2514591222209184
  0
ARC
  5
3DF1
  8
0
  6
CONTINUOUS
 62
     3
 10
-55.9999999999997229
 20
83.1618234853662557
 30
0.0
 40
10.5000000000002398
210
0.0
220
-0.0000000000000002
230
-1.0
 50
149.7485408777791065
 51
179.999999999999801
  0
LINE
  5
3DF2
  8
0
  6
CONTINUOUS
 62
     3
 10
66.4999999999999432
 20
83.1618234853662841
 30
-0.0000000000000185
 11
66.4999999999999147
 21
-0.0000000000000284
 31
0.0
210
0.0
220
1.0
230
-0.0000000000000002
  0
LINE
  5
3DF3
  8
0
  6
CONTINUOUS
 62
     3
 10
-66.4999999999999289
 20
83.1618234853663836
 30
-0.0000000000000185
 11
-66.4999999999999716
 21
0.0000000000000284
 31
0.0
210
0.0
220
1.0
230
-0.0000000000000002
  0
LINE
  5
3DF4
  8
0
  6
VERDECKT
 62
     1
 10
-58.616779199767052
 20
128.0
 30
-0.0000000000000284
 11
58.6167791997672722
 21
128.0
 31
-0.0000000000000284
210
0.0
220
1.0
230
-0.0000000000000002
  0
LINE
  5
3DF5
  8
0
  6
VERDECKT
 62
     1
 10
-56.2430984176011179
 20
128.7846270097161891
 30
-0.0000000000000286
 11
56.2430984176013382
 21
128.7846270097161891
 31
-0.0000000000000286
210
0.0
220
1.0
230
-0.0000000000000002
  0
LINE
  5
3DF6
  8
0
  6
VERDECKT
 62
     1
 10
-67.5
 20
183.000000000000199
 30
-0.0000000000000406
 11
-67.5
 21
190.0000000000003126
 31
-0.0000000000000422
210
0.0
220
1.0
230
-0.0000000000000002
  0
LINE
  5
3DF7
  8
0
  6
VERDECKT
 62
     1
 10
-67.4999999999997868
 20
183.000000000000199
 30
-0.0000000000000406
 11
-69.9999999999998863
 21
183.000000000000199
 31
-0.0000000000000406
210
0.0
220
1.0
230
-0.0000000000000002
  0
LINE
  5
3DF8
  8
0
  6
VERDECKT
 62
     1
 10
-69.9999999999998863
 20
190.000000000000199
 30
-0.0000000000000422
 11
-67.4999999999997726
 21
190.000000000000199
 31
-0.0000000000000422
210
0.0
220
1.0
230
-0.0000000000000002
  0
LINE
  5
3DF9
  8
0
  6
VERDECKT
 62
     1
 10
-17.6934592766692695
 20
183.000000000000199
 30
-0.0000000000000406
 11
-17.6934592766692695
 21
190.000000000000199
 31
-0.0000000000000422
210
0.0
220
1.0
230
-0.0000000000000002
  0
LINE
  5
3DFA
  8
0
  6
VERDECKT
 62
     1
 10
-49.8065407233304995
 20
190.000000000000199
 30
-0.0000000000000422
 11
-49.8065407233304995
 21
183.000000000000199
 31
-0.0000000000000406
210
0.0
220
1.0
230
-0.0000000000000002
  0
LINE
  5
3DFB
  8
0
  6
VERDECKT
 62
     1
 10
-17.6934592766683707
 20
183.000000000000199
 30
-0.0000000000000406
 11
-18.6541289617215398
 21
183.000000000000199
 31
-0.0000000000000406
210
0.0
220
1.0
230
-0.0000000000000002
  0
LINE
  5
3DFC
  8
0
  6
VERDECKT
 62
     1
 10
-18.6541289617215398
 20
190.000000000000199
 30
-0.0000000000000422
 11
-17.69345927666836
 21
190.000000000000199
 31
-0.0000000000000422
210
0.0
220
1.0
230
-0.0000000000000002
  0
LINE
  5
3DFD
  8
0
  6
VERDECKT
 62
     1
 10
67.5000000000001137
 20
190.0000000000003126
 30
-0.0000000000000422
 11
67.5000000000001137
 21
183.000000000000199
 31
-0.0000000000000406
210
0.0
220
1.0
230
-0.0000000000000002
  0
LINE
  5
3DFE
  8
0
  6
VERDECKT
 62
     1
 10
70.0000000000001137
 20
183.000000000000199
 30
-0.0000000000000406
 11
67.5000000000002274
 21
183.000000000000199
 31
-0.0000000000000406
210
0.0
220
1.0
230
-0.0000000000000002
  0
LINE
  5
3DFF
  8
0
  6
VERDECKT
 62
     1
 10
67.5000000000002274
 20
190.000000000000199
 30
-0.0000000000000422
 11
70.0000000000001137
 21
190.000000000000199
 31
-0.0000000000000422
210
0.0
220
1.0
230
-0.0000000000000002
  0
LINE
  5
3E00
  8
0
  6
VERDECKT
 62
     1
 10
56.2430984176013382
 20
128.7846270097161891
 30
-0.0000000000000286
 11
58.6167791997672722
 21
128.0
 31
-0.0000000000000284
210
0.0
220
1.0
230
-0.0000000000000002
  0
LINE
  5
3E01
  8
0
  6
VERDECKT
 62
     1
 10
-56.2430984176011179
 20
128.7846270097161891
 30
-0.0000000000000286
 11
-58.616779199767052
 21
128.0
 31
-0.0000000000000284
210
0.0
220
1.0
230
-0.0000000000000002
  0
LINE
  5
3E02
  8
0
  6
VERDECKT
 62
     1
 10
-56.2430984176011108
 20
128.7846270097161891
 30
-0.0000000000000286
 11
-69.6968338771981593
 21
169.4853330946907022
 31
-0.0000000000000376
210
0.0
220
1.0
230
-0.0000000000000002
  0
LINE
  5
3E03
  8
0
  6
VERDECKT
 62
     1
 10
56.2430984176013311
 20
128.7846270097161891
 30
-0.0000000000000286
 11
69.6968338771983866
 21
169.4853330946907022
 31
-0.0000000000000376
210
0.0
220
1.0
230
-0.0000000000000002
  0
ARC
  5
3E04
  8
0
  6
VERDECKT
 62
     1
 10
63.9999999999998792
 20
171.3684379180097039
 30
0.0
 40
6.000000000000111
210
0.0
220
-0.0000000000000002
230
-1.0
 50
341.7085481866595273
 51
359.9999999999977831
  0
ARC
  5
3E05
  8
0
  6
VERDECKT
 62
     1
 10
-64.0000000000001137
 20
171.3684379180097039
 30
0.0
 40
6.0000000000001128
210
0.0
220
-0.0000000000000002
230
-1.0
 50
180.0000000000019895
 51
198.2914518133403021
  0
LINE
  5
3E06
  8
0
  6
VERDECKT
 62
     1
 10
-58.616779199767052
 20
128.0
 30
-0.0000000000000284
 11
-59.7182675581577271
 21
131.3322606993064028
 31
-0.0000000000000292
210
0.0
220
1.0
230
-0.0000000000000002
  0
LINE
  5
3E07
  8
0
  6
VERDECKT
 62
     1
 10
58.6167791997672722
 20
128.0
 30
-0.0000000000000284
 11
59.7182675581578621
 21
131.3322606993060901
 31
-0.0000000000000292
210
0.0
220
1.0
230
-0.0000000000000002
  0
LINE
  5
3E08
  8
0
  6
VERDECKT
 62
     1
 10
70.0000000000002274
 20
200.0000000000003126
 30
-0.0000000000000444
 11
70.0000000000002274
 21
190.000000000000199
 31
-0.0000000000000422
210
0.0
220
1.0
230
-0.0000000000000002
  0
LINE
  5
3E09
  8
0
  6
VERDECKT
 62
     1
 10
70.0000000000002274
 20
183.000000000000199
 30
-0.0000000000000406
 11
70.0000000000002274
 21
171.368437918009505
 31
-0.0000000000000381
210
0.0
220
1.0
230
-0.0000000000000002
  0
LINE
  5
3E0A
  8
0
  6
VERDECKT
 62
     1
 10
-70.0
 20
200.0000000000003126
 30
-0.0000000000000444
 11
-70.0
 21
190.000000000000199
 31
-0.0000000000000422
210
0.0
220
1.0
230
-0.0000000000000002
  0
LINE
  5
3E0B
  8
0
  6
VERDECKT
 62
     1
 10
-70.0
 20
183.000000000000199
 30
-0.0000000000000406
 11
-70.0
 21
171.368437918009505
 31
-0.0000000000000381
210
0.0
220
1.0
230
-0.0000000000000002
  0
LINE
  5
3E0C
  8
0
  6
VERDECKT
 62
     1
 10
-56.7178345740343204
 20
128.6277016077729911
 30
-0.0000000000000286
 11
56.7178345740345478
 21
128.6277016077729058
 31
-0.0000000000000286
210
0.0
220
1.0
230
-0.0000000000000002
  0
LINE
  5
3E0D
  8
0
  6
VERDECKT
 62
     1
 10
-58.616779199767052
 20
128.0
 30
-0.0000000000000284
 11
58.6167791997672722
 21
127.9999999999999005
 31
-0.0000000000000284
210
0.0
220
1.0
230
-0.0000000000000002
  0
LINE
  5
3E0E
  8
0
  6
VERDECKT
 62
     1
 10
-50.3875793553183868
 20
2.0000000000000568
 30
-0.0000000000000004
 11
50.3875793553183868
 21
1.9999999999999429
 31
-0.0000000000000004
210
0.0
220
1.0
230
-0.0000000000000002
  0
ARC
  5
3E0F
  8
0
  6
VERDECKT
 62
     1
 10
59.0000000000020322
 20
103.6695144128846948
 30
0.0
 40
10.0000000000020002
210
0.0
220
-0.0000000000000002
230
-1.0
 50
161.708548186662199
 51
179.9999999999978115
  0
ARC
  5
3E10
  8
0
  6
VERDECKT
 62
     1
 10
-59.0000000000027711
 20
103.6695144128844959
 30
0.0
 40
10.0000000000026308
210
0.0
220
-0.0000000000000002
230
-1.0
 50
0.0000000000025317
 51
18.2914518133374102
  0
LINE
  5
3E11
  8
0
  6
VERDECKT
 62
     1
 10
-49.5052768713363633
 20
106.8080224517499062
 30
-0.0000000000000237
 11
-56.717834574034363
 21
128.6277016077729911
 31
-0.0000000000000286
210
0.0
220
1.0
230
-0.0000000000000002
  0
LINE
  5
3E12
  8
0
  6
VERDECKT
 62
     1
 10
49.5052768713365481
 20
106.8080224517498067
 30
-0.0000000000000237
 11
56.7178345740346117
 21
128.6277016077729058
 31
-0.0000000000000286
210
0.0
220
1.0
230
-0.0000000000000002
  0
LINE
  5
3E13
  8
0
  6
VERDECKT
 62
     1
 10
56.7178345740345478
 20
128.6277016077729058
 30
-0.0000000000000286
 11
58.6167791997672722
 21
127.9999999999999005
 31
-0.0000000000000284
210
0.0
220
1.0
230
-0.0000000000000002
  0
LINE
  5
3E14
  8
0
  6
VERDECKT
 62
     1
 10
-56.7178345740343204
 20
128.6277016077729911
 30
-0.0000000000000286
 11
-58.616779199767052
 21
128.0
 31
-0.0000000000000284
210
0.0
220
1.0
230
-0.0000000000000002
  0
LINE
  5
3E15
  8
0
  6
VERDECKT
 62
     1
 10
-51.404221497069102
 20
106.1803208439774977
 30
-0.0000000000000236
 11
-52.8523308606437467
 21
110.5611914031428995
 31
-0.0000000000000245
210
0.0
220
1.0
230
-0.0000000000000002
  0
LINE
  5
3E16
  8
0
  6
VERDECKT
 62
     1
 10
-57.6439527329504813
 20
125.0569717074866958
 30
-0.0000000000000278
 11
-58.616779199767052
 21
128.0
 31
-0.0000000000000284
210
0.0
220
1.0
230
-0.0000000000000002
  0
LINE
  5
3E17
  8
0
  6
VERDECKT
 62
     1
 10
51.404221497069301
 20
106.1803208439773982
 30
-0.0000000000000236
 11
52.8523308606439812
 21
110.5611914031428
 31
-0.0000000000000245
210
0.0
220
1.0
230
-0.0000000000000002
  0
LINE
  5
3E18
  8
0
  6
VERDECKT
 62
     1
 10
57.6439527329506092
 20
125.0569717074862979
 30
-0.0000000000000278
 11
58.6167791997673007
 21
127.9999999999999005
 31
-0.0000000000000284
210
0.0
220
1.0
230
-0.0000000000000002
  0
ARC
  5
3E19
  8
0
  6
VERDECKT
 62
     1
 10
59.0000000000027072
 20
103.6695144128854054
 30
0.0
 40
8.0000000000025633
210
0.0
220
-0.0000000000000002
230
-1.0
 50
161.708548186665098
 51
179.9999999999986073
  0
ARC
  5
3E1A
  8
0
  6
VERDECKT
 62
     1
 10
-59.0000000000027285
 20
103.6695144128854054
 30
0.0
 40
8.0000000000024727
210
0.0
220
-0.0000000000000002
230
-1.0
 50
0.0000000000012213
 51
18.2914518133351791
  0
LINE
  5
3E1B
  8
0
  6
VERDECKT
 62
     1
 10
-48.3799396802317005
 20
2.0000000000000568
 30
-0.0000000000000004
 11
-49.0
 21
9.0873218858170635
 31
-0.000000000000002
210
0.0
220
1.0
230
-0.0000000000000002
  0
LINE
  5
3E1C
  8
0
  6
VERDECKT
 62
     1
 10
48.3799396802317005
 20
1.999999999999952
 30
-0.0000000000000004
 11
49.0000000000000071
 21
9.0873218858169569
 31
-0.000000000000002
210
0.0
220
1.0
230
-0.0000000000000002
  0
LINE
  5
3E1D
  8
0
  6
VERDECKT
 62
     1
 10
49.0000000000001705
 20
103.6695144128849932
 30
-0.000000000000023
 11
49.0000000000000782
 21
9.0873218858169498
 31
-0.000000000000002
210
0.0
220
1.0
230
-0.0000000000000002
  0
LINE
  5
3E1E
  8
0
  6
VERDECKT
 62
     1
 10
-48.9999999999999503
 20
103.6695144128851069
 30
-0.000000000000023
 11
-49.0000000000000284
 21
9.0873218858170635
 31
-0.000000000000002
210
0.0
220
1.0
230
-0.0000000000000002
  0
LINE
  5
3E1F
  8
0
  6
VERDECKT
 62
     1
 10
51.0000000000002203
 20
103.6695144128855048
 30
-0.000000000000023
 11
51.0000000000001279
 21
8.9999999999999432
 31
-0.000000000000002
210
0.0
220
1.0
230
-0.0000000000000002
  0
LINE
  5
3E20
  8
0
  6
VERDECKT
 62
     1
 10
-51.0
 20
103.6695144128856043
 30
-0.000000000000023
 11
-51.0000000000000924
 21
9.0000000000000586
 31
-0.000000000000002
210
0.0
220
1.0
230
-0.0000000000000002
  0
LINE
  5
3E21
  8
0
  6
VERDECKT
 62
     1
 10
-50.3875793553183868
 20
2.000000000000056
 30
-0.0000000000000004
 11
-51.0
 21
9.0000000000000586
 31
-0.000000000000002
210
0.0
220
1.0
230
-0.0000000000000002
  0
LINE
  5
3E22
  8
0
  6
VERDECKT
 62
     1
 10
50.3875793553183868
 20
1.9999999999999489
 30
-0.0000000000000004
 11
51.0000000000000071
 21
8.9999999999999503
 31
-0.000000000000002
210
0.0
220
1.0
230
-0.0000000000000002
  0
LINE
  5
3E23
  8
0
  6
VERDECKT
 62
     1
 10
-53.7201112156668614
 20
107.9127548746568976
 30
-0.000000000000024
 11
53.7201112156668614
 21
107.9127548746568976
 31
-0.000000000000024
210
0.0
220
1.0
230
-0.0000000000000002
  0
LINE
  5
3E24
  8
0
  6
VERDECKT
 62
     1
 10
-51.5605545267395726
 20
106.653264935312194
 30
-0.0000000000000237
 11
51.5605545267395726
 21
106.653264935312194
 31
-0.0000000000000237
210
0.0
220
1.0
230
-0.0000000000000002
  0
LINE
  5
3E25
  8
0
  6
VERDECKT
 62
     1
 10
53.7201112156668614
 20
107.9127548746568976
 30
-0.000000000000024
 11
55.3673449736886596
 21
105.0883617856465975
 31
-0.0000000000000233
210
0.0
220
1.0
230
-0.0000000000000002
  0
LINE
  5
3E26
  8
0
  6
VERDECKT
 62
     1
 10
-53.7201112156668614
 20
107.9127548746568976
 30
-0.000000000000024
 11
-55.3673449736886596
 21
105.0883617856465975
 31
-0.0000000000000233
210
0.0
220
1.0
230
-0.0000000000000002
  0
LINE
  5
3E27
  8
0
  6
VERDECKT
 62
     1
 10
-51.5605545267395797
 20
106.653264935312194
 30
-0.0000000000000237
 11
-53.7201112156668685
 21
107.9127548746568976
 31
-0.000000000000024
210
0.0
220
1.0
230
-0.0000000000000002
  0
LINE
  5
3E28
  8
0
  6
VERDECKT
 62
     1
 10
51.5605545267395797
 20
106.653264935312194
 30
-0.0000000000000237
 11
53.7201112156668685
 21
107.9127548746568976
 31
-0.000000000000024
210
0.0
220
1.0
230
-0.0000000000000002
  0
LINE
  5
3E29
  8
0
  6
VERDECKT
 62
     1
 10
-51.5605545267395584
 20
106.653264935312194
 30
-0.0000000000000237
 11
-52.8523308606436188
 21
110.5611914031428995
 31
-0.0000000000000245
210
0.0
220
1.0
230
-0.0000000000000002
  0
LINE
  5
3E2A
  8
0
  6
VERDECKT
 62
     1
 10
51.5605545267395584
 20
106.653264935312194
 30
-0.0000000000000237
 11
52.8523308606436188
 21
110.5611914031428995
 31
-0.0000000000000245
210
0.0
220
1.0
230
-0.0000000000000002
  0
LINE
  5
3E2B
  8
0
  6
VERDECKT
 62
     1
 10
-57.6439527329505381
 20
125.0569717074867953
 30
-0.0000000000000278
 11
-59.718267558157649
 21
131.332260699306488
 31
-0.0000000000000292
210
0.0
220
1.0
230
-0.0000000000000002
  0
LINE
  5
3E2C
  8
0
  6
VERDECKT
 62
     1
 10
57.6439527329507371
 20
125.0569717074863973
 30
-0.0000000000000278
 11
59.7182675581578977
 21
131.3322606993060901
 31
-0.0000000000000292
210
0.0
220
1.0
230
-0.0000000000000002
  0
LINE
  5
3E2D
  8
0
  6
VERDECKT
 62
     1
 10
-51.5605545267397929
 20
106.6532649353120945
 30
-0.0000000000000237
 11
51.5605545267399066
 21
106.653264935311995
 31
-0.0000000000000237
210
0.0
220
1.0
230
-0.0000000000000002
  0
LINE
  5
3E2E
  8
0
  6
VERDECKT
 62
     1
 10
-53.7201112156668614
 20
107.9127548746566987
 30
-0.000000000000024
 11
53.720111215666968
 21
107.9127548746565992
 31
-0.000000000000024
210
0.0
220
1.0
230
-0.0000000000000002
  0
LINE
  5
3E2F
  8
0
  6
VERDECKT
 62
     1
 10
64.0000000000000142
 20
83.1618234853659857
 30
-0.0000000000000185
 11
63.9999999999999716
 21
-0.0000000000000568
 31
0.0
210
0.0
220
1.0
230
-0.0000000000000002
  0
LINE
  5
3E30
  8
0
  6
VERDECKT
 62
     1
 10
-63.9999999999999787
 20
83.1618234853660709
 30
-0.0000000000000185
 11
-64.0000000000000284
 21
0.0000000000000568
 31
0.0
210
0.0
220
1.0
230
-0.0000000000000002
  0
ARC
  5
3E31
  8
0
  6
VERDECKT
 62
     1
 10
55.9999999999994387
 20
83.1618234853657583
 30
0.0
 40
8.0000000000005969
210
0.0
220
-0.0000000000000002
230
-1.0
 50
0.0000000000021373
 51
30.2514591222220197
  0
ARC
  5
3E32
  8
0
  6
VERDECKT
 62
     1
 10
-55.9999999999995808
 20
83.1618234853657299
 30
0.0
 40
8.0000000000005649
210
0.0
220
-0.0000000000000002
230
-1.0
 50
149.748540877778197
 51
179.9999999999980105
  0
LINE
  5
3E33
  8
0
  6
VERDECKT
 62
     1
 10
51.5605545267399208
 20
106.653264935311995
 30
-0.0000000000000237
 11
62.9105814045669831
 21
87.1921912912683723
 31
-0.0000000000000194
210
0.0
220
1.0
230
-0.0000000000000002
  0
LINE
  5
3E34
  8
0
  6
VERDECKT
 62
     1
 10
-51.5605545267397929
 20
106.6532649353120945
 30
-0.0000000000000237
 11
-62.9105814045668694
 21
87.1921912912684576
 31
-0.0000000000000194
210
0.0
220
1.0
230
-0.0000000000000002
  0
LINE
  5
3E35
  8
0
  6
VERDECKT
 62
     1
 10
-51.5605545267398071
 20
106.6532649353120945
 30
-0.0000000000000237
 11
-53.7201112156668685
 21
107.9127548746566987
 31
-0.000000000000024
210
0.0
220
1.0
230
-0.0000000000000002
  0
LINE
  5
3E36
  8
0
  6
VERDECKT
 62
     1
 10
51.5605545267398995
 20
106.653264935311995
 30
-0.0000000000000237
 11
53.720111215666968
 21
107.9127548746565992
 31
-0.000000000000024
210
0.0
220
1.0
230
-0.0000000000000002
  0
LINE
  5
3E37
  8
0
  6
VERDECKT
 62
     1
 10
53.7201112156669467
 20
107.9127548746565992
 30
-0.000000000000024
 11
55.3673449736886312
 21
105.0883617856463985
 31
-0.0000000000000233
210
0.0
220
1.0
230
-0.0000000000000002
  0
LINE
  5
3E38
  8
0
  6
VERDECKT
 62
     1
 10
-53.7201112156668188
 20
107.9127548746566987
 30
-0.000000000000024
 11
-55.3673449736886099
 21
105.088361785646299
 31
-0.0000000000000233
210
0.0
220
1.0
230
-0.0000000000000002
  0
LINE
  5
3E39
  8
0
  6
VERDECKT
 62
     1
 10
30.2009618943235409
 20
190.000000000000199
 30
-0.0000000000000422
 11
23.2009618943235409
 21
185.000000000000199
 31
-0.0000000000000411
210
0.0
220
1.0
230
-0.0000000000000002
  0
LINE
  5
3E3A
  8
0
  6
VERDECKT
 62
     1
 10
25.7990381056769102
 20
185.000000000000199
 30
-0.0000000000000411
 11
32.7990381056769209
 21
190.000000000000199
 31
-0.0000000000000422
210
0.0
220
1.0
230
-0.0000000000000002
  0
LINE
  5
3E3B
  8
0
  6
VERDECKT
 62
     1
 10
25.7990381056769102
 20
185.000000000000199
 30
-0.0000000000000411
 11
23.2009618943236617
 21
185.000000000000199
 31
-0.0000000000000411
210
0.0
220
1.0
230
-0.0000000000000002
  0
LINE
  5
3E3C
  8
0
  6
VERDECKT
 62
     1
 10
23.2009618943235409
 20
185.000000000000199
 30
-0.0000000000000411
 11
19.7009618943235409
 21
185.0000000000003126
 31
-0.0000000000000411
210
0.0
220
1.0
230
-0.0000000000000002
  0
LINE
  5
3E3D
  8
0
  6
VERDECKT
 62
     1
 10
19.7009618943230791
 20
185.0000000000003126
 30
-0.0000000000000411
 11
19.7009618943230791
 21
177.8000000000004093
 31
-0.0000000000000395
210
0.0
220
1.0
230
-0.0000000000000002
  0
LINE
  5
3E3E
  8
0
  6
VERDECKT
 62
     1
 10
22.29903810567669
 20
177.8000000000004093
 30
-0.0000000000000395
 11
22.29903810567669
 21
185.0000000000003126
 31
-0.0000000000000411
210
0.0
220
1.0
230
-0.0000000000000002
  0
LINE
  5
3E3F
  8
0
  6
VERDECKT
 62
     1
 10
19.7009618943234308
 20
177.8000000000004093
 30
-0.0000000000000395
 11
23.2009618943235409
 21
177.8000000000004093
 31
-0.0000000000000395
210
0.0
220
1.0
230
-0.0000000000000002
  0
LINE
  5
3E40
  8
0
  6
VERDECKT
 62
     1
 10
25.7990381056769102
 20
177.8000000000004093
 30
-0.0000000000000395
 11
23.2009618943236617
 21
177.8000000000004093
 31
-0.0000000000000395
210
0.0
220
1.0
230
-0.0000000000000002
  0
LINE
  5
3E41
  8
0
  6
VERDECKT
 62
     1
 10
23.20096189432331
 20
177.8000000000004093
 30
-0.0000000000000395
 11
30.2009618943233207
 21
172.8000000000004093
 31
-0.0000000000000384
210
0.0
220
1.0
230
-0.0000000000000002
  0
LINE
  5
3E42
  8
0
  6
VERDECKT
 62
     1
 10
32.7990381056766935
 20
172.8000000000004093
 30
-0.0000000000000384
 11
25.79903810567669
 21
177.8000000000004093
 31
-0.0000000000000395
210
0.0
220
1.0
230
-0.0000000000000002
  0
LINE
  5
3E43
  8
0
  6
VERDECKT
 62
     1
 10
30.2009618943230898
 20
172.8000000000004093
 30
-0.0000000000000384
 11
33.7009618943230933
 21
172.8000000000002956
 31
-0.0000000000000384
210
0.0
220
1.0
230
-0.0000000000000002
  0
LINE
  5
3E44
  8
0
  6
VERDECKT
 62
     1
 10
36.2990381056771412
 20
172.8000000000002956
 30
-0.0000000000000384
 11
33.700961894323882
 21
172.8000000000002956
 31
-0.0000000000000384
210
0.0
220
1.0
230
-0.0000000000000002
  0
LINE
  5
3E45
  8
0
  6
VERDECKT
 62
     1
 10
33.7009618943230933
 20
172.8000000000002956
 30
-0.0000000000000384
 11
33.7009618943230933
 21
175.3000000000002956
 31
-0.0000000000000389
210
0.0
220
1.0
230
-0.0000000000000002
  0
LINE
  5
3E46
  8
0
  6
VERDECKT
 62
     1
 10
36.2990381056771412
 20
175.3000000000002956
 30
-0.0000000000000389
 11
36.2990381056771412
 21
172.8000000000002956
 31
-0.0000000000000384
210
0.0
220
1.0
230
-0.0000000000000002
  0
LINE
  5
3E47
  8
0
  6
VERDECKT
 62
     1
 10
36.2990381056771412
 20
175.3000000000002956
 30
-0.0000000000000389
 11
33.700961894323882
 21
175.3000000000002956
 31
-0.0000000000000389
210
0.0
220
1.0
230
-0.0000000000000002
  0
LINE
  5
3E48
  8
0
  6
VERDECKT
 62
     1
 10
33.7009618943230933
 20
175.3000000000002956
 30
-0.0000000000000389
 11
32.7009618943230933
 21
176.4547005383795977
 31
-0.0000000000000392
210
0.0
220
1.0
230
-0.0000000000000002
  0
LINE
  5
3E49
  8
0
  6
VERDECKT
 62
     1
 10
35.2990381056766935
 20
176.4547005383795977
 30
-0.0000000000000392
 11
36.2990381056766935
 21
175.3000000000002956
 31
-0.0000000000000389
210
0.0
220
1.0
230
-0.0000000000000002
  0
LINE
  5
3E4A
  8
0
  6
VERDECKT
 62
     1
 10
35.2990381056766935
 20
176.4547005383795977
 30
-0.0000000000000392
 11
32.7009618943234273
 21
176.4547005383795977
 31
-0.0000000000000392
210
0.0
220
1.0
230
-0.0000000000000002
  0
LINE
  5
3E4B
  8
0
  6
VERDECKT
 62
     1
 10
32.7009618943230933
 20
176.4547005383795977
 30
-0.0000000000000392
 11
32.7009618943230933
 21
186.3452994616210106
 31
-0.0000000000000414
210
0.0
220
1.0
230
-0.0000000000000002
  0
LINE
  5
3E4C
  8
0
  6
VERDECKT
 62
     1
 10
35.2990381056766935
 20
186.3452994616210106
 30
-0.0000000000000414
 11
35.2990381056766935
 21
176.4547005383795977
 31
-0.0000000000000392
210
0.0
220
1.0
230
-0.0000000000000002
  0
LINE
  5
3E4D
  8
0
  6
VERDECKT
 62
     1
 10
35.2990381056766935
 20
186.3452994616210106
 30
-0.0000000000000414
 11
32.7009618943234273
 21
186.3452994616210106
 31
-0.0000000000000414
210
0.0
220
1.0
230
-0.0000000000000002
  0
LINE
  5
3E4E
  8
0
  6
VERDECKT
 62
     1
 10
32.7009618943230933
 20
186.3452994616210106
 30
-0.0000000000000414
 11
33.7009618943230933
 21
187.5000000000003126
 31
-0.0000000000000416
210
0.0
220
1.0
230
-0.0000000000000002
  0
LINE
  5
3E4F
  8
0
  6
VERDECKT
 62
     1
 10
36.2990381056771412
 20
187.5000000000003126
 30
-0.0000000000000416
 11
35.2990381056771412
 21
186.3452994616210106
 31
-0.0000000000000414
210
0.0
220
1.0
230
-0.0000000000000002
  0
LINE
  5
3E50
  8
0
  6
VERDECKT
 62
     1
 10
36.2990381056771412
 20
187.5000000000003126
 30
-0.0000000000000416
 11
33.700961894323882
 21
187.5000000000003126
 31
-0.0000000000000416
210
0.0
220
1.0
230
-0.0000000000000002
  0
LINE
  5
3E51
  8
0
  6
VERDECKT
 62
     1
 10
33.7009618943230933
 20
187.5000000000003126
 30
-0.0000000000000416
 11
33.7009618943230933
 21
190.0000000000003126
 31
-0.0000000000000422
210
0.0
220
1.0
230
-0.0000000000000002
  0
LINE
  5
3E52
  8
0
  6
VERDECKT
 62
     1
 10
36.2990381056771412
 20
190.0000000000003126
 30
-0.0000000000000422
 11
36.2990381056771412
 21
187.5000000000003126
 31
-0.0000000000000416
210
0.0
220
1.0
230
-0.0000000000000002
  0
LINE
  5
3E53
  8
0
  6
VERDECKT
 62
     1
 10
36.2990381056771412
 20
190.0000000000003126
 30
-0.0000000000000422
 11
33.700961894323882
 21
190.0000000000003126
 31
-0.0000000000000422
210
0.0
220
1.0
230
-0.0000000000000002
  0
LINE
  5
3E54
  8
0
  6
VERDECKT
 62
     1
 10
33.7009618943233065
 20
190.0000000000003126
 30
-0.0000000000000422
 11
30.2009618943233207
 21
190.000000000000199
 31
-0.0000000000000422
210
0.0
220
1.0
230
-0.0000000000000002
  0
ENDBLK
  5
3E56
  8
0
  0
ENDSEC
  0
SECTION
  2
ENTITIES
  0
TEXT
  5
8E
  8
VOLL
 10
78.076754716981128
 20
31.025947764705851
 30
0.0
 40
1.8
  1

  7
GREEKS
  0
POINT
  5
3557
  8
DEFPOINTS
  6
BYBLOCK
 62
     0
 10
-50.3875793553183868
 20
-0.0000000000000027
 30
22.0000000000000604
210
0.0
220
-1.0
230
0.0000000000000001
  0
INSERT
  5
3DCD
  8
DEFPOINTS
  2
A$C4D1C7A59
 10
-0.000000000000031
 20
-122.5
 30
0.0
  0
INSERT
  5
3E57
  8
DEFPOINTS
  2
A$C58F7278D
 10
0.0
 20
0.0
 30
0.0
  0
VIEWPORT
  5
39D0
 67
     1
  8
0
 10
4.8874508445403819
 20
6.899436775488879
 30
0.0
 40
24.9209341795223303
 41
14.14833912582443
 68
     1
 69
     1
1001
ACAD
1000
MVIEW
1002
{
1070
    16
1010
0.0
1020
0.0
1030
0.0
1010
0.0
1020
0.0
1030
1.0
1040
0.0
1040
14.14833912582443
1040
4.8874508445403819
1040
6.899436775488879
1040
50.0
1040
0.0
1040
0.0
1070
     0
1070
  1500
1070
     1
1070
     1
1070
     0
1070
     0
1070
     0
1070
     0
1040
0.0
1040
0.0
1040
0.0
1040
10.0
1040
10.0
1040
10.0
1040
10.0
1070
     0
1002
{
1002
}
1002
}
  0
VIEWPORT
  5
39D4
 67
     1
  8
DEFPOINTS
 10
4.8877257072141687
 20
6.8997017148572191
 30
0.0
 40
10.0299487882351208
 41
14.0484315013349708
 68
     2
 69
     2
1001
ACAD
1000
MVIEW
1002
{
1070
    16
1010
315.9029966006403924
1020
209.3147116741554044
1030
-112.5525637516307
1010
0.0
1020
0.0
1030
1142.3076954355340149
1040
0.0
1040
435.2520399547279908
1040
-164.0037321126098959
1040
5.4944080367452317
1040
50.0
1040
0.0
1040
0.0
1070
     0
1070
  1500
1070
     1
1070
     0
1070
     0
1070
     0
1070
     0
1070
     0
1040
0.0
1040
0.0
1040
0.0
1040
1.0
1040
1.0
1040
10.0
1040
10.0
1070
     0
1002
{
1002
}
1002
}
  0
VIEWPORT
  5
39D8
 67
     1
  8
DEFPOINTS
 10
7.8546239689469166
 20
2.700205155326322
 30
0.0
 40
2.728416635518371
 41
3.9726073509085889
 68
     3
 69
     3
1001
ACAD
1000
MVIEW
1002
{
1070
    16
1010
553.2494195382768112
1020
221.2903307760875009
1030
-99.1475749689591908
1010
143.7162050356596978
1020
131.5626599158998999
1030
450.9045460188063998
1040
2.2732368830453491
1040
235.196770017315913
1040
0.0
1040
2.1347857126799878
1040
50.0
1040
0.0
1040
0.0
1070
     0
1070
  1500
1070
     1
1070
     0
1070
     0
1070
     0
1070
     0
1070
     0
1040
0.0
1040
0.0
1040
0.0
1040
1.0
1040
1.0
1040
10.0
1040
10.0
1070
     0
1002
{
1002
}
1002
}
  0
ENDSEC
  0
EOF
