  0
SECTION
  2
HEADER
  9
$ACADVER
  1
AC1009
  9
$INSBASE
 10
0.0
 20
0.0
 30
0.0
  9
$EXTMIN
 10
-72.4999999999999005
 20
-172.5
 30
-0.00000000000004
  9
$EXTMAX
 10
72.5000000000001563
 20
180.000000000000199
 30
2.000000000000028
  9
$LIMMIN
 10
0.0
 20
0.0
  9
$LIMMAX
 10
420.0
 20
297.0
  9
$ORTHOMODE
 70
     1
  9
$REGENMODE
 70
     1
  9
$FILLMODE
 70
     1
  9
$QTEXTMODE
 70
     0
  9
$MIRRTEXT
 70
     1
  9
$DRAGMODE
 70
     2
  9
$LTSCALE
 40
10.0
  9
$OSMODE
 70
   511
  9
$ATTMODE
 70
     2
  9
$TEXTSIZE
 40
3.5
  9
$TRACEWID
 40
1.0
  9
$TEXTSTYLE
  7
STANDARD
  9
$CLAYER
  8
STEMPEL
  9
$CELTYPE
  6
BYLAYER
  9
$CECOLOR
 62
   256
  9
$DIMSCALE
 40
1.0
  9
$DIMASZ
 40
3.5
  9
$DIMEXO
 40
1.0
  9
$DIMDLI
 40
0.38
  9
$DIMRND
 40
0.0
  9
$DIMDLE
 40
0.0
  9
$DIMEXE
 40
1.0
  9
$DIMTP
 40
0.0
  9
$DIMTM
 40
0.000000001
  9
$DIMTXT
 40
3.5
  9
$DIMCEN
 40
0.09
  9
$DIMTSZ
 40
0.0
  9
$DIMTOL
 70
     0
  9
$DIMLIM
 70
     0
  9
$DIMTIH
 70
     0
  9
$DIMTOH
 70
     0
  9
$DIMSE1
 70
     0
  9
$DIMSE2
 70
     0
  9
$DIMTAD
 70
     1
  9
$DIMZIN
 70
     8
  9
$DIMBLK
  1

  9
$DIMASO
 70
     1
  9
$DIMSHO
 70
     0
  9
$DIMPOST
  1

  9
$DIMAPOST
  1

  9
$DIMALT
 70
     0
  9
$DIMALTD
 70
     2
  9
$DIMALTF
 40
25.3999999999999986
  9
$DIMLFAC
 40
1.0
  9
$DIMTOFL
 70
     1
  9
$DIMTVP
 40
0.0
  9
$DIMTIX
 70
     0
  9
$DIMSOXD
 70
     0
  9
$DIMSAH
 70
     0
  9
$DIMBLK1
  1

  9
$DIMBLK2
  1

  9
$DIMSTYLE
  2
LORO
  9
$DIMCLRD
 70
     0
  9
$DIMCLRE
 70
     0
  9
$DIMCLRT
 70
     1
  9
$DIMTFAC
 40
0.5
  9
$DIMGAP
 40
1.5
  9
$LUNITS
 70
     2
  9
$LUPREC
 70
     2
  9
$SKETCHINC
 40
1.0
  9
$FILLETRAD
 40
26.0
  9
$AUNITS
 70
     0
  9
$AUPREC
 70
     0
  9
$MENU
  1
ACAD
  9
$ELEVATION
 40
0.0
  9
$PELEVATION
 40
0.0
  9
$THICKNESS
 40
0.0
  9
$LIMCHECK
 70
     0
  9
$BLIPMODE
 70
     0
  9
$CHAMFERA
 40
0.0
  9
$CHAMFERB
 40
0.0
  9
$SKPOLY
 70
     0
  9
$TDCREATE
 40
2455397.867048610933125
  9
$TDUPDATE
 40
2460326.4481944451108575
  9
$TDINDWG
 40
1.8286515394
  9
$TDUSRTIMER
 40
1.8286515394
  9
$USRTIMER
 70
     1
  9
$ANGBASE
 50
0.0
  9
$ANGDIR
 70
     0
  9
$PDMODE
 70
     0
  9
$PDSIZE
 40
0.0
  9
$PLINEWID
 40
0.0
  9
$COORDS
 70
     1
  9
$SPLFRAME
 70
     0
  9
$SPLINETYPE
 70
     6
  9
$SPLINESEGS
 70
     8
  9
$ATTDIA
 70
     1
  9
$ATTREQ
 70
     1
  9
$HANDLING
 70
     1
  9
$HANDSEED
  5
125A2
  9
$SURFTAB1
 70
     6
  9
$SURFTAB2
 70
     6
  9
$SURFTYPE
 70
     6
  9
$SURFU
 70
     6
  9
$SURFV
 70
     6
  9
$UCSNAME
  2

  9
$UCSORG
 10
0.0
 20
0.0
 30
0.0
  9
$UCSXDIR
 10
1.0
 20
0.0
 30
0.0
  9
$UCSYDIR
 10
0.0
 20
1.0
 30
0.0
  9
$PUCSNAME
  2

  9
$PUCSORG
 10
0.0
 20
0.0
 30
0.0
  9
$PUCSXDIR
 10
1.0
 20
0.0
 30
0.0
  9
$PUCSYDIR
 10
0.0
 20
1.0
 30
0.0
  9
$USERI1
 70
     0
  9
$USERI2
 70
     0
  9
$USERI3
 70
     0
  9
$USERI4
 70
     0
  9
$USERI5
 70
     0
  9
$USERR1
 40
0.0
  9
$USERR2
 40
0.0
  9
$USERR3
 40
0.0
  9
$USERR4
 40
0.0
  9
$USERR5
 40
0.0
  9
$WORLDVIEW
 70
     1
  9
$SHADEDGE
 70
     3
  9
$SHADEDIF
 70
    70
  9
$TILEMODE
 70
     1
  9
$MAXACTVP
 70
    16
  9
$PLIMCHECK
 70
     0
  9
$PEXTMIN
 10
1.0000000000000000E+20
 20
1.0000000000000000E+20
 30
1.0000000000000000E+20
  9
$PEXTMAX
 10
-1.0000000000000000E+20
 20
-1.0000000000000000E+20
 30
-1.0000000000000000E+20
  9
$PLIMMIN
 10
-0.2447509765625
 20
-0.25
  9
$PLIMMAX
 10
296.7552490234375
 20
419.7499999999998863
  9
$UNITMODE
 70
     0
  9
$VISRETAIN
 70
     0
  9
$PLINEGEN
 70
     0
  9
$PSLTSCALE
 70
     0
  0
ENDSEC
  0
SECTION
  2
TABLES
  0
TABLE
  2
VPORT
 70
     1
  0
VPORT
  2
*ACTIVE
 70
     0
 10
0.0
 20
0.0
 11
1.0
 21
1.0
 12
0.0000000000001137
 22
-50.0025291442869886
 13
0.0
 23
0.0
 14
1.0
 24
1.0
 15
10.0
 25
10.0
 16
-0.0000000000001757
 26
0.0
 36
791.2152499078833898
 17
0.0
 27
53.7525291442871094
 37
0.9999999999999943
 40
354.3030690537087253
 41
1.8720136518771331
 42
50.0
 43
0.0
 44
0.0
 50
0.0
 51
0.0
 71
     0
 72
  1500
 73
     1
 74
     0
 75
     0
 76
     0
 77
     0
 78
     0
  0
ENDTAB
  0
TABLE
  2
LTYPE
 70
     4
  0
LTYPE
  2
CONTINUOUS
 70
     0
  3
Solid line
 72
    65
 73
     0
 40
0.0
  0
LTYPE
  2
STRICHPUNKT
 70
     0
  3
__ . __ . __ . __ . __ . __ . __ . __ . __ . __
 72
    65
 73
     4
 40
1.0
 49
0.5
 49
-0.25
 49
0.0
 49
-0.25
  0
LTYPE
  2
VERDECKT
 70
     0
  3
Verdeckt __ __ __ __ __ __ __ __ __ __ __ __ __
 72
    65
 73
     2
 40
0.375
 49
0.25
 49
-0.125
  0
ENDTAB
  0
TABLE
  2
LAYER
 70
     5
  0
LAYER
  2
0
 70
     0
 62
     7
  6
CONTINUOUS
  0
LAYER
  2
STEMPEL
 70
     0
 62
     3
  6
CONTINUOUS
  0
LAYER
  2
ADSK_ASSOC_ENTITY_BACKUPS
 70
     1
 62
    -7
  6
CONTINUOUS
  0
ENDTAB
  0
TABLE
  2
STYLE
 70
     1
  0
STYLE
  2
STANDARD
 70
     0
 40
0.0
 41
0.8
 50
0.0
 71
     0
 42
3.5
  3
simplex.shx
  4

  0
ENDTAB
  0
TABLE
  2
VIEW
 70
     0
  0
ENDTAB
  0
TABLE
  2
UCS
 70
     0
  0
ENDTAB
  0
TABLE
  2
APPID
 70
    31
  0
APPID
  2
ACAD
 70
     0
  0
APPID
  2
ACAD_NAV_VCDISPLAY
 70
     0
  0
APPID
  2
GRADIENTCOLOR1ACI
 70
     0
  0
APPID
  2
GRADIENTCOLOR2ACI
 70
     0
  0
APPID
  2
ACAD_DSTYLE_DIMRADIAL_EXTENSION
 70
     0
  0
APPID
  2
ACADANNOMONITORALERTICONDI
 70
     0
  0
APPID
  2
ACAD_EXEMPT_FROM_CAD_STANDARDS
 70
     0
  0
APPID
  2
ACAD_MLEADERVER
 70
     0
  0
APPID
  2
ACAD_PSEXT
 70
     0
  0
APPID
  2
ACAECLAYERSTANDARD
 70
     0
  0
APPID
  2
ACAUTHENVIRON
 70
     0
  0
APPID
  2
ACDBDYNAMICBLOCKTRUENAME
 70
     0
  0
APPID
  2
ACDBDYNAMICBLOCKGUID
 70
     0
  0
APPID
  2
ACCMTRANSPARENCY
 70
     0
  0
APPID
  2
ACAD_STEPID
 70
     0
  0
APPID
  2
ACAD_ASSOCPERSSUBENTMANAGER
 70
     0
  0
APPID
  2
ACSYNERGY
 70
     0
  0
APPID
  2
SYNERGY_BODY_TBR_ID
 70
     0
  0
APPID
  2
ACAD_VIEW_EDGE_ID
 70
     0
  0
APPID
  2
ACAD_DSTYLE_DIMJAG
 70
     0
  0
APPID
  2
ACAD_DSTYLE_DIMTALN
 70
     0
  0
APPID
  2
ACAD_DSTYLE_DIMBREAK
 70
     0
  0
APPID
  2
ACADANNOPO
 70
     0
  0
APPID
  2
ACSYNERGYSKETCH
 70
     0
  0
APPID
  2
SYNERGY_EXCLUDED_FROM_SNAPSHOT
 70
     0
  0
APPID
  2
ACAD_MODELDOC_XFORM
 70
     0
  0
APPID
  2
ACADANNOTATIVE
 70
     0
  0
APPID
  2
PLOTTRANSPARENCY
 70
     0
  0
APPID
  2
ACAD_DIMASSOC_CALC_DIMLFAC
 70
     0
  0
APPID
  2
ACAD_DIMASSOC_DIMLFAC
 70
     0
  0
APPID
  2
ACAD_DIMASSOC_OVERRIDDEN_D
 70
     0
  0
ENDTAB
  0
TABLE
  2
DIMSTYLE
 70
     1
  0
DIMSTYLE
  2
LORO
 70
     0
  3

  4

  5

  6

  7

 40
1.0
 41
3.5
 42
1.0
 43
0.38
 44
1.0
 45
0.0
 46
0.0
 47
0.0
 48
0.000000001
140
3.5
141
0.09
142
0.0
143
25.3999999999999986
144
1.0
145
0.0
146
0.5
147
1.5
 71
     0
 72
     0
 73
     0
 74
     0
 75
     0
 76
     0
 77
     1
 78
     8
170
     0
171
     2
172
     1
173
     0
174
     0
175
     0
176
     0
177
     0
178
     1
  0
ENDTAB
  0
ENDSEC
  0
SECTION
  2
BLOCKS
  0
BLOCK
  8
0
  2
$MODEL_SPACE
 70
     0
 10
0.0
 20
0.0
 30
0.0
  3
$MODEL_SPACE
  1

  0
ENDBLK
  5
38
  8
0
  0
BLOCK
 67
     1
  8
0
  2
$PAPER_SPACE
 70
     0
 10
0.0
 20
0.0
 30
0.0
  3
$PAPER_SPACE
  1

  0
ENDBLK
  5
36
 67
     1
  8
0
  0
BLOCK
  8
0
  2
*S0
 70
     1
 10
0.0
 20
0.0
 30
0.0
  3
*S0
  1

  0
ENDBLK
  5
1CE3
  8
0
  0
BLOCK
  8
0
  2
A$C7156F07D
 70
     0
 10
0.0
 20
0.0
 30
0.0
  3
A$C7156F07D
  1

  0
LINE
  5
12496
  8
0
  6
CONTINUOUS
 62
     3
 10
-58.616779199767052
 20
108.0
 30
-0.000000000000024
 11
58.6167791997672722
 21
107.9999999999999005
 31
-0.000000000000024
210
0.0
220
1.0
230
-0.0000000000000002
  0
LINE
  5
12497
  8
0
  6
CONTINUOUS
 62
     3
 10
-51.9768825487300035
 20
87.9127548746566418
 30
-0.0000000000000195
 11
-58.616779199767052
 21
108.0
 31
-0.000000000000024
210
0.0
220
1.0
230
-0.0000000000000002
  0
LINE
  5
12498
  8
0
  6
CONTINUOUS
 62
     3
 10
51.9768825487302095
 20
87.912754874656585
 30
-0.0000000000000195
 11
58.6167791997673007
 21
107.9999999999999005
 31
-0.000000000000024
210
0.0
220
1.0
230
-0.0000000000000002
  0
LINE
  5
12499
  8
0
  6
CONTINUOUS
 62
     3
 10
-53.7201112156668614
 20
87.9127548746566561
 30
-0.0000000000000195
 11
53.720111215666968
 21
87.9127548746565566
 31
-0.0000000000000195
210
0.0
220
1.0
230
-0.0000000000000002
  0
LINE
  5
1249A
  8
0
  6
CONTINUOUS
 62
     3
 10
-66.5
 20
0.0000000000000853
 30
0.0
 11
66.5
 21
-0.0000000000000284
 31
0.0
210
0.0
220
1.0
230
-0.0000000000000002
  0
LINE
  5
1249B
  8
0
  6
CONTINUOUS
 62
     3
 10
53.7201112156669467
 20
87.9127548746565708
 30
-0.0000000000000195
 11
65.0701380934940516
 21
68.4516812306129907
 31
-0.0000000000000152
210
0.0
220
1.0
230
-0.0000000000000002
  0
LINE
  5
1249C
  8
0
  6
CONTINUOUS
 62
     3
 10
-53.7201112156668188
 20
87.9127548746566561
 30
-0.0000000000000195
 11
-65.0701380934939664
 21
68.4516812306130618
 31
-0.0000000000000152
210
0.0
220
1.0
230
-0.0000000000000002
  0
ARC
  5
1249D
  8
0
  6
CONTINUOUS
 62
     3
 10
55.9999999999998508
 20
63.1618234853663481
 30
0.0
 40
10.5
210
0.0
220
-0.0000000000000002
230
-1.0
 50
0.0
 51
30.2514591222211386
  0
ARC
  5
1249E
  8
0
  6
CONTINUOUS
 62
     3
 10
-55.9999999999997229
 20
63.1618234853662273
 30
0.0
 40
10.5000000000002398
210
0.0
220
-0.0000000000000002
230
-1.0
 50
149.7485408777791065
 51
179.999999999999801
  0
LINE
  5
1249F
  8
0
  6
CONTINUOUS
 62
     3
 10
66.4999999999999432
 20
63.1618234853662486
 30
-0.000000000000014
 11
66.4999999999999289
 21
-0.0000000000000426
 31
0.0
210
0.0
220
1.0
230
-0.0000000000000002
  0
LINE
  5
124A0
  8
0
  6
CONTINUOUS
 62
     3
 10
-66.4999999999999289
 20
63.1618234853663481
 30
-0.000000000000014
 11
-66.4999999999999432
 21
0.0000000000000284
 31
0.0
210
0.0
220
1.0
230
-0.0000000000000002
  0
LINE
  5
124A1
  8
0
  6
CONTINUOUS
 62
     3
 10
-58.616779199767052
 20
108.0
 30
-0.000000000000024
 11
58.6167791997672722
 21
108.0
 31
-0.000000000000024
210
0.0
220
1.0
230
-0.0000000000000002
  0
LINE
  5
124A2
  8
0
  6
CONTINUOUS
 62
     3
 10
70.0000000000007958
 20
163.0
 30
-0.0000000000000362
 11
70.0000000000007958
 21
170.0000000000001137
 31
-0.0000000000000377
210
0.0
220
1.0
230
-0.0000000000000002
  0
LINE
  5
124A3
  8
0
  6
CONTINUOUS
 62
     3
 10
70.0000000000003411
 20
163.0000000000001137
 30
-0.0000000000000362
 11
72.5000000000001137
 21
163.0000000000001137
 31
-0.0000000000000362
210
0.0
220
1.0
230
-0.0000000000000002
  0
LINE
  5
124A4
  8
0
  6
CONTINUOUS
 62
     3
 10
72.5000000000000853
 20
170.0000000000001137
 30
-0.0000000000000377
 11
70.0000000000003268
 21
170.0000000000001137
 31
-0.0000000000000377
210
0.0
220
1.0
230
-0.0000000000000002
  0
LINE
  5
124A5
  8
0
  6
CONTINUOUS
 62
     3
 10
-51.3458710382808476
 20
163.0000000000001137
 30
-0.0000000000000362
 11
-51.3458710382808476
 21
170.0000000000001137
 31
-0.0000000000000377
210
0.0
220
1.0
230
-0.0000000000000002
  0
LINE
  5
124A6
  8
0
  6
CONTINUOUS
 62
     3
 10
-18.6541289617175607
 20
170.0000000000001137
 30
-0.0000000000000377
 11
-18.6541289617175607
 21
163.0000000000001137
 31
-0.0000000000000362
210
0.0
220
1.0
230
-0.0000000000000002
  0
LINE
  5
124A7
  8
0
  6
CONTINUOUS
 62
     3
 10
-51.3458710382775507
 20
163.0000000000001137
 30
-0.0000000000000362
 11
-18.6541289617218808
 21
163.0000000000001137
 31
-0.0000000000000362
210
0.0
220
1.0
230
-0.0000000000000002
  0
LINE
  5
124A8
  8
0
  6
CONTINUOUS
 62
     3
 10
-18.6541289617218702
 20
170.0000000000001137
 30
-0.0000000000000377
 11
-51.3458710382775507
 21
170.0000000000001137
 31
-0.0000000000000377
210
0.0
220
1.0
230
-0.0000000000000002
  0
LINE
  5
124A9
  8
0
  6
CONTINUOUS
 62
     3
 10
-69.9999999999992042
 20
170.0000000000001137
 30
-0.0000000000000377
 11
-69.9999999999992042
 21
163.0
 31
-0.0000000000000362
210
0.0
220
1.0
230
-0.0000000000000002
  0
LINE
  5
124AA
  8
0
  6
CONTINUOUS
 62
     3
 10
-72.4999999999998863
 20
163.0000000000001137
 30
-0.0000000000000362
 11
-70.0000000000001137
 21
163.0000000000001137
 31
-0.0000000000000362
210
0.0
220
1.0
230
-0.0000000000000002
  0
LINE
  5
124AB
  8
0
  6
CONTINUOUS
 62
     3
 10
-70.0000000000001279
 20
170.0000000000001137
 30
-0.0000000000000377
 11
-72.4999999999998863
 21
170.0000000000001137
 31
-0.0000000000000377
210
0.0
220
1.0
230
-0.0000000000000002
  0
LINE
  5
124AC
  8
0
  6
CONTINUOUS
 62
     3
 10
-72.4999999999998863
 20
180.0000000000001137
 30
-0.00000000000004
 11
72.5000000000001137
 21
180.0000000000001137
 31
-0.00000000000004
210
0.0
220
1.0
230
-0.0000000000000002
  0
ARC
  5
124AD
  8
0
  6
CONTINUOUS
 62
     3
 10
63.999999999996362
 20
151.3684379180099882
 30
0.0
 40
8.5000000000035385
210
0.0
220
-0.0000000000000002
230
-1.0
 50
341.7085481866635064
 51
359.9999999999945999
  0
ARC
  5
124AE
  8
0
  6
CONTINUOUS
 62
     3
 10
-63.9999999999965894
 20
151.3684379180099882
 30
0.0
 40
8.5000000000035385
210
0.0
220
-0.0000000000000002
230
-1.0
 50
180.0000000000052864
 51
198.2914518133364083
  0
LINE
  5
124AF
  8
0
  6
CONTINUOUS
 62
     3
 10
-58.616779199767052
 20
108.0
 30
-0.000000000000024
 11
-72.0705146593639938
 21
148.7007060849743141
 31
-0.000000000000033
210
0.0
220
1.0
230
-0.0000000000000002
  0
LINE
  5
124B0
  8
0
  6
CONTINUOUS
 62
     3
 10
58.6167791997672722
 20
108.0
 30
-0.000000000000024
 11
72.0705146593642212
 21
148.7007060849743141
 31
-0.000000000000033
210
0.0
220
1.0
230
-0.0000000000000002
  0
LINE
  5
124B1
  8
0
  6
CONTINUOUS
 62
     3
 10
72.5000000000001137
 20
180.0000000000001137
 30
-0.00000000000004
 11
72.5000000000001137
 21
170.0000000000001137
 31
-0.0000000000000377
210
0.0
220
1.0
230
-0.0000000000000002
  0
LINE
  5
124B2
  8
0
  6
CONTINUOUS
 62
     3
 10
72.5000000000001137
 20
163.0000000000001137
 30
-0.0000000000000362
 11
72.5000000000001137
 21
151.3684379180091923
 31
-0.0000000000000336
210
0.0
220
1.0
230
-0.0000000000000002
  0
LINE
  5
124B3
  8
0
  6
CONTINUOUS
 62
     3
 10
-72.4999999999998863
 20
180.0000000000001137
 30
-0.00000000000004
 11
-72.4999999999998863
 21
170.0000000000001137
 31
-0.0000000000000377
210
0.0
220
1.0
230
-0.0000000000000002
  0
LINE
  5
124B4
  8
0
  6
CONTINUOUS
 62
     3
 10
-72.4999999999998863
 20
163.0000000000001137
 30
-0.0000000000000362
 11
-72.4999999999998863
 21
151.3684379180091923
 31
-0.0000000000000336
210
0.0
220
1.0
230
-0.0000000000000002
  0
LINE
  5
124B5
  8
0
  6
VERDECKT
 62
     1
 10
-50.3875793553183868
 20
2.000000000000028
 30
-0.0000000000000004
 11
50.3875793553183868
 21
1.999999999999915
 31
-0.0000000000000004
210
0.0
220
1.0
230
-0.0000000000000002
  0
LINE
  5
124B6
  8
0
  6
VERDECKT
 62
     1
 10
-56.7178345740343204
 20
108.6277016077730053
 30
-0.0000000000000241
 11
56.7178345740345478
 21
108.6277016077729058
 31
-0.0000000000000241
210
0.0
220
1.0
230
-0.0000000000000002
  0
ARC
  5
124B7
  8
0
  6
VERDECKT
 62
     1
 10
50.0000000000025224
 20
9.0436609429096926
 30
0.0
 40
0.9999999999975983
210
0.0
220
-0.0000000000000002
230
-1.0
 50
354.9999999999914735
 51
0.0000000000052034
  0
ARC
  5
124B8
  8
0
  6
VERDECKT
 62
     1
 10
-50.0000000000024087
 20
9.0436609429095824
 30
0.0
 40
0.9999999999977049
210
0.0
220
-0.0000000000000002
230
-1.0
 50
179.9999999999947136
 51
185.0000000000081002
  0
LINE
  5
124B9
  8
0
  6
VERDECKT
 62
     1
 10
51.000000000000199
 20
83.6695144128855048
 30
-0.0000000000000186
 11
51.0000000000001279
 21
9.0436609429096695
 31
-0.000000000000002
210
0.0
220
1.0
230
-0.0000000000000002
  0
LINE
  5
124BA
  8
0
  6
VERDECKT
 62
     1
 10
-51.0000000000000213
 20
83.6695144128856043
 30
-0.0000000000000186
 11
-51.0000000000000924
 21
9.0436609429097832
 31
-0.000000000000002
210
0.0
220
1.0
230
-0.0000000000000002
  0
LINE
  5
124BB
  8
0
  6
VERDECKT
 62
     1
 10
-50.3875793553183868
 20
2.000000000000028
 30
-0.0000000000000004
 11
-50.9961946980918484
 21
8.9565052001620966
 31
-0.000000000000002
210
0.0
220
1.0
230
-0.0000000000000002
  0
LINE
  5
124BC
  8
0
  6
VERDECKT
 62
     1
 10
50.3875793553183868
 20
1.9999999999999201
 30
-0.0000000000000004
 11
50.9961946980918484
 21
8.9565052001619812
 31
-0.000000000000002
210
0.0
220
1.0
230
-0.0000000000000002
  0
ARC
  5
124BD
  8
0
  6
VERDECKT
 62
     1
 10
48.0000000000026006
 20
9.1309828287260721
 30
0.0
 40
0.9999999999974561
210
0.0
220
-0.0000000000000002
230
-1.0
 50
354.9999999999910756
 51
0.0000000000051907
  0
ARC
  5
124BE
  8
0
  6
VERDECKT
 62
     1
 10
-48.0000000000024798
 20
9.130982828725962
 30
0.0
 40
0.999999999997577
210
0.0
220
-0.0000000000000002
230
-1.0
 50
179.9999999999945999
 51
185.0000000000084128
  0
LINE
  5
124BF
  8
0
  6
VERDECKT
 62
     1
 10
-48.3799396802317005
 20
2.0000000000000289
 30
-0.0000000000000004
 11
-48.9961946980917986
 21
9.0438270859784797
 31
-0.000000000000002
210
0.0
220
1.0
230
-0.0000000000000002
  0
LINE
  5
124C0
  8
0
  6
VERDECKT
 62
     1
 10
48.3799396802317005
 20
1.999999999999923
 30
-0.0000000000000004
 11
48.9961946980918128
 21
9.043827085978366
 31
-0.000000000000002
210
0.0
220
1.0
230
-0.0000000000000002
  0
LINE
  5
124C1
  8
0
  6
VERDECKT
 62
     1
 10
49.0000000000001492
 20
83.6695144128849648
 30
-0.0000000000000186
 11
49.0000000000000782
 21
9.130982828726049
 31
-0.000000000000002
210
0.0
220
1.0
230
-0.0000000000000002
  0
LINE
  5
124C2
  8
0
  6
VERDECKT
 62
     1
 10
-48.9999999999999574
 20
83.6695144128850785
 30
-0.0000000000000186
 11
-49.0000000000000284
 21
9.1309828287261627
 31
-0.000000000000002
210
0.0
220
1.0
230
-0.0000000000000002
  0
ARC
  5
124C3
  8
0
  6
VERDECKT
 62
     1
 10
59.0000000000022524
 20
83.6695144128846948
 30
0.0
 40
10.0000000000022098
210
0.0
220
-0.0000000000000002
230
-1.0
 50
161.7085481866625116
 51
179.9999999999978968
  0
ARC
  5
124C4
  8
0
  6
VERDECKT
 62
     1
 10
-59.0000000000025722
 20
83.6695144128845669
 30
0.0
 40
10.0000000000024301
210
0.0
220
-0.0000000000000002
230
-1.0
 50
0.0000000000022773
 51
18.2914518133373285
  0
LINE
  5
124C5
  8
0
  6
VERDECKT
 62
     1
 10
-49.5052768713363633
 20
86.8080224517498493
 30
-0.0000000000000193
 11
-56.717834574034363
 21
108.6277016077730053
 31
-0.0000000000000241
210
0.0
220
1.0
230
-0.0000000000000002
  0
LINE
  5
124C6
  8
0
  6
VERDECKT
 62
     1
 10
49.5052768713365481
 20
86.8080224517497356
 30
-0.0000000000000193
 11
56.7178345740346117
 21
108.6277016077729058
 31
-0.0000000000000241
210
0.0
220
1.0
230
-0.0000000000000002
  0
LINE
  5
124C7
  8
0
  6
VERDECKT
 62
     1
 10
56.7178345740345478
 20
108.6277016077729058
 30
-0.0000000000000241
 11
58.6167791997672722
 21
107.9999999999999005
 31
-0.000000000000024
210
0.0
220
1.0
230
-0.0000000000000002
  0
LINE
  5
124C8
  8
0
  6
VERDECKT
 62
     1
 10
-56.7178345740343204
 20
108.6277016077730053
 30
-0.0000000000000241
 11
-58.616779199767052
 21
108.0
 31
-0.000000000000024
210
0.0
220
1.0
230
-0.0000000000000002
  0
LINE
  5
124C9
  8
0
  6
VERDECKT
 62
     1
 10
-51.404221497069102
 20
86.1803208439774551
 30
-0.0000000000000191
 11
-51.9768825487300035
 21
87.9127548746566418
 31
-0.0000000000000195
210
0.0
220
1.0
230
-0.0000000000000002
  0
LINE
  5
124CA
  8
0
  6
VERDECKT
 62
     1
 10
51.404221497069301
 20
86.1803208439773556
 30
-0.0000000000000191
 11
51.9768825487302095
 21
87.912754874656585
 31
-0.0000000000000195
210
0.0
220
1.0
230
-0.0000000000000002
  0
ARC
  5
124CB
  8
0
  6
VERDECKT
 62
     1
 10
59.0000000000027072
 20
83.6695144128854338
 30
0.0
 40
8.0000000000025633
210
0.0
220
-0.0000000000000002
230
-1.0
 50
161.708548186665098
 51
179.9999999999986073
  0
ARC
  5
124CC
  8
0
  6
VERDECKT
 62
     1
 10
-59.0000000000027285
 20
83.6695144128853343
 30
0.0
 40
8.0000000000024727
210
0.0
220
-0.0000000000000002
230
-1.0
 50
0.0000000000012213
 51
18.2914518133351791
  0
LINE
  5
124CD
  8
0
  6
VERDECKT
 62
     1
 10
-51.5605545267397929
 20
86.6532649353120945
 30
-0.0000000000000192
 11
51.5605545267399066
 21
86.6532649353119808
 31
-0.0000000000000192
210
0.0
220
1.0
230
-0.0000000000000002
  0
LINE
  5
124CE
  8
0
  6
VERDECKT
 62
     1
 10
64.0000000000000142
 20
63.1618234853659786
 30
-0.000000000000014
 11
63.9999999999999787
 21
-0.0000000000000355
 31
0.0
210
0.0
220
1.0
230
-0.0000000000000002
  0
LINE
  5
124CF
  8
0
  6
VERDECKT
 62
     1
 10
-63.9999999999999787
 20
63.1618234853660425
 30
-0.000000000000014
 11
-64.0000000000000142
 21
0.0000000000000284
 31
0.0
210
0.0
220
1.0
230
-0.0000000000000002
  0
ARC
  5
124D0
  8
0
  6
VERDECKT
 62
     1
 10
55.9999999999995381
 20
63.1618234853657796
 30
0.0
 40
8.0000000000005045
210
0.0
220
-0.0000000000000002
230
-1.0
 50
0.0000000000018829
 51
30.2514591222221014
  0
ARC
  5
124D1
  8
0
  6
VERDECKT
 62
     1
 10
-55.9999999999995808
 20
63.1618234853656801
 30
0.0
 40
8.0000000000005773
210
0.0
220
-0.0000000000000002
230
-1.0
 50
149.748540877778197
 51
179.9999999999978968
  0
LINE
  5
124D2
  8
0
  6
VERDECKT
 62
     1
 10
51.5605545267399208
 20
86.6532649353120092
 30
-0.0000000000000192
 11
62.9105814045669831
 21
67.1921912912683439
 31
-0.0000000000000149
210
0.0
220
1.0
230
-0.0000000000000002
  0
LINE
  5
124D3
  8
0
  6
VERDECKT
 62
     1
 10
-51.5605545267397929
 20
86.6532649353120945
 30
-0.0000000000000192
 11
-62.9105814045668694
 21
67.1921912912684292
 31
-0.0000000000000149
210
0.0
220
1.0
230
-0.0000000000000002
  0
LINE
  5
124D4
  8
0
  6
VERDECKT
 62
     1
 10
-51.5605545267398071
 20
86.6532649353120945
 30
-0.0000000000000192
 11
-53.7201112156668685
 21
87.9127548746566561
 31
-0.0000000000000195
210
0.0
220
1.0
230
-0.0000000000000002
  0
LINE
  5
124D5
  8
0
  6
VERDECKT
 62
     1
 10
51.5605545267398995
 20
86.6532649353120092
 30
-0.0000000000000192
 11
53.720111215666968
 21
87.912754874656585
 31
-0.0000000000000195
210
0.0
220
1.0
230
-0.0000000000000002
  0
LINE
  5
124D6
  8
0
  6
VERDECKT
 62
     1
 10
30.2009618943235409
 20
170.000000000000199
 30
-0.0000000000000377
 11
23.2009618943235409
 21
165.000000000000199
 31
-0.0000000000000366
210
0.0
220
1.0
230
-0.0000000000000002
  0
LINE
  5
124D7
  8
0
  6
VERDECKT
 62
     1
 10
25.7990381056769102
 20
165.000000000000199
 30
-0.0000000000000366
 11
32.7990381056769209
 21
170.000000000000199
 31
-0.0000000000000377
210
0.0
220
1.0
230
-0.0000000000000002
  0
LINE
  5
124D8
  8
0
  6
VERDECKT
 62
     1
 10
25.7990381056769102
 20
165.000000000000199
 30
-0.0000000000000366
 11
23.2009618943236617
 21
165.000000000000199
 31
-0.0000000000000366
210
0.0
220
1.0
230
-0.0000000000000002
  0
LINE
  5
124D9
  8
0
  6
VERDECKT
 62
     1
 10
23.2009618943235409
 20
165.000000000000199
 30
-0.0000000000000366
 11
19.7009618943235409
 21
165.0000000000003126
 31
-0.0000000000000366
210
0.0
220
1.0
230
-0.0000000000000002
  0
LINE
  5
124DA
  8
0
  6
VERDECKT
 62
     1
 10
19.7009618943230791
 20
165.0000000000003126
 30
-0.0000000000000366
 11
19.7009618943230791
 21
157.8000000000004093
 31
-0.000000000000035
210
0.0
220
1.0
230
-0.0000000000000002
  0
LINE
  5
124DB
  8
0
  6
VERDECKT
 62
     1
 10
22.29903810567669
 20
157.8000000000004093
 30
-0.000000000000035
 11
22.29903810567669
 21
165.0000000000003126
 31
-0.0000000000000366
210
0.0
220
1.0
230
-0.0000000000000002
  0
LINE
  5
124DC
  8
0
  6
VERDECKT
 62
     1
 10
19.7009618943234308
 20
157.8000000000004093
 30
-0.000000000000035
 11
23.2009618943235409
 21
157.8000000000004093
 31
-0.000000000000035
210
0.0
220
1.0
230
-0.0000000000000002
  0
LINE
  5
124DD
  8
0
  6
VERDECKT
 62
     1
 10
25.7990381056769102
 20
157.8000000000004093
 30
-0.000000000000035
 11
23.2009618943236617
 21
157.8000000000004093
 31
-0.000000000000035
210
0.0
220
1.0
230
-0.0000000000000002
  0
LINE
  5
124DE
  8
0
  6
VERDECKT
 62
     1
 10
23.20096189432331
 20
157.8000000000004093
 30
-0.000000000000035
 11
30.2009618943233207
 21
152.8000000000004093
 31
-0.0000000000000339
210
0.0
220
1.0
230
-0.0000000000000002
  0
LINE
  5
124DF
  8
0
  6
VERDECKT
 62
     1
 10
32.7990381056766935
 20
152.8000000000004093
 30
-0.0000000000000339
 11
25.79903810567669
 21
157.8000000000004093
 31
-0.000000000000035
210
0.0
220
1.0
230
-0.0000000000000002
  0
LINE
  5
124E0
  8
0
  6
VERDECKT
 62
     1
 10
30.2009618943230898
 20
152.8000000000004093
 30
-0.0000000000000339
 11
33.7009618943230933
 21
152.8000000000002956
 31
-0.0000000000000339
210
0.0
220
1.0
230
-0.0000000000000002
  0
LINE
  5
124E1
  8
0
  6
VERDECKT
 62
     1
 10
36.2990381056771412
 20
152.8000000000002956
 30
-0.0000000000000339
 11
33.700961894323882
 21
152.8000000000002956
 31
-0.0000000000000339
210
0.0
220
1.0
230
-0.0000000000000002
  0
LINE
  5
124E2
  8
0
  6
VERDECKT
 62
     1
 10
33.7009618943230933
 20
152.8000000000002956
 30
-0.0000000000000339
 11
33.7009618943230933
 21
155.3000000000002956
 31
-0.0000000000000345
210
0.0
220
1.0
230
-0.0000000000000002
  0
LINE
  5
124E3
  8
0
  6
VERDECKT
 62
     1
 10
36.2990381056771412
 20
155.3000000000002956
 30
-0.0000000000000345
 11
36.2990381056771412
 21
152.8000000000002956
 31
-0.0000000000000339
210
0.0
220
1.0
230
-0.0000000000000002
  0
LINE
  5
124E4
  8
0
  6
VERDECKT
 62
     1
 10
36.2990381056771412
 20
155.3000000000002956
 30
-0.0000000000000345
 11
33.700961894323882
 21
155.3000000000002956
 31
-0.0000000000000345
210
0.0
220
1.0
230
-0.0000000000000002
  0
LINE
  5
124E5
  8
0
  6
VERDECKT
 62
     1
 10
33.7009618943230933
 20
155.3000000000002956
 30
-0.0000000000000345
 11
32.7009618943230933
 21
156.4547005383795977
 31
-0.0000000000000347
210
0.0
220
1.0
230
-0.0000000000000002
  0
LINE
  5
124E6
  8
0
  6
VERDECKT
 62
     1
 10
35.2990381056766935
 20
156.4547005383795977
 30
-0.0000000000000347
 11
36.2990381056766935
 21
155.3000000000002956
 31
-0.0000000000000345
210
0.0
220
1.0
230
-0.0000000000000002
  0
LINE
  5
124E7
  8
0
  6
VERDECKT
 62
     1
 10
35.2990381056766935
 20
156.4547005383795977
 30
-0.0000000000000347
 11
32.7009618943234273
 21
156.4547005383795977
 31
-0.0000000000000347
210
0.0
220
1.0
230
-0.0000000000000002
  0
LINE
  5
124E8
  8
0
  6
VERDECKT
 62
     1
 10
32.7009618943230933
 20
156.4547005383795977
 30
-0.0000000000000347
 11
32.7009618943230933
 21
166.3452994616210106
 31
-0.0000000000000369
210
0.0
220
1.0
230
-0.0000000000000002
  0
LINE
  5
124E9
  8
0
  6
VERDECKT
 62
     1
 10
35.2990381056766935
 20
166.3452994616210106
 30
-0.0000000000000369
 11
35.2990381056766935
 21
156.4547005383795977
 31
-0.0000000000000347
210
0.0
220
1.0
230
-0.0000000000000002
  0
LINE
  5
124EA
  8
0
  6
VERDECKT
 62
     1
 10
35.2990381056766935
 20
166.3452994616210106
 30
-0.0000000000000369
 11
32.7009618943234273
 21
166.3452994616210106
 31
-0.0000000000000369
210
0.0
220
1.0
230
-0.0000000000000002
  0
LINE
  5
124EB
  8
0
  6
VERDECKT
 62
     1
 10
32.7009618943230933
 20
166.3452994616210106
 30
-0.0000000000000369
 11
33.7009618943230933
 21
167.5000000000003979
 31
-0.0000000000000372
210
0.0
220
1.0
230
-0.0000000000000002
  0
LINE
  5
124EC
  8
0
  6
VERDECKT
 62
     1
 10
36.2990381056771412
 20
167.5000000000003979
 30
-0.0000000000000372
 11
35.2990381056771412
 21
166.3452994616210106
 31
-0.0000000000000369
210
0.0
220
1.0
230
-0.0000000000000002
  0
LINE
  5
124ED
  8
0
  6
VERDECKT
 62
     1
 10
36.2990381056771412
 20
167.5000000000003979
 30
-0.0000000000000372
 11
33.700961894323882
 21
167.5000000000003979
 31
-0.0000000000000372
210
0.0
220
1.0
230
-0.0000000000000002
  0
LINE
  5
124EE
  8
0
  6
VERDECKT
 62
     1
 10
33.7009618943230933
 20
167.5000000000003979
 30
-0.0000000000000372
 11
33.7009618943230933
 21
170.0000000000003126
 31
-0.0000000000000377
210
0.0
220
1.0
230
-0.0000000000000002
  0
LINE
  5
124EF
  8
0
  6
VERDECKT
 62
     1
 10
36.2990381056771412
 20
170.0000000000003126
 30
-0.0000000000000377
 11
36.2990381056771412
 21
167.5000000000003979
 31
-0.0000000000000372
210
0.0
220
1.0
230
-0.0000000000000002
  0
LINE
  5
124F0
  8
0
  6
VERDECKT
 62
     1
 10
36.2990381056771412
 20
170.0000000000003126
 30
-0.0000000000000377
 11
33.700961894323882
 21
170.0000000000003126
 31
-0.0000000000000377
210
0.0
220
1.0
230
-0.0000000000000002
  0
LINE
  5
124F1
  8
0
  6
VERDECKT
 62
     1
 10
33.7009618943233065
 20
170.0000000000003126
 30
-0.0000000000000377
 11
30.2009618943233207
 21
170.000000000000199
 31
-0.0000000000000377
210
0.0
220
1.0
230
-0.0000000000000002
  0
LINE
  5
124F2
  8
0
  6
VERDECKT
 62
     1
 10
-56.2430984176011179
 20
108.7846270097162034
 30
-0.0000000000000242
 11
56.2430984176013382
 21
108.7846270097162034
 31
-0.0000000000000242
210
0.0
220
1.0
230
-0.0000000000000002
  0
LINE
  5
124F3
  8
0
  6
VERDECKT
 62
     1
 10
-67.5
 20
163.000000000000199
 30
-0.0000000000000362
 11
-67.5
 21
170.0000000000003126
 31
-0.0000000000000377
210
0.0
220
1.0
230
-0.0000000000000002
  0
LINE
  5
124F4
  8
0
  6
VERDECKT
 62
     1
 10
-67.4999999999997868
 20
163.000000000000199
 30
-0.0000000000000362
 11
-69.9999999999998863
 21
163.000000000000199
 31
-0.0000000000000362
210
0.0
220
1.0
230
-0.0000000000000002
  0
LINE
  5
124F5
  8
0
  6
VERDECKT
 62
     1
 10
-69.9999999999998863
 20
170.000000000000199
 30
-0.0000000000000377
 11
-67.4999999999997726
 21
170.000000000000199
 31
-0.0000000000000377
210
0.0
220
1.0
230
-0.0000000000000002
  0
LINE
  5
124F6
  8
0
  6
VERDECKT
 62
     1
 10
-17.6934592766692695
 20
163.000000000000199
 30
-0.0000000000000362
 11
-17.6934592766692695
 21
170.000000000000199
 31
-0.0000000000000377
210
0.0
220
1.0
230
-0.0000000000000002
  0
LINE
  5
124F7
  8
0
  6
VERDECKT
 62
     1
 10
-49.8065407233304995
 20
170.000000000000199
 30
-0.0000000000000377
 11
-49.8065407233304995
 21
163.000000000000199
 31
-0.0000000000000362
210
0.0
220
1.0
230
-0.0000000000000002
  0
LINE
  5
124F8
  8
0
  6
VERDECKT
 62
     1
 10
-17.6934592766683707
 20
163.000000000000199
 30
-0.0000000000000362
 11
-18.6541289617215398
 21
163.000000000000199
 31
-0.0000000000000362
210
0.0
220
1.0
230
-0.0000000000000002
  0
LINE
  5
124F9
  8
0
  6
VERDECKT
 62
     1
 10
-18.6541289617215398
 20
170.000000000000199
 30
-0.0000000000000377
 11
-17.69345927666836
 21
170.000000000000199
 31
-0.0000000000000377
210
0.0
220
1.0
230
-0.0000000000000002
  0
LINE
  5
124FA
  8
0
  6
VERDECKT
 62
     1
 10
67.5000000000001137
 20
170.0000000000003126
 30
-0.0000000000000377
 11
67.5000000000001137
 21
163.000000000000199
 31
-0.0000000000000362
210
0.0
220
1.0
230
-0.0000000000000002
  0
LINE
  5
124FB
  8
0
  6
VERDECKT
 62
     1
 10
70.0000000000001137
 20
163.000000000000199
 30
-0.0000000000000362
 11
67.5000000000002274
 21
163.000000000000199
 31
-0.0000000000000362
210
0.0
220
1.0
230
-0.0000000000000002
  0
LINE
  5
124FC
  8
0
  6
VERDECKT
 62
     1
 10
67.5000000000002274
 20
170.000000000000199
 30
-0.0000000000000377
 11
70.0000000000001137
 21
170.000000000000199
 31
-0.0000000000000377
210
0.0
220
1.0
230
-0.0000000000000002
  0
LINE
  5
124FD
  8
0
  6
VERDECKT
 62
     1
 10
56.2430984176013382
 20
108.7846270097162034
 30
-0.0000000000000242
 11
58.6167791997672722
 21
108.0
 31
-0.000000000000024
210
0.0
220
1.0
230
-0.0000000000000002
  0
LINE
  5
124FE
  8
0
  6
VERDECKT
 62
     1
 10
-56.2430984176011179
 20
108.7846270097162034
 30
-0.0000000000000242
 11
-58.616779199767052
 21
108.0
 31
-0.000000000000024
210
0.0
220
1.0
230
-0.0000000000000002
  0
LINE
  5
124FF
  8
0
  6
VERDECKT
 62
     1
 10
-56.2430984176011108
 20
108.7846270097162034
 30
-0.0000000000000242
 11
-69.6968338771981593
 21
149.4853330946907022
 31
-0.0000000000000332
210
0.0
220
1.0
230
-0.0000000000000002
  0
LINE
  5
12500
  8
0
  6
VERDECKT
 62
     1
 10
56.2430984176013311
 20
108.7846270097162034
 30
-0.0000000000000242
 11
69.6968338771983866
 21
149.4853330946907022
 31
-0.0000000000000332
210
0.0
220
1.0
230
-0.0000000000000002
  0
ARC
  5
12501
  8
0
  6
VERDECKT
 62
     1
 10
63.9999999999998792
 20
151.3684379180097039
 30
0.0
 40
6.000000000000111
210
0.0
220
-0.0000000000000002
230
-1.0
 50
341.7085481866595273
 51
359.9999999999977831
  0
ARC
  5
12502
  8
0
  6
VERDECKT
 62
     1
 10
-64.0000000000001137
 20
151.3684379180097039
 30
0.0
 40
6.0000000000001128
210
0.0
220
-0.0000000000000002
230
-1.0
 50
180.0000000000019895
 51
198.2914518133403021
  0
LINE
  5
12503
  8
0
  6
VERDECKT
 62
     1
 10
70.0000000000002274
 20
180.000000000000199
 30
-0.00000000000004
 11
70.0000000000002274
 21
170.000000000000199
 31
-0.0000000000000377
210
0.0
220
1.0
230
-0.0000000000000002
  0
LINE
  5
12504
  8
0
  6
VERDECKT
 62
     1
 10
70.0000000000002274
 20
163.000000000000199
 30
-0.0000000000000362
 11
70.0000000000002274
 21
151.368437918009505
 31
-0.0000000000000336
210
0.0
220
1.0
230
-0.0000000000000002
  0
LINE
  5
12505
  8
0
  6
VERDECKT
 62
     1
 10
-70.0
 20
180.000000000000199
 30
-0.00000000000004
 11
-70.0
 21
170.000000000000199
 31
-0.0000000000000377
210
0.0
220
1.0
230
-0.0000000000000002
  0
LINE
  5
12506
  8
0
  6
VERDECKT
 62
     1
 10
-70.0
 20
163.000000000000199
 30
-0.0000000000000362
 11
-70.0
 21
151.368437918009505
 31
-0.0000000000000336
210
0.0
220
1.0
230
-0.0000000000000002
  0
ENDBLK
  5
12508
  8
0
  0
BLOCK
  8
0
  2
A$C96ECAD26
 70
     0
 10
0.0
 20
0.0
 30
0.0
  3
A$C96ECAD26
  1

  0
ARC
  5
1250C
  8
0
  6
CONTINUOUS
 62
     3
 10
0.0000000000000004
 20
-0.000000000000032
 30
0.0
 40
48.3799396802317005
 50
61.7767166553239022
 51
179.9999999999998863
  0
ARC
  5
1250D
  8
0
  6
CONTINUOUS
 62
     3
 10
-0.0000000000000564
 20
0.0
 30
0.0
 40
48.379939680231729
 50
301.7767166553240941
 51
58.2232833446759201
  0
ARC
  5
1250E
  8
0
  6
CONTINUOUS
 62
     3
 10
0.0000000000000004
 20
0.0000000000000177
 30
0.0
 40
48.3799396802317219
 50
180.0
 51
298.2232833446760765
  0
ARC
  5
1250F
  8
0
  6
CONTINUOUS
 62
     3
 10
0.0000000000000754
 20
0.0000000000000156
 30
0.0
 40
49.0000000000000497
 50
61.7542264905848626
 51
180.0
  0
ARC
  5
12510
  8
0
  6
CONTINUOUS
 62
     3
 10
-0.0000000000000383
 20
0.0000000000000014
 30
0.0
 40
49.0000000000001634
 50
301.7542264905849265
 51
58.2457735094150877
  0
ARC
  5
12511
  8
0
  6
CONTINUOUS
 62
     3
 10
0.0000000000001323
 20
-0.0000000000000163
 30
0.0
 40
49.0000000000000426
 50
180.0
 51
298.2457735094151872
  0
LINE
  5
12512
  8
0
  6
CONTINUOUS
 62
     3
 10
30.20096189432358
 20
55.3096004384196505
 30
0.0
 11
23.20096189432358
 21
43.1852447854375967
 31
-0.0000000000000018
  0
LINE
  5
12513
  8
0
  6
CONTINUOUS
 62
     3
 10
25.7990381056769493
 20
41.6852447854375967
 30
0.0
 11
23.2009618943236902
 21
43.1852447854375967
 31
-0.0000000000000006
  0
LINE
  5
12514
  8
0
  6
CONTINUOUS
 62
     3
 10
25.7990381056769493
 20
41.6852447854375967
 30
0.0
 11
32.7990381056769493
 21
53.8096004384196505
 31
0.0000000000000018
  0
LINE
  5
12515
  8
0
  6
CONTINUOUS
 62
     3
 10
32.799038105676722
 20
53.8096004384194799
 30
0.0
 11
30.2009618943234592
 21
55.3096004384194799
 31
-0.0000000000000006
  0
LINE
  5
12516
  8
0
  6
CONTINUOUS
 62
     3
 10
23.20096189432358
 20
43.1852447854376109
 30
0.0
 11
19.7009618943235694
 21
37.1230669589465592
 31
-0.0000000000000008
  0
LINE
  5
12517
  8
0
  6
CONTINUOUS
 62
     3
 10
22.2990381056767184
 20
35.6230669589465521
 30
0.0
 11
19.7009618943234592
 21
37.1230669589465592
 31
-0.0000000000000006
  0
LINE
  5
12518
  8
0
  6
CONTINUOUS
 62
     3
 10
22.2990381056767184
 20
35.6230669589465521
 30
0.0
 11
25.7990381056767184
 21
41.6852447854376109
 31
0.0000000000000008
  0
LINE
  5
12519
  8
0
  6
CONTINUOUS
 62
     3
 10
33.6929252573586666
 20
61.3578584013657888
 30
0.0
 11
30.2009618943233491
 21
55.3096004384194799
 31
-0.0000000000000008
  0
LINE
  5
1251A
  8
0
  6
CONTINUOUS
 62
     3
 10
32.799038105676722
 20
53.8096004384194799
 30
0.0
 11
36.2910014687120466
 21
59.8578584013657533
 31
0.0000000000000008
  0
LINE
  5
1251B
  8
0
  6
CONTINUOUS
 62
     3
 10
30.20096189432358
 20
-55.3096004384196078
 30
0.0
 11
23.20096189432358
 21
-43.1852447854375683
 31
-0.0000000000000018
  0
LINE
  5
1251C
  8
0
  6
CONTINUOUS
 62
     3
 10
32.799038105676722
 20
-53.8096004384194515
 30
0.0
 11
30.2009618943234592
 21
-55.3096004384194515
 31
-0.0000000000000006
  0
LINE
  5
1251D
  8
0
  6
CONTINUOUS
 62
     3
 10
25.7990381056769493
 20
-41.6852447854375825
 30
0.0
 11
32.7990381056769493
 21
-53.809600438419622
 31
0.0000000000000018
  0
LINE
  5
1251E
  8
0
  6
CONTINUOUS
 62
     3
 10
25.7990381056769493
 20
-41.6852447854375825
 30
0.0
 11
23.2009618943236902
 21
-43.1852447854375683
 31
-0.0000000000000006
  0
LINE
  5
1251F
  8
0
  6
CONTINUOUS
 62
     3
 10
23.20096189432358
 20
-43.1852447854375896
 30
0.0
 11
19.7009618943235694
 21
-37.1230669589465165
 31
-0.0000000000000008
  0
LINE
  5
12520
  8
0
  6
CONTINUOUS
 62
     3
 10
22.2990381056767184
 20
-35.6230669589465165
 30
0.0
 11
25.7990381056767184
 21
-41.6852447854375825
 31
0.0000000000000008
  0
LINE
  5
12521
  8
0
  6
CONTINUOUS
 62
     3
 10
22.2990381056767184
 20
-35.6230669589465165
 30
0.0
 11
19.7009618943234592
 21
-37.1230669589465165
 31
-0.0000000000000006
  0
LINE
  5
12522
  8
0
  6
CONTINUOUS
 62
     3
 10
33.6929252573586666
 20
-61.3578584013657675
 30
0.0
 11
30.2009618943233491
 21
-55.3096004384194515
 31
-0.0000000000000008
  0
LINE
  5
12523
  8
0
  6
CONTINUOUS
 62
     3
 10
32.799038105676722
 20
-53.8096004384194515
 30
0.0
 11
36.2910014687120466
 21
-59.8578584013657107
 31
0.0000000000000008
  0
ARC
  5
12524
  8
0
  6
CONTINUOUS
 62
     3
 10
0.0000000000001378
 20
0.0000000000000383
 30
0.0
 40
56.2430984176012316
 50
61.5282561481629671
 51
180.0
  0
ARC
  5
12525
  8
0
  6
CONTINUOUS
 62
     3
 10
0.0000000000001378
 20
-0.000000000000015
 30
0.0
 40
56.2430984176012387
 50
301.5282561481631092
 51
58.4717438518370187
  0
ARC
  5
12526
  8
0
  6
CONTINUOUS
 62
     3
 10
0.0000000000001378
 20
0.0000000000000134
 30
0.0
 40
56.2430984176012387
 50
180.0
 51
298.4717438518371182
  0
LINE
  5
12527
  8
0
  6
CONTINUOUS
 62
     3
 10
-67.4999999999999574
 20
18.5404962177389514
 30
-0.0000000000000284
 11
-67.4999999999999574
 21
-18.5404962177394594
 31
-0.0000000000000284
  0
LINE
  5
12528
  8
0
  6
CONTINUOUS
 62
     3
 10
-49.8065407233313806
 20
-49.1864666465803211
 30
0.0
 11
-17.6934592766684418
 21
-67.7269628643194608
 31
0.0000000000000071
  0
LINE
  5
12529
  8
0
  6
CONTINUOUS
 62
     3
 10
67.5000000000001563
 20
-18.5404962177388306
 30
0.0000000000000284
 11
67.5000000000001563
 21
18.5404962177386992
 31
0.0000000000000284
  0
LINE
  5
1252A
  8
0
  6
CONTINUOUS
 62
     3
 10
-17.6934592766682108
 20
67.7269628643190202
 30
0.0
 11
-49.8065407233313735
 21
49.1864666465797598
 31
-0.0000000000000071
  0
CIRCLE
  5
1252B
  8
0
  6
CONTINUOUS
 62
     3
 10
0.0000000000001537
 20
0.0000000000000071
 30
0.0
 40
72.5
  0
CIRCLE
  5
1252C
  8
0
  6
CONTINUOUS
 62
     3
 10
0.0000000000001537
 20
0.0000000000000071
 30
0.0
 40
70.0
  0
CIRCLE
  5
1252D
  8
0
  6
VERDECKT
 62
     1
 10
0.0000000000000754
 20
0.0000000000000014
 30
0.0
 40
51.000000000000199
  0
CIRCLE
  5
1252E
  8
0
  6
VERDECKT
 62
     1
 10
0.0000000000000004
 20
-0.0000000000000036
 30
0.0
 40
50.3875793553183868
  0
ARC
  5
1252F
  8
0
  6
VERDECKT
 62
     1
 10
-0.0000000000219411
 20
-0.0000000000379039
 30
0.0
 40
48.3799396802754629
 50
58.2232833446775118
 51
61.7767166553222395
  0
ARC
  5
12530
  8
0
  6
VERDECKT
 62
     1
 10
-0.000000000021998
 20
0.0000000000380034
 30
0.0
 40
48.3799396802755908
 50
298.2232833446777818
 51
301.7767166553225024
  0
ARC
  5
12531
  8
0
  6
VERDECKT
 62
     1
 10
0.0000000000216759
 20
0.0000000000370278
 30
0.0
 40
48.9999999999572395
 50
58.2457735094138584
 51
61.7542264905866318
  0
ARC
  5
12532
  8
0
  6
VERDECKT
 62
     1
 10
-0.000000000014306
 20
0.0000000000247354
 30
0.0
 40
49.0000000000286917
 50
298.2457735094163809
 51
301.7542264905839033
  0
CIRCLE
  5
12533
  8
0
  6
VERDECKT
 62
     1
 10
0.0000000000001378
 20
0.000000000000003
 30
0.0
 40
56.717834574034427
  0
CIRCLE
  5
12534
  8
0
  6
VERDECKT
 62
     1
 10
0.0000000000001377
 20
0.0000000000000029
 30
0.0
 40
58.6167791997671586
  0
CIRCLE
  5
12535
  8
0
  6
VERDECKT
 62
     1
 10
0.0000000000000709
 20
0.0000000000000002
 30
0.0
 40
64.0000000000000995
  0
CIRCLE
  5
12536
  8
0
  6
VERDECKT
 62
     1
 10
0.0000000000000761
 20
0.0000000000000016
 30
0.0
 40
51.5605545267398426
  0
CIRCLE
  5
12537
  8
0
  6
VERDECKT
 62
     1
 10
0.0000000000000764
 20
0.0000000000000017
 30
0.0
 40
53.7201112156669183
  0
CIRCLE
  5
12538
  8
0
  6
VERDECKT
 62
     1
 10
0.0000000000000709
 20
0.0000000000000002
 30
0.0
 40
66.4999999999999289
  0
LINE
  5
12539
  8
0
  6
VERDECKT
 62
     1
 10
35.299038105676722
 20
58.1397274573416922
 30
0.0
 11
32.7009618943234628
 21
59.6397274573416922
 31
-0.0000000000000006
  0
LINE
  5
1253A
  8
0
  6
VERDECKT
 62
     1
 10
36.2990381056771767
 20
59.8717782649105317
 30
0.0
 11
33.7009618943239175
 21
61.3717782649105317
 31
-0.0000000000000006
  0
LINE
  5
1253B
  8
0
  6
VERDECKT
 62
     1
 10
33.7009618943233491
 20
61.3717782649105388
 30
0.0
 11
33.6929252573586666
 21
61.3578584013657888
 31
0.0
  0
LINE
  5
1253C
  8
0
  6
VERDECKT
 62
     1
 10
36.2910014687120466
 20
59.8578584013657533
 30
0.0
 11
36.299038105676722
 21
59.871778264910553
 31
0.0
  0
LINE
  5
1253D
  8
0
  6
VERDECKT
 62
     1
 10
35.299038105676722
 20
-58.1397274573416567
 30
0.0
 11
32.7009618943234628
 21
-59.6397274573416567
 31
-0.0000000000000006
  0
LINE
  5
1253E
  8
0
  6
VERDECKT
 62
     1
 10
36.2990381056771767
 20
-59.8717782649105033
 30
0.0
 11
33.7009618943239175
 21
-61.3717782649105104
 31
-0.0000000000000006
  0
LINE
  5
1253F
  8
0
  6
VERDECKT
 62
     1
 10
33.7009618943233491
 20
-61.3717782649105104
 30
0.0
 11
33.6929252573586666
 21
-61.3578584013657675
 31
0.0
  0
LINE
  5
12540
  8
0
  6
VERDECKT
 62
     1
 10
36.2910014687120466
 20
-59.8578584013657107
 30
0.0
 11
36.299038105676722
 21
-59.8717782649105175
 31
0.0
  0
CIRCLE
  5
12541
  8
0
  6
VERDECKT
 62
     1
 10
0.0000000000001377
 20
0.0000000000000027
 30
0.0
 40
58.6167791997671728
  0
ARC
  5
12542
  8
0
  6
VERDECKT
 62
     1
 10
0.0000000000132118
 20
0.0000000000225198
 30
0.0
 40
56.2430984175751902
 50
58.4717438518363792
 51
61.5282561481637913
  0
ARC
  5
12543
  8
0
  6
VERDECKT
 62
     1
 10
0.0000000000088917
 20
-0.0000000000149187
 30
0.0
 40
56.2430984175839512
 50
298.4717438518364929
 51
301.5282561481633934
  0
LINE
  5
12544
  8
0
  6
VERDECKT
 62
     1
 10
-18.6541289617217316
 20
70.0590713090001458
 30
0.0
 11
-35.0000000000001918
 21
60.6217782649111498
 31
-0.0000000000000036
  0
LINE
  5
12545
  8
0
  6
VERDECKT
 62
     1
 10
-35.0000000000001918
 20
60.6217782649111498
 30
0.0
 11
-51.3458710382765986
 21
51.1844852208233476
 31
-0.0000000000000036
  0
LINE
  5
12546
  8
0
  6
VERDECKT
 62
     1
 10
70.0000000000008384
 20
-18.8745860881761516
 30
0.0000000000000284
 11
70.0000000000008384
 21
0.0000000000000071
 31
0.0000000000000284
  0
LINE
  5
12547
  8
0
  6
VERDECKT
 62
     1
 10
70.0000000000008384
 20
0.0000000000000065
 30
0.0000000000000284
 11
70.0000000000008384
 21
18.8745860881781908
 31
0.0000000000000284
  0
LINE
  5
12548
  8
0
  6
VERDECKT
 62
     1
 10
-51.3458710382765986
 20
-51.1844852208212586
 30
0.0
 11
-34.9999999999991687
 21
-60.6217782649096435
 31
0.0000000000000036
  0
LINE
  5
12549
  8
0
  6
VERDECKT
 62
     1
 10
-34.9999999999991687
 20
-60.6217782649096435
 30
0.0
 11
-18.6541289617215007
 21
-70.0590713089981705
 31
0.0000000000000036
  0
LINE
  5
1254A
  8
0
  6
VERDECKT
 62
     1
 10
-69.9999999999991616
 20
18.8745860881777716
 30
-0.0000000000000284
 11
-69.9999999999991616
 21
0.0000000000000071
 31
-0.0000000000000284
  0
LINE
  5
1254B
  8
0
  6
VERDECKT
 62
     1
 10
-69.9999999999991616
 20
0.0000000000000065
 30
-0.0000000000000284
 11
-69.9999999999991616
 21
-18.8745860881757004
 31
-0.0000000000000284
  0
ENDBLK
  5
1254D
  8
0
  0
ENDSEC
  0
SECTION
  2
ENTITIES
  0
INSERT
  5
1CE5
  8
ADSK_ASSOC_ENTITY_BACKUPS
  2
*S0
 10
0.0
 20
0.0
 30
0.0
  0
POINT
  5
10D60
  8
0
  6
BYBLOCK
 62
    25
 10
-50.3875793553183868
 20
-0.0000000000000142
 30
2.000000000000028
210
0.0
220
-1.0
230
0.0000000000000001
  0
INSERT
  5
12509
  8
STEMPEL
  2
A$C7156F07D
 10
0.0
 20
0.0
 30
0.0
  0
INSERT
  5
1254E
  8
STEMPEL
  2
A$C96ECAD26
 10
0.0
 20
-100.0
 30
0.0
  0
VIEWPORT
  5
1B12
 67
     1
  8
0
 10
148.2552490234373863
 20
209.75
 30
0.0
 40
790.2674510967764263
 41
422.1483375959078899
 68
     1
 69
     1
1001
ACAD
1000
MVIEW
1002
{
1070
    16
1010
0.0
1020
0.0
1030
0.0
1010
0.0
1020
0.0
1030
1.0
1040
0.0
1040
422.1483375959078899
1040
148.2552490234373863
1040
209.75
1040
50.0
1040
0.0
1040
0.0
1070
     0
1070
  1500
1070
     1
1070
     1
1070
     0
1070
     0
1070
     0
1070
     0
1040
0.0
1040
0.0
1040
0.0
1040
10.0
1040
10.0
1040
10.0
1040
10.0
1070
     0
1002
{
1002
}
1002
}
  0
ENDSEC
  0
EOF
