  0
SECTION
  2
HEADER
  9
$ACADVER
  1
AC1009
  9
$INSBASE
 10
0.0
 20
0.0
 30
0.0
  9
$EXTMIN
 10
-61.0240156366155588
 20
-161.0177293601651911
 30
-0.005491089490306
  9
$EXTMAX
 10
61.0214290039975822
 20
180.0325328116684886
 30
0.0082434970337886
  9
$LIMMIN
 10
0.0
 20
0.0
  9
$LIMMAX
 10
296.9999999999998863
 20
420.0000000000001137
  9
$ORTHOMODE
 70
     1
  9
$REGENMODE
 70
     1
  9
$FILLMODE
 70
     1
  9
$QTEXTMODE
 70
     0
  9
$MIRRTEXT
 70
     1
  9
$DRAGMODE
 70
     2
  9
$LTSCALE
 40
10.0
  9
$OSMODE
 70
   511
  9
$ATTMODE
 70
     1
  9
$TEXTSIZE
 40
3.5
  9
$TRACEWID
 40
0.5
  9
$TEXTSTYLE
  7
STANDARD
  9
$CLAYER
  8
DEFPOINTS
  9
$CELTYPE
  6
BYLAYER
  9
$CECOLOR
 62
   256
  9
$DIMSCALE
 40
1.0
  9
$DIMASZ
 40
3.5
  9
$DIMEXO
 40
1.0
  9
$DIMDLI
 40
7.0
  9
$DIMRND
 40
0.0
  9
$DIMDLE
 40
0.0
  9
$DIMEXE
 40
1.0
  9
$DIMTP
 40
0.0
  9
$DIMTM
 40
0.0
  9
$DIMTXT
 40
3.5
  9
$DIMCEN
 40
1.5
  9
$DIMTSZ
 40
0.0
  9
$DIMTOL
 70
     0
  9
$DIMLIM
 70
     0
  9
$DIMTIH
 70
     0
  9
$DIMTOH
 70
     0
  9
$DIMSE1
 70
     0
  9
$DIMSE2
 70
     0
  9
$DIMTAD
 70
     1
  9
$DIMZIN
 70
     8
  9
$DIMBLK
  1

  9
$DIMASO
 70
     1
  9
$DIMSHO
 70
     0
  9
$DIMPOST
  1

  9
$DIMAPOST
  1

  9
$DIMALT
 70
     0
  9
$DIMALTD
 70
     2
  9
$DIMALTF
 40
25.3999999999999986
  9
$DIMLFAC
 40
1.0
  9
$DIMTOFL
 70
     1
  9
$DIMTVP
 40
0.0
  9
$DIMTIX
 70
     0
  9
$DIMSOXD
 70
     0
  9
$DIMSAH
 70
     0
  9
$DIMBLK1
  1

  9
$DIMBLK2
  1

  9
$DIMSTYLE
  2
STANDARD
  9
$DIMCLRD
 70
     0
  9
$DIMCLRE
 70
     0
  9
$DIMCLRT
 70
     1
  9
$DIMTFAC
 40
0.5142857142857143
  9
$DIMGAP
 40
1.5
  9
$LUNITS
 70
     2
  9
$LUPREC
 70
     2
  9
$SKETCHINC
 40
1.0
  9
$FILLETRAD
 40
0.0
  9
$AUNITS
 70
     0
  9
$AUPREC
 70
     0
  9
$MENU
  1
ACAD
  9
$ELEVATION
 40
0.0
  9
$PELEVATION
 40
0.0
  9
$THICKNESS
 40
0.0
  9
$LIMCHECK
 70
     0
  9
$BLIPMODE
 70
     0
  9
$CHAMFERA
 40
0.0
  9
$CHAMFERB
 40
0.0
  9
$SKPOLY
 70
     0
  9
$TDCREATE
 40
2451337.6017592591233552
  9
$TDUPDATE
 40
2460293.5262847221456468
  9
$TDINDWG
 40
0.1119151736
  9
$TDUSRTIMER
 40
0.1119151736
  9
$USRTIMER
 70
     1
  9
$ANGBASE
 50
0.0
  9
$ANGDIR
 70
     0
  9
$PDMODE
 70
     0
  9
$PDSIZE
 40
0.0
  9
$PLINEWID
 40
0.0
  9
$COORDS
 70
     1
  9
$SPLFRAME
 70
     0
  9
$SPLINETYPE
 70
     6
  9
$SPLINESEGS
 70
     8
  9
$ATTDIA
 70
     1
  9
$ATTREQ
 70
     1
  9
$HANDLING
 70
     1
  9
$HANDSEED
  5
2846
  9
$SURFTAB1
 70
     6
  9
$SURFTAB2
 70
     6
  9
$SURFTYPE
 70
     6
  9
$SURFU
 70
     6
  9
$SURFV
 70
     6
  9
$UCSNAME
  2

  9
$UCSORG
 10
0.0
 20
0.0
 30
0.0
  9
$UCSXDIR
 10
1.0
 20
0.0
 30
0.0
  9
$UCSYDIR
 10
0.0
 20
1.0
 30
0.0
  9
$PUCSNAME
  2

  9
$PUCSORG
 10
0.0
 20
0.0
 30
0.0
  9
$PUCSXDIR
 10
1.0
 20
0.0
 30
0.0
  9
$PUCSYDIR
 10
0.0
 20
1.0
 30
0.0
  9
$USERI1
 70
     0
  9
$USERI2
 70
     0
  9
$USERI3
 70
     0
  9
$USERI4
 70
     0
  9
$USERI5
 70
     0
  9
$USERR1
 40
0.0
  9
$USERR2
 40
0.0
  9
$USERR3
 40
0.0
  9
$USERR4
 40
0.0
  9
$USERR5
 40
0.0
  9
$WORLDVIEW
 70
     1
  9
$SHADEDGE
 70
     3
  9
$SHADEDIF
 70
    70
  9
$TILEMODE
 70
     1
  9
$MAXACTVP
 70
    16
  9
$PLIMCHECK
 70
     0
  9
$PEXTMIN
 10
-0.1068269998720375
 20
-0.1149238311146306
 30
-0.0000000349181948
  9
$PEXTMAX
 10
9.9941859620177027
 20
13.9596622066790292
 30
0.0000000814935746
  9
$PLIMMIN
 10
-0.2500002402958907
 20
-0.2499999962453767
  9
$PLIMMAX
 10
10.7499995194082203
 20
8.2499997634587334
  9
$UNITMODE
 70
     0
  9
$VISRETAIN
 70
     0
  9
$PLINEGEN
 70
     0
  9
$PSLTSCALE
 70
     0
  0
ENDSEC
  0
SECTION
  2
TABLES
  0
TABLE
  2
VPORT
 70
     1
  0
VPORT
  2
*ACTIVE
 70
     0
 10
0.0
 20
0.0
 11
1.0
 21
1.0
 12
-0.0012933163089315
 22
-49.9947249679739798
 13
0.0
 23
0.0
 14
1.0
 24
1.0
 15
10.0
 25
10.0
 16
-0.0000000000001602
 26
0.0
 36
721.4608535105603551
 17
0.0
 27
59.5021266937255788
 37
-0.0000000000000171
 40
342.7947647916384994
 41
1.8720136518771331
 42
50.0
 43
0.0
 44
0.0
 50
0.0
 51
0.0
 71
     0
 72
  1500
 73
     1
 74
     0
 75
     0
 76
     0
 77
     0
 78
     0
  0
ENDTAB
  0
TABLE
  2
LTYPE
 70
     5
  0
LTYPE
  2
CONTINUOUS
 70
     0
  3
Solid line
 72
    65
 73
     0
 40
0.0
  0
LTYPE
  2
VERDECKT
 70
     0
  3
Verdeckt __ __ __ __ __ __ __ __ __ __ __ __ __
 72
    65
 73
     2
 40
0.375
 49
0.25
 49
-0.125
  0
ENDTAB
  0
TABLE
  2
LAYER
 70
    11
  0
LAYER
  2
0
 70
     0
 62
     7
  6
CONTINUOUS
  0
LAYER
  2
VOLL
 70
     0
 62
     1
  6
CONTINUOUS
  0
LAYER
  2
DEFPOINTS
 70
     0
 62
     7
  6
CONTINUOUS
  0
ENDTAB
  0
TABLE
  2
STYLE
 70
     3
  0
STYLE
  2
STANDARD
 70
     0
 40
0.0
 41
0.8
 50
0.0
 71
     0
 42
3.5
  3
simplex.shx
  4

  0
STYLE
  2
GREEKS
 70
     0
 40
0.0
 41
0.8
 50
0.0
 71
     0
 42
2.5
  3
SIMPLEX.shx
  4

  0
ENDTAB
  0
TABLE
  2
VIEW
 70
     1
  0
ENDTAB
  0
TABLE
  2
UCS
 70
     0
  0
ENDTAB
  0
TABLE
  2
APPID
 70
    11
  0
APPID
  2
ACAD
 70
     0
  0
APPID
  2
ACAD_NAV_VCDISPLAY
 70
     0
  0
APPID
  2
ACAD_PSEXT
 70
     0
  0
APPID
  2
ACAECLAYERSTANDARD
 70
     0
  0
APPID
  2
ACCMTRANSPARENCY
 70
     0
  0
APPID
  2
ACAD_STEPID
 70
     0
  0
APPID
  2
ACAD_EXEMPT_FROM_CAD_STANDARDS
 70
     0
  0
APPID
  2
ACAD_ASSOCPERSSUBENTMANAGER
 70
     0
  0
APPID
  2
ACAD_MLEADERVER
 70
     0
  0
APPID
  2
ACAD_OBJECT_CHANGE_GUID
 70
     0
  0
APPID
  2
ACADANNOMONITORALERTICONDI
 70
     0
  0
ENDTAB
  0
TABLE
  2
DIMSTYLE
 70
     1
  0
DIMSTYLE
  2
STANDARD
 70
     0
  3

  4

  5

  6

  7

 40
1.0
 41
0.18
 42
0.0625
 43
0.38
 44
0.18
 45
0.0
 46
0.0
 47
0.0
 48
0.0
140
0.18
141
0.09
142
0.0
143
25.3999999999999986
144
1.0
145
0.0
146
1.0
147
0.09
 71
     0
 72
     0
 73
     1
 74
     1
 75
     0
 76
     0
 77
     0
 78
     0
170
     0
171
     2
172
     0
173
     0
174
     0
175
     0
176
     0
177
     0
178
     0
  0
ENDTAB
  0
ENDSEC
  0
SECTION
  2
BLOCKS
  0
BLOCK
  8
0
  2
$MODEL_SPACE
 70
     0
 10
0.0
 20
0.0
 30
0.0
  3
$MODEL_SPACE
  1

  0
ENDBLK
  5
36
  8
0
  0
BLOCK
 67
     1
  8
0
  2
$PAPER_SPACE
 70
     0
 10
0.0
 20
0.0
 30
0.0
  3
$PAPER_SPACE
  1

  0
ENDBLK
  5
34
 67
     1
  8
0
  0
BLOCK
  8
0
  2
A$C166069F0
 70
     0
 10
0.0
 20
0.0
 30
0.0
  3
A$C166069F0
  1

  0
LINE
  5
2753
  8
0
  6
CONTINUOUS
 62
     3
 10
24.6914264549235796
 20
-45.7668051312776072
 30
0.0
 11
17.6914264549235796
 21
-33.6424494782955605
 31
-0.0000000000000018
  0
LINE
  5
2754
  8
0
  6
CONTINUOUS
 62
     3
 10
27.2895026662767286
 20
-44.2668051312775503
 30
0.0
 11
24.6914264549234694
 21
-45.7668051312775503
 31
-0.0000000000000006
  0
LINE
  5
2755
  8
0
  6
CONTINUOUS
 62
     3
 10
20.2895026662767215
 20
-32.1424494782955605
 30
0.0
 11
27.2895026662767286
 21
-44.2668051312776001
 31
0.0000000000000018
  0
LINE
  5
2756
  8
0
  6
CONTINUOUS
 62
     3
 10
20.2895026662767215
 20
-32.1424494782955605
 30
0.0
 11
17.6914264549234588
 21
-33.6424494782955605
 31
-0.0000000000000006
  0
LINE
  5
2757
  8
0
  6
CONTINUOUS
 62
     3
 10
17.6914264549234588
 20
-33.6424494782954682
 30
0.0
 11
14.1914264549234606
 21
-27.5802716518043987
 31
-0.0000000000000008
  0
LINE
  5
2758
  8
0
  6
CONTINUOUS
 62
     3
 10
16.7895026662767215
 20
-26.0802716518043916
 30
0.0
 11
20.2895026662767215
 21
-32.1424494782954611
 31
0.0000000000000008
  0
LINE
  5
2759
  8
0
  6
CONTINUOUS
 62
     3
 10
16.7895026662767215
 20
-26.0802716518043916
 30
0.0
 11
14.1914264549234606
 21
-27.5802716518043916
 31
-0.0000000000000006
  0
LINE
  5
275A
  8
0
  6
CONTINUOUS
 62
     3
 10
30.7895026662767286
 20
-50.3289829577684884
 30
0.0
 11
28.1914264549234694
 21
-51.8289829577684884
 31
-0.0000000000000006
  0
LINE
  5
275B
  8
0
  6
CONTINUOUS
 62
     3
 10
28.1914264549233593
 20
-51.8289829577685097
 30
0.0
 11
24.6914264549233593
 21
-45.7668051312774296
 31
-0.0000000000000008
  0
LINE
  5
275C
  8
0
  6
CONTINUOUS
 62
     3
 10
27.2895026662767286
 20
-44.2668051312775503
 30
0.0
 11
30.7895026662767286
 21
-50.3289829577686234
 31
0.0000000000000008
  0
LINE
  5
275D
  8
0
  6
CONTINUOUS
 62
     3
 10
-15.3090940417265706
 20
56.9792211215769768
 30
0.0
 11
-41.6909059582731203
 21
41.74767490984879
 31
-0.0000000000000059
  0
LINE
  5
275E
  8
0
  6
CONTINUOUS
 62
     3
 10
-56.9999999999997868
 20
15.23154621172832
 30
0.0
 11
-56.9999999999999076
 21
-15.2315462117279594
 31
0.0
  0
LINE
  5
275F
  8
0
  6
CONTINUOUS
 62
     3
 10
57.0000000000000284
 20
-15.2315462117279594
 30
0.0
 11
57.0000000000000284
 21
15.2315462117278706
 31
0.0
  0
LINE
  5
2760
  8
0
  6
CONTINUOUS
 62
     3
 10
-41.6909059582727792
 20
-41.7476749098490387
 30
0.0
 11
-15.3090940417267998
 21
-56.9792211215768631
 31
0.0000000000000059
  0
CIRCLE
  5
2761
  8
0
  6
CONTINUOUS
 62
     3
 10
0.00000000000004
 20
-0.0000000000000352
 30
0.0
 40
61.0
  0
CIRCLE
  5
2762
  8
0
  6
CONTINUOUS
 62
     3
 10
0.00000000000004
 20
-0.0000000000000352
 30
0.0
 40
59.0000000000001066
  0
LINE
  5
2763
  8
0
  6
CONTINUOUS
 62
     3
 10
24.6914264549235796
 20
45.7668051312776072
 30
0.0
 11
17.6914264549235796
 21
33.6424494782955605
 31
-0.0000000000000018
  0
LINE
  5
2764
  8
0
  6
CONTINUOUS
 62
     3
 10
20.2895026662767215
 20
32.1424494782955605
 30
0.0
 11
17.6914264549234588
 21
33.6424494782955605
 31
-0.0000000000000006
  0
LINE
  5
2765
  8
0
  6
CONTINUOUS
 62
     3
 10
20.2895026662767215
 20
32.1424494782955605
 30
0.0
 11
27.2895026662767286
 21
44.2668051312776001
 31
0.0000000000000018
  0
LINE
  5
2766
  8
0
  6
CONTINUOUS
 62
     3
 10
27.2895026662767286
 20
44.2668051312774367
 30
0.0
 11
24.6914264549234694
 21
45.7668051312774296
 31
-0.0000000000000006
  0
LINE
  5
2767
  8
0
  6
CONTINUOUS
 62
     3
 10
17.6914264549234588
 20
33.6424494782953474
 30
0.0
 11
14.1914264549234606
 21
27.5802716518042814
 31
-0.0000000000000008
  0
LINE
  5
2768
  8
0
  6
CONTINUOUS
 62
     3
 10
16.7895026662767215
 20
26.0802716518042885
 30
0.0
 11
14.1914264549234606
 21
27.5802716518042885
 31
-0.0000000000000006
  0
LINE
  5
2769
  8
0
  6
CONTINUOUS
 62
     3
 10
16.7895026662767215
 20
26.0802716518042885
 30
0.0
 11
20.2895026662767215
 21
32.1424494782953616
 31
0.0000000000000008
  0
LINE
  5
276A
  8
0
  6
CONTINUOUS
 62
     3
 10
30.7895026662767286
 20
50.3289829577684884
 30
0.0
 11
28.1914264549234694
 21
51.8289829577684884
 31
-0.0000000000000006
  0
LINE
  5
276B
  8
0
  6
CONTINUOUS
 62
     3
 10
28.1914264549233593
 20
51.8289829577685097
 30
0.0
 11
24.6914264549233593
 21
45.7668051312774296
 31
-0.0000000000000008
  0
LINE
  5
276C
  8
0
  6
CONTINUOUS
 62
     3
 10
27.2895026662767286
 20
44.2668051312774367
 30
0.0
 11
30.7895026662767286
 21
50.3289829577685097
 31
0.0000000000000008
  0
ARC
  5
276D
  8
0
  6
CONTINUOUS
 62
     3
 10
-0.0000000000000213
 20
-0.0000000000000465
 30
0.0
 40
34.9000000000000199
 50
62.4633281249751278
 51
180.0
  0
ARC
  5
276E
  8
0
  6
CONTINUOUS
 62
     3
 10
-0.0000000000000071
 20
-0.0000000000000394
 30
0.0
 40
34.9000000000000128
 50
302.4633281249754191
 51
57.5366718750246378
  0
ARC
  5
276F
  8
0
  6
CONTINUOUS
 62
     3
 10
-0.0000000000000213
 20
-0.0000000000000341
 30
0.0
 40
34.9000000000000199
 50
180.0
 51
297.536671875024922
  0
ARC
  5
2770
  8
0
  6
CONTINUOUS
 62
     3
 10
-0.0000000000000302
 20
-0.0000000000000309
 30
0.0
 40
48.9736473532499801
 50
61.755170732549999
 51
180.0
  0
ARC
  5
2771
  8
0
  6
CONTINUOUS
 62
     3
 10
-0.0000000000000444
 20
-0.0000000000000451
 30
0.0
 40
48.9736473532500014
 50
301.7551707325503116
 51
58.2448292674499086
  0
ARC
  5
2772
  8
0
  6
CONTINUOUS
 62
     3
 10
-0.0000000000000302
 20
-0.0000000000000309
 30
0.0
 40
48.9736473532500014
 50
180.0
 51
298.2448292674499726
  0
ARC
  5
2773
  8
0
  6
CONTINUOUS
 62
     3
 10
-0.0000000000000446
 20
-0.0000000000000309
 30
0.0
 40
50.1871728448123093
 50
61.7127179140675324
 51
180.0
  0
ARC
  5
2774
  8
0
  6
CONTINUOUS
 62
     3
 10
-0.0000000000000304
 20
-0.0000000000000416
 30
0.0
 40
50.1871728448123235
 50
301.7127179140678095
 51
58.2872820859323326
  0
ARC
  5
2775
  8
0
  6
CONTINUOUS
 62
     3
 10
-0.0000000000000304
 20
-0.0000000000000309
 30
0.0
 40
50.1871728448123235
 50
180.0
 51
298.2872820859324747
  0
ARC
  5
2776
  8
0
  6
CONTINUOUS
 62
     3
 10
0.0000000000000004
 20
-0.0000000000000488
 30
0.0
 40
34.2814676152491415
 50
62.5078015214203973
 51
180.0
  0
ARC
  5
2777
  8
0
  6
CONTINUOUS
 62
     3
 10
0.0000000000000004
 20
-0.0000000000000452
 30
0.0
 40
34.2814676152491415
 50
302.5078015214206175
 51
57.4921984785794891
  0
ARC
  5
2778
  8
0
  6
CONTINUOUS
 62
     3
 10
0.0000000000000004
 20
-0.0000000000000417
 30
0.0
 40
34.2814676152491415
 50
180.0
 51
297.4921984785796099
  0
LINE
  5
2779
  8
0
  6
VERDECKT
 62
     1
 10
29.7895026662767286
 20
-48.5969321501997626
 30
0.0
 11
27.1914264549234694
 21
-50.0969321501997626
 31
-0.0000000000000006
  0
LINE
  5
277A
  8
0
  6
VERDECKT
 62
     1
 10
-58.9999999999999076
 20
15.4919333848295295
 30
0.0
 11
-58.9999999999999076
 21
-0.0000000000000355
 31
0.0
  0
LINE
  5
277B
  8
0
  6
VERDECKT
 62
     1
 10
-58.9999999999999076
 20
-0.0000000000000357
 30
0.0
 11
-58.9999999999999076
 21
-15.4919333848296095
 31
0.0
  0
LINE
  5
277C
  8
0
  6
VERDECKT
 62
     1
 10
58.9999999999999218
 20
-15.4919333848300198
 30
0.0
 11
59.0000000000000284
 21
-0.0000000000002522
 31
0.0
  0
LINE
  5
277D
  8
0
  6
VERDECKT
 62
     1
 10
59.0000000000000284
 20
-0.0000000000002524
 30
0.0
 11
59.0000000000000284
 21
15.4919333848294904
 31
0.0
  0
LINE
  5
277E
  8
0
  6
VERDECKT
 62
     1
 10
-16.0835921350004689
 20
58.8414655156968678
 30
0.0
 11
-29.4999999999997904
 21
51.0954988232817087
 31
-0.000000000000003
  0
LINE
  5
277F
  8
0
  6
VERDECKT
 62
     1
 10
-29.4999999999997904
 20
51.0954988232817087
 30
0.0
 11
-42.9164078649991012
 21
43.3495321308665496
 31
-0.000000000000003
  0
LINE
  5
2780
  8
0
  6
VERDECKT
 62
     1
 10
-42.9164078649986465
 20
-43.3495321308669332
 30
0.0
 11
-29.499999999999801
 21
-51.0954988232818081
 31
0.000000000000003
  0
LINE
  5
2781
  8
0
  6
VERDECKT
 62
     1
 10
-29.4999999999997904
 20
-51.0954988232818081
 30
0.0
 11
-16.0835921350010409
 21
-58.8414655156966404
 31
0.000000000000003
  0
CIRCLE
  5
2782
  8
0
  6
VERDECKT
 62
     1
 10
0.0000000000000252
 20
-0.0000000000000393
 30
0.0
 40
48.9999999999999503
  0
CIRCLE
  5
2783
  8
0
  6
VERDECKT
 62
     1
 10
0.0000000000000252
 20
-0.0000000000000393
 30
0.0
 40
51.0
  0
LINE
  5
2784
  8
0
  6
VERDECKT
 62
     1
 10
29.7895026662767286
 20
48.596932150199649
 30
0.0
 11
27.1914264549234694
 21
50.0969321501996419
 31
-0.0000000000000006
  0
ARC
  5
2785
  8
0
  6
VERDECKT
 62
     1
 10
0.0000000000043699
 20
0.0000000000076202
 30
0.0
 40
34.8999999999912021
 50
57.5366718750239272
 51
62.4633281249757104
  0
ARC
  5
2786
  8
0
  6
VERDECKT
 62
     1
 10
0.0000000000043415
 20
-0.0000000000076565
 30
0.0
 40
34.8999999999912376
 50
297.5366718750242967
 51
302.4633281249759875
  0
ARC
  5
2787
  8
0
  6
VERDECKT
 62
     1
 10
-0.0000000000010534
 20
-0.0000000000018001
 30
0.0
 40
48.9736473532520122
 50
58.2448292674499584
 51
61.7551707325499208
  0
ARC
  5
2788
  8
0
  6
VERDECKT
 62
     1
 10
-0.0000000000088978
 20
0.0000000000155087
 30
0.0
 40
48.9736473532678787
 50
298.2448292674505979
 51
301.7551707325495158
  0
ARC
  5
2789
  8
0
  6
VERDECKT
 62
     1
 10
-0.0000000000022189
 20
-0.00000000000401
 30
0.0
 40
50.1871728448168426
 50
58.2872820859326097
 51
61.7127179140674968
  0
ARC
  5
278A
  8
0
  6
VERDECKT
 62
     1
 10
0.0000000000019733
 20
-0.0000000000033492
 30
0.0
 40
50.1871728448084511
 50
298.2872820859323042
 51
301.7127179140678095
  0
CIRCLE
  5
278B
  8
0
  6
VERDECKT
 62
     1
 10
-0.0000000000000212
 20
-0.0000000000000394
 30
0.0
 40
36.5
  0
CIRCLE
  5
278C
  8
0
  6
VERDECKT
 62
     1
 10
0.0000000000000004
 20
-0.0000000000000452
 30
0.0
 40
35.8875793553185076
  0
ARC
  5
278D
  8
0
  6
VERDECKT
 62
     1
 10
-0.0000000000015059
 20
-0.0000000000025783
 30
0.0
 40
34.2814676152520903
 50
57.4921984785796383
 51
62.5078015214201486
  0
ARC
  5
278E
  8
0
  6
VERDECKT
 62
     1
 10
-0.0000000000022591
 20
0.000000000003845
 30
0.0
 40
34.2814676152536393
 50
297.4921984785800078
 51
302.5078015214202196
  0
ENDBLK
  5
2790
  8
0
  0
BLOCK
  8
0
  2
A$C554EA75B
 70
     0
 10
0.0
 20
0.0
 30
0.0
  3
A$C554EA75B
  1

  0
LINE
  5
2794
  8
0
  6
CONTINUOUS
 62
     3
 10
-58.9999999999999503
 20
171.9999999999998863
 30
-0.0000000000000382
 11
-58.9999999999999503
 21
164.9999999999998863
 31
-0.0000000000000366
210
0.0
220
1.0
230
-0.0000000000000002
  0
LINE
  5
2795
  8
0
  6
CONTINUOUS
 62
     3
 10
-61.0000000000003411
 20
164.9999999999998863
 30
-0.0000000000000366
 11
-59.0000000000003411
 21
164.9999999999998863
 31
-0.0000000000000366
210
0.0
220
1.0
230
-0.0000000000000002
  0
LINE
  5
2796
  8
0
  6
CONTINUOUS
 62
     3
 10
-59.0000000000003411
 20
171.9999999999998863
 30
-0.0000000000000382
 11
-61.0000000000003411
 21
171.9999999999998863
 31
-0.0000000000000382
210
0.0
220
1.0
230
-0.0000000000000002
  0
LINE
  5
2797
  8
0
  6
CONTINUOUS
 62
     3
 10
58.9999999999997726
 20
164.9999999999998863
 30
-0.0000000000000366
 11
58.9999999999997726
 21
171.9999999999998863
 31
-0.0000000000000382
210
0.0
220
1.0
230
-0.0000000000000002
  0
LINE
  5
2798
  8
0
  6
CONTINUOUS
 62
     3
 10
59.0000000000002274
 20
164.9999999999998863
 30
-0.0000000000000366
 11
61.0000000000003411
 21
164.9999999999998863
 31
-0.0000000000000366
210
0.0
220
1.0
230
-0.0000000000000002
  0
LINE
  5
2799
  8
0
  6
CONTINUOUS
 62
     3
 10
61.0000000000003411
 20
171.9999999999998863
 30
-0.0000000000000382
 11
59.0000000000002274
 21
171.9999999999998863
 31
-0.0000000000000382
210
0.0
220
1.0
230
-0.0000000000000002
  0
LINE
  5
279A
  8
0
  6
CONTINUOUS
 62
     3
 10
-42.9164078650002665
 20
164.9999999999998863
 30
-0.0000000000000366
 11
-42.9164078650002665
 21
171.9999999999998863
 31
-0.0000000000000382
210
0.0
220
1.0
230
-0.0000000000000002
  0
LINE
  5
279B
  8
0
  6
CONTINUOUS
 62
     3
 10
-16.0835921349993782
 20
171.9999999999998863
 30
-0.0000000000000382
 11
-16.0835921349993782
 21
164.9999999999998863
 31
-0.0000000000000366
210
0.0
220
1.0
230
-0.0000000000000002
  0
LINE
  5
279C
  8
0
  6
CONTINUOUS
 62
     3
 10
-16.0835921350012505
 20
171.9999999999998863
 30
-0.0000000000000382
 11
-42.9164078649990302
 21
171.9999999999998863
 31
-0.0000000000000382
210
0.0
220
1.0
230
-0.0000000000000002
  0
LINE
  5
279D
  8
0
  6
CONTINUOUS
 62
     3
 10
-42.9164078649990515
 20
164.9999999999998863
 30
-0.0000000000000366
 11
-16.0835921350012505
 21
164.9999999999998863
 31
-0.0000000000000366
210
0.0
220
1.0
230
-0.0000000000000002
  0
LINE
  5
279E
  8
0
  6
CONTINUOUS
 62
     3
 10
-61.0
 20
179.9999999999998863
 30
-0.00000000000004
 11
61.0
 21
179.9999999999998863
 31
-0.00000000000004
210
0.0
220
1.0
230
-0.0000000000000002
  0
LINE
  5
279F
  8
0
  6
CONTINUOUS
 62
     3
 10
-51.0
 20
0.0
 30
0.0
 11
51.0
 21
0.0
 31
0.0
210
0.0
220
1.0
230
-0.0000000000000002
  0
LINE
  5
27A0
  8
0
  6
CONTINUOUS
 62
     3
 10
61.0000000000001208
 20
179.9999999999998863
 30
-0.00000000000004
 11
61.0000000000001208
 21
171.9999999999998863
 31
-0.0000000000000382
210
0.0
220
1.0
230
-0.0000000000000002
  0
LINE
  5
27A1
  8
0
  6
CONTINUOUS
 62
     3
 10
61.0000000000001208
 20
164.9999999999998863
 30
-0.0000000000000366
 11
61.0000000000001208
 21
141.6681164997397957
 31
-0.0000000000000315
210
0.0
220
1.0
230
-0.0000000000000002
  0
LINE
  5
27A2
  8
0
  6
CONTINUOUS
 62
     3
 10
-61.0000000000001208
 20
179.9999999999998863
 30
-0.00000000000004
 11
-61.0000000000001208
 21
171.9999999999998863
 31
-0.0000000000000382
210
0.0
220
1.0
230
-0.0000000000000002
  0
LINE
  5
27A3
  8
0
  6
CONTINUOUS
 62
     3
 10
-61.0000000000001208
 20
164.9999999999998863
 30
-0.0000000000000366
 11
-61.0000000000001208
 21
141.6681164997397957
 31
-0.0000000000000315
210
0.0
220
1.0
230
-0.0000000000000002
  0
ARC
  5
27A4
  8
0
  6
CONTINUOUS
 62
     3
 10
46.9999999999993321
 20
141.6681164997397957
 30
0.0
 40
14.0000000000006004
210
0.0
220
-0.0000000000000002
230
-1.0
 50
336.2473682960912242
 51
0.0
  0
ARC
  5
27A5
  8
0
  6
CONTINUOUS
 62
     3
 10
-46.9999999999993321
 20
141.6681164997397957
 30
0.0
 40
14.0000000000006093
210
0.0
220
-0.0000000000000002
230
-1.0
 50
180.0
 51
203.7526317039088042
  0
LINE
  5
27A6
  8
0
  6
CONTINUOUS
 62
     3
 10
-52.0164842491923025
 20
118.3098483750782037
 30
-0.0000000000000263
 11
-59.8141017092756471
 21
136.0290742597543954
 31
-0.0000000000000302
210
0.0
220
1.0
230
-0.0000000000000002
  0
LINE
  5
27A7
  8
0
  6
CONTINUOUS
 62
     3
 10
52.0164842491923025
 20
118.3098483750782037
 30
-0.0000000000000263
 11
59.8141017092756471
 21
136.0290742597543954
 31
-0.0000000000000302
210
0.0
220
1.0
230
-0.0000000000000002
  0
ARC
  5
27A8
  8
0
  6
CONTINUOUS
 62
     3
 10
63.0000000000017266
 20
113.4763835979476028
 30
0.0
 40
12.0000000000017302
210
0.0
220
-0.0000000000000002
230
-1.0
 50
156.2473682960921906
 51
179.9999999999986073
  0
ARC
  5
27A9
  8
0
  6
CONTINUOUS
 62
     3
 10
-63.0000000000016911
 20
113.4763835979476028
 30
0.0
 40
12.0000000000016893
210
0.0
220
-0.0000000000000002
230
-1.0
 50
0.0
 51
23.7526317039065198
  0
LINE
  5
27AA
  8
0
  6
CONTINUOUS
 62
     3
 10
51.0
 20
113.4763835979479012
 30
-0.0000000000000252
 11
51.0
 21
0.0
 31
0.0
210
0.0
220
1.0
230
-0.0000000000000002
  0
LINE
  5
27AB
  8
0
  6
CONTINUOUS
 62
     3
 10
-51.0
 20
113.4763835979479012
 30
-0.0000000000000252
 11
-51.0
 21
0.0
 31
0.0
210
0.0
220
1.0
230
-0.0000000000000002
  0
LINE
  5
27AC
  8
0
  6
VERDECKT
 62
     1
 10
24.6914264549235405
 20
171.9999999999998863
 30
-0.0000000000000382
 11
17.6914264549235405
 21
166.9999999999998863
 31
-0.0000000000000371
210
0.0
220
1.0
230
-0.0000000000000002
  0
LINE
  5
27AD
  8
0
  6
VERDECKT
 62
     1
 10
20.2895026662766895
 20
166.9999999999998863
 30
-0.0000000000000371
 11
27.2895026662766895
 21
171.9999999999998863
 31
-0.0000000000000382
210
0.0
220
1.0
230
-0.0000000000000002
  0
LINE
  5
27AE
  8
0
  6
VERDECKT
 62
     1
 10
20.2895026662766895
 20
166.9999999999998863
 30
-0.0000000000000371
 11
17.6914264549234304
 21
166.9999999999998863
 31
-0.0000000000000371
210
0.0
220
1.0
230
-0.0000000000000002
  0
LINE
  5
27AF
  8
0
  6
VERDECKT
 62
     1
 10
17.6914264549234304
 20
166.9999999999998863
 30
-0.0000000000000371
 11
14.1914264549234304
 21
167.0
 31
-0.0000000000000371
210
0.0
220
1.0
230
-0.0000000000000002
  0
LINE
  5
27B0
  8
0
  6
VERDECKT
 62
     1
 10
14.1914264549235405
 20
167.0
 30
-0.0000000000000371
 11
14.1914264549235405
 21
159.8000000000000966
 31
-0.0000000000000355
210
0.0
220
1.0
230
-0.0000000000000002
  0
LINE
  5
27B1
  8
0
  6
VERDECKT
 62
     1
 10
16.7895026662766895
 20
159.8000000000000114
 30
-0.0000000000000355
 11
16.7895026662766895
 21
166.9999999999998863
 31
-0.0000000000000371
210
0.0
220
1.0
230
-0.0000000000000002
  0
LINE
  5
27B2
  8
0
  6
VERDECKT
 62
     1
 10
14.1914264549234304
 20
159.8000000000000966
 30
-0.0000000000000355
 11
17.6914264549235405
 21
159.8000000000000966
 31
-0.0000000000000355
210
0.0
220
1.0
230
-0.0000000000000002
  0
LINE
  5
27B3
  8
0
  6
VERDECKT
 62
     1
 10
20.2895026662767997
 20
159.8000000000000966
 30
-0.0000000000000355
 11
17.6914264549235405
 21
159.8000000000000966
 31
-0.0000000000000355
210
0.0
220
1.0
230
-0.0000000000000002
  0
LINE
  5
27B4
  8
0
  6
VERDECKT
 62
     1
 10
17.6914264549233202
 20
159.8000000000002103
 30
-0.0000000000000355
 11
24.6914264549233202
 21
154.8000000000002103
 31
-0.0000000000000344
210
0.0
220
1.0
230
-0.0000000000000002
  0
LINE
  5
27B5
  8
0
  6
VERDECKT
 62
     1
 10
27.2895026662766895
 20
154.8000000000000114
 30
-0.0000000000000344
 11
20.2895026662766895
 21
159.8000000000000114
 31
-0.0000000000000355
210
0.0
220
1.0
230
-0.0000000000000002
  0
LINE
  5
27B6
  8
0
  6
VERDECKT
 62
     1
 10
24.6914264549233202
 20
154.8000000000000966
 30
-0.0000000000000344
 11
28.1914264549233202
 21
154.8000000000000114
 31
-0.0000000000000344
210
0.0
220
1.0
230
-0.0000000000000002
  0
LINE
  5
27B7
  8
0
  6
VERDECKT
 62
     1
 10
30.7895026662765794
 20
154.8000000000000114
 30
-0.0000000000000344
 11
28.1914264549233202
 21
154.8000000000000114
 31
-0.0000000000000344
210
0.0
220
1.0
230
-0.0000000000000002
  0
LINE
  5
27B8
  8
0
  6
VERDECKT
 62
     1
 10
28.1914264549233202
 20
154.7999999999998977
 30
-0.0000000000000344
 11
28.1914264549233202
 21
157.2999999999998977
 31
-0.0000000000000349
210
0.0
220
1.0
230
-0.0000000000000002
  0
LINE
  5
27B9
  8
0
  6
VERDECKT
 62
     1
 10
30.7895026662765794
 20
157.3000000000000114
 30
-0.0000000000000349
 11
30.7895026662765794
 21
154.8000000000000114
 31
-0.0000000000000344
210
0.0
220
1.0
230
-0.0000000000000002
  0
LINE
  5
27BA
  8
0
  6
VERDECKT
 62
     1
 10
30.7895026662765794
 20
157.3000000000000114
 30
-0.0000000000000349
 11
28.1914264549233202
 21
157.3000000000000114
 31
-0.0000000000000349
210
0.0
220
1.0
230
-0.0000000000000002
  0
LINE
  5
27BB
  8
0
  6
VERDECKT
 62
     1
 10
28.1914264549233202
 20
157.3000000000000114
 30
-0.0000000000000349
 11
27.1914264549233202
 21
158.4547005383793135
 31
-0.0000000000000352
210
0.0
220
1.0
230
-0.0000000000000002
  0
LINE
  5
27BC
  8
0
  6
VERDECKT
 62
     1
 10
29.7895026662766895
 20
158.4547005383793135
 30
-0.0000000000000352
 11
30.7895026662766895
 21
157.3000000000000114
 31
-0.0000000000000349
210
0.0
220
1.0
230
-0.0000000000000002
  0
LINE
  5
27BD
  8
0
  6
VERDECKT
 62
     1
 10
29.7895026662766895
 20
158.4547005383793135
 30
-0.0000000000000352
 11
27.1914264549234304
 21
158.4547005383793135
 31
-0.0000000000000352
210
0.0
220
1.0
230
-0.0000000000000002
  0
LINE
  5
27BE
  8
0
  6
VERDECKT
 62
     1
 10
27.1914264549233202
 20
158.4547005383793135
 30
-0.0000000000000352
 11
27.1914264549233202
 21
168.3452994616208116
 31
-0.0000000000000374
210
0.0
220
1.0
230
-0.0000000000000002
  0
LINE
  5
27BF
  8
0
  6
VERDECKT
 62
     1
 10
29.7895026662766895
 20
168.3452994616206126
 30
-0.0000000000000374
 11
29.7895026662766895
 21
158.4547005383791998
 31
-0.0000000000000352
210
0.0
220
1.0
230
-0.0000000000000002
  0
LINE
  5
27C0
  8
0
  6
VERDECKT
 62
     1
 10
29.7895026662766895
 20
168.3452994616206126
 30
-0.0000000000000374
 11
27.1914264549234304
 21
168.3452994616206126
 31
-0.0000000000000374
210
0.0
220
1.0
230
-0.0000000000000002
  0
LINE
  5
27C1
  8
0
  6
VERDECKT
 62
     1
 10
27.1914264549233202
 20
168.3452994616208116
 30
-0.0000000000000374
 11
28.1914264549233202
 21
169.5000000000001137
 31
-0.0000000000000376
210
0.0
220
1.0
230
-0.0000000000000002
  0
LINE
  5
27C2
  8
0
  6
VERDECKT
 62
     1
 10
30.7895026662766895
 20
169.5
 30
-0.0000000000000376
 11
29.7895026662766895
 21
168.3452994616206126
 31
-0.0000000000000374
210
0.0
220
1.0
230
-0.0000000000000002
  0
LINE
  5
27C3
  8
0
  6
VERDECKT
 62
     1
 10
30.7895026662766895
 20
169.5
 30
-0.0000000000000376
 11
28.1914264549234304
 21
169.5
 31
-0.0000000000000376
210
0.0
220
1.0
230
-0.0000000000000002
  0
LINE
  5
27C4
  8
0
  6
VERDECKT
 62
     1
 10
28.1914264549233202
 20
169.5000000000001137
 30
-0.0000000000000376
 11
28.1914264549233202
 21
172.0000000000001137
 31
-0.0000000000000382
210
0.0
220
1.0
230
-0.0000000000000002
  0
LINE
  5
27C5
  8
0
  6
VERDECKT
 62
     1
 10
30.7895026662766895
 20
171.9999999999998863
 30
-0.0000000000000382
 11
30.7895026662766895
 21
169.5
 31
-0.0000000000000376
210
0.0
220
1.0
230
-0.0000000000000002
  0
LINE
  5
27C6
  8
0
  6
VERDECKT
 62
     1
 10
30.7895026662766895
 20
171.9999999999998863
 30
-0.0000000000000382
 11
28.1914264549234304
 21
171.9999999999998863
 31
-0.0000000000000382
210
0.0
220
1.0
230
-0.0000000000000002
  0
LINE
  5
27C7
  8
0
  6
VERDECKT
 62
     1
 10
28.1914264549233202
 20
172.0000000000001137
 30
-0.0000000000000382
 11
24.6914264549233202
 21
171.9999999999998863
 31
-0.0000000000000382
210
0.0
220
1.0
230
-0.0000000000000002
  0
LINE
  5
27C8
  8
0
  6
VERDECKT
 62
     1
 10
-56.9999999999999432
 20
164.9999999999998863
 30
-0.0000000000000366
 11
-56.9999999999999432
 21
171.9999999999998863
 31
-0.0000000000000382
210
0.0
220
1.0
230
-0.0000000000000002
  0
LINE
  5
27C9
  8
0
  6
VERDECKT
 62
     1
 10
-57.0000000000001066
 20
164.9999999999998863
 30
-0.0000000000000366
 11
-59.0000000000001066
 21
164.9999999999998863
 31
-0.0000000000000366
210
0.0
220
1.0
230
-0.0000000000000002
  0
LINE
  5
27CA
  8
0
  6
VERDECKT
 62
     1
 10
-59.0000000000001066
 20
171.9999999999998863
 30
-0.0000000000000382
 11
-57.0000000000001066
 21
171.9999999999998863
 31
-0.0000000000000382
210
0.0
220
1.0
230
-0.0000000000000002
  0
LINE
  5
27CB
  8
0
  6
VERDECKT
 62
     1
 10
57.0
 20
171.9999999999998863
 30
-0.0000000000000382
 11
57.0
 21
164.9999999999998863
 31
-0.0000000000000366
210
0.0
220
1.0
230
-0.0000000000000002
  0
LINE
  5
27CC
  8
0
  6
VERDECKT
 62
     1
 10
59.0000000000001066
 20
164.9999999999998863
 30
-0.0000000000000366
 11
57.0000000000001066
 21
164.9999999999998863
 31
-0.0000000000000366
210
0.0
220
1.0
230
-0.0000000000000002
  0
LINE
  5
27CD
  8
0
  6
VERDECKT
 62
     1
 10
57.0000000000001208
 20
171.9999999999998863
 30
-0.0000000000000382
 11
59.0000000000001066
 21
171.9999999999998863
 31
-0.0000000000000382
210
0.0
220
1.0
230
-0.0000000000000002
  0
LINE
  5
27CE
  8
0
  6
VERDECKT
 62
     1
 10
-15.3090940417259294
 20
164.9999999999998863
 30
-0.0000000000000366
 11
-15.3090940417259294
 21
171.9999999999998863
 31
-0.0000000000000382
210
0.0
220
1.0
230
-0.0000000000000002
  0
LINE
  5
27CF
  8
0
  6
VERDECKT
 62
     1
 10
-41.6909059582734969
 20
171.9999999999998863
 30
-0.0000000000000382
 11
-41.6909059582734969
 21
164.9999999999998863
 31
-0.0000000000000366
210
0.0
220
1.0
230
-0.0000000000000002
  0
LINE
  5
27D0
  8
0
  6
VERDECKT
 62
     1
 10
-16.0835921350010906
 20
171.9999999999998863
 30
-0.0000000000000382
 11
-15.3090940417269508
 21
171.9999999999998863
 31
-0.0000000000000382
210
0.0
220
1.0
230
-0.0000000000000002
  0
LINE
  5
27D1
  8
0
  6
VERDECKT
 62
     1
 10
-15.3090940417269508
 20
164.9999999999998863
 30
-0.0000000000000366
 11
-16.08359213500108
 21
164.9999999999998863
 31
-0.0000000000000366
210
0.0
220
1.0
230
-0.0000000000000002
  0
LINE
  5
27D2
  8
0
  6
VERDECKT
 62
     1
 10
48.9999999999999503
 20
113.4763835979480007
 30
-0.0000000000000252
 11
48.9999999999999503
 21
0.0
 31
0.0
210
0.0
220
1.0
230
-0.0000000000000002
  0
LINE
  5
27D3
  8
0
  6
VERDECKT
 62
     1
 10
-48.9999999999999503
 20
113.4763835979480007
 30
-0.0000000000000252
 11
-48.9999999999999503
 21
0.0
 31
0.0
210
0.0
220
1.0
230
-0.0000000000000002
  0
ARC
  5
27D4
  8
0
  6
VERDECKT
 62
     1
 10
62.9999999999989413
 20
113.4763835979481001
 30
0.0
 40
13.9999999999989893
210
0.0
220
-0.0000000000000002
230
-1.0
 50
156.2473682960890926
 51
180.0000000000005969
  0
ARC
  5
27D5
  8
0
  6
VERDECKT
 62
     1
 10
-62.9999999999989413
 20
113.4763835979481001
 30
0.0
 40
13.9999999999989999
210
0.0
220
-0.0000000000000002
230
-1.0
 50
0.0
 51
23.752631703911451
  0
LINE
  5
27D6
  8
0
  6
VERDECKT
 62
     1
 10
-50.1858982907243529
 20
119.1154258379333015
 30
-0.0000000000000264
 11
-57.9835157508076975
 21
136.8346517226094079
 31
-0.0000000000000304
210
0.0
220
1.0
230
-0.0000000000000002
  0
LINE
  5
27D7
  8
0
  6
VERDECKT
 62
     1
 10
50.1858982907243529
 20
119.1154258379333015
 30
-0.0000000000000264
 11
57.9835157508076975
 21
136.8346517226094079
 31
-0.0000000000000304
210
0.0
220
1.0
230
-0.0000000000000002
  0
ARC
  5
27D8
  8
0
  6
VERDECKT
 62
     1
 10
46.9999999999983373
 20
141.6681164997399947
 30
0.0
 40
12.0000000000015898
210
0.0
220
-0.0000000000000002
230
-1.0
 50
336.2473682960920769
 51
359.9999999999985221
  0
ARC
  5
27D9
  8
0
  6
VERDECKT
 62
     1
 10
-46.9999999999980318
 20
141.6681164997401083
 30
0.0
 40
12.0000000000019007
210
0.0
220
-0.0000000000000002
230
-1.0
 50
180.0000000000017906
 51
203.7526317039076105
  0
LINE
  5
27DA
  8
0
  6
VERDECKT
 62
     1
 10
58.9999999999999503
 20
179.9999999999998863
 30
-0.00000000000004
 11
58.9999999999999503
 21
171.9999999999998863
 31
-0.0000000000000382
210
0.0
220
1.0
230
-0.0000000000000002
  0
LINE
  5
27DB
  8
0
  6
VERDECKT
 62
     1
 10
58.9999999999999503
 20
164.9999999999998863
 30
-0.0000000000000366
 11
58.9999999999999503
 21
141.6681164997397104
 31
-0.0000000000000315
210
0.0
220
1.0
230
-0.0000000000000002
  0
LINE
  5
27DC
  8
0
  6
VERDECKT
 62
     1
 10
-58.9999999999999503
 20
179.9999999999998863
 30
-0.00000000000004
 11
-58.9999999999999503
 21
171.9999999999998863
 31
-0.0000000000000382
210
0.0
220
1.0
230
-0.0000000000000002
  0
LINE
  5
27DD
  8
0
  6
VERDECKT
 62
     1
 10
-58.9999999999999503
 20
164.9999999999998863
 30
-0.0000000000000366
 11
-58.9999999999999503
 21
141.6681164997397104
 31
-0.0000000000000315
210
0.0
220
1.0
230
-0.0000000000000002
  0
LINE
  5
27DE
  8
0
  6
VERDECKT
 62
     1
 10
-48.9736473532500369
 20
120.0
 30
-0.0000000000000266
 11
48.9736473532499232
 21
120.0
 31
-0.0000000000000266
210
0.0
220
1.0
230
-0.0000000000000002
  0
LINE
  5
27DF
  8
0
  6
VERDECKT
 62
     1
 10
-50.1871728448123804
 20
119.1183221215614054
 30
-0.0000000000000264
 11
50.1871728448122596
 21
119.1183221215614054
 31
-0.0000000000000264
210
0.0
220
1.0
230
-0.0000000000000002
  0
LINE
  5
27E0
  8
0
  6
VERDECKT
 62
     1
 10
-35.8875793553185076
 20
1.9999999999999429
 30
-0.0000000000000004
 11
35.8875793553185076
 21
2.0000000000000568
 31
-0.0000000000000004
210
0.0
220
1.0
230
-0.0000000000000002
  0
LINE
  5
27E1
  8
0
  6
VERDECKT
 62
     1
 10
34.8999999999999702
 20
96.2103783591324344
 30
-0.0000000000000214
 11
34.9000000000000128
 21
9.0698575086539268
 31
-0.000000000000002
210
0.0
220
1.0
230
-0.0000000000000002
  0
LINE
  5
27E2
  8
0
  6
VERDECKT
 62
     1
 10
-34.9000000000000696
 20
96.2103783591324202
 30
-0.0000000000000214
 11
-34.900000000000027
 21
9.0698575086538842
 31
-0.000000000000002
210
0.0
220
1.0
230
-0.0000000000000002
  0
ARC
  5
27E3
  8
0
  6
VERDECKT
 62
     1
 10
48.4999999999998792
 20
96.2103783591324202
 30
0.0
 40
13.5999999999998202
210
0.0
220
-0.0000000000000002
230
-1.0
 50
143.9999999999992042
 51
180.0
  0
ARC
  5
27E4
  8
0
  6
VERDECKT
 62
     1
 10
-48.4999999999998508
 20
96.210378359132477
 30
0.0
 40
13.59999999999987
210
0.0
220
-0.0000000000000002
230
-1.0
 50
0.0
 51
36.0000000000007176
  0
LINE
  5
27E5
  8
0
  6
VERDECKT
 62
     1
 10
-37.4973688765008575
 20
104.2042577903100948
 30
-0.0000000000000231
 11
-48.9736473532500369
 21
120.0
 31
-0.0000000000000266
210
0.0
220
1.0
230
-0.0000000000000002
  0
LINE
  5
27E6
  8
0
  6
VERDECKT
 62
     1
 10
37.497368876500758
 20
104.2042577903100948
 30
-0.0000000000000231
 11
48.9736473532499303
 21
120.0
 31
-0.0000000000000266
210
0.0
220
1.0
230
-0.0000000000000002
  0
LINE
  5
27E7
  8
0
  6
VERDECKT
 62
     1
 10
48.973647353249909
 20
120.0
 30
-0.0000000000000266
 11
50.187172844812217
 21
119.1183221215614054
 31
-0.0000000000000264
210
0.0
220
1.0
230
-0.0000000000000002
  0
LINE
  5
27E8
  8
0
  6
VERDECKT
 62
     1
 10
-48.9736473532500227
 20
120.0
 30
-0.0000000000000266
 11
-50.1871728448123378
 21
119.1183221215613059
 31
-0.0000000000000264
210
0.0
220
1.0
230
-0.0000000000000002
  0
LINE
  5
27E9
  8
0
  6
VERDECKT
 62
     1
 10
-38.7917960675007123
 20
103.4339315483124011
 30
-0.000000000000023
 11
-50.1871728448123733
 21
119.1183221215613059
 31
-0.0000000000000264
210
0.0
220
1.0
230
-0.0000000000000002
  0
LINE
  5
27EA
  8
0
  6
VERDECKT
 62
     1
 10
38.791796067500627
 20
103.4339315483124011
 30
-0.000000000000023
 11
50.1871728448123022
 21
119.1183221215614054
 31
-0.0000000000000264
210
0.0
220
1.0
230
-0.0000000000000002
  0
ARC
  5
27EB
  8
0
  6
VERDECKT
 62
     1
 10
48.5000000000005684
 20
96.3805085208025503
 30
0.0
 40
12.0000000000005205
210
0.0
220
-0.0000000000000002
230
-1.0
 50
144.0000000000005969
 51
179.9999999999986926
  0
ARC
  5
27EC
  8
0
  6
VERDECKT
 62
     1
 10
-48.5000000000004121
 20
96.3805085208026213
 30
0.0
 40
12.0000000000004494
210
0.0
220
-0.0000000000000002
230
-1.0
 50
0.0000000000008906
 51
35.9999999999992895
  0
LINE
  5
27ED
  8
0
  6
VERDECKT
 62
     1
 10
36.4999999999999503
 20
96.3805085208028345
 30
-0.0000000000000214
 11
36.4999999999999929
 21
9.0000000000000444
 31
-0.000000000000002
210
0.0
220
1.0
230
-0.0000000000000002
  0
LINE
  5
27EE
  8
0
  6
VERDECKT
 62
     1
 10
-36.5000000000000497
 20
96.3805085208028061
 30
-0.0000000000000214
 11
-36.5000000000000071
 21
9.0000000000000018
 31
-0.000000000000002
210
0.0
220
1.0
230
-0.0000000000000002
  0
LINE
  5
27EF
  8
0
  6
VERDECKT
 62
     1
 10
-35.8875793553185076
 20
2.0
 30
-0.0000000000000004
 11
-36.5
 21
9.0000000000000018
 31
-0.000000000000002
210
0.0
220
1.0
230
-0.0000000000000002
  0
LINE
  5
27F0
  8
0
  6
VERDECKT
 62
     1
 10
35.8875793553185076
 20
2.0000000000000462
 30
-0.0000000000000004
 11
36.5
 21
9.0000000000000462
 31
-0.000000000000002
210
0.0
220
1.0
230
-0.0000000000000002
  0
LINE
  5
27F1
  8
0
  6
VERDECKT
 62
     1
 10
-34.2814676152491415
 20
2.0
 30
-0.0000000000000004
 11
-34.9000000000000412
 21
9.0698575086538842
 31
-0.000000000000002
210
0.0
220
1.0
230
-0.0000000000000002
  0
LINE
  5
27F2
  8
0
  6
VERDECKT
 62
     1
 10
34.2814676152491487
 20
2.000000000000044
 30
-0.0000000000000004
 11
34.9000000000000412
 21
9.0698575086539286
 31
-0.000000000000002
210
0.0
220
1.0
230
-0.0000000000000002
  0
ENDBLK
  5
27F4
  8
0
  0
ENDSEC
  0
SECTION
  2
ENTITIES
  0
TEXT
  5
8E
  8
VOLL
 10
78.076754716981128
 20
31.025947764705851
 30
0.0
 40
1.8
  1

  7
GREEKS
  0
INSERT
  5
2791
  8
DEFPOINTS
  2
A$C166069F0
 10
0.0
 20
-100.0
 30
0.0
  0
INSERT
  5
27F5
  8
DEFPOINTS
  2
A$C554EA75B
 10
0.0
 20
0.0
 30
0.0
  0
VIEWPORT
  5
24A3
 67
     1
  8
0
 10
4.9439392356946348
 20
6.922485375337402
 30
0.0
 40
24.9635426140270305
 41
14.1725291733022001
 68
     1
 69
     1
1001
ACAD
1000
MVIEW
1002
{
1070
    16
1010
0.0
1020
0.0
1030
0.0
1010
0.0
1020
0.0
1030
1.0
1040
0.0
1040
14.1725291733022001
1040
4.9439392356946348
1040
6.922485375337402
1040
50.0
1040
0.0
1040
0.0
1070
     0
1070
  1500
1070
     1
1070
     1
1070
     0
1070
     0
1070
     0
1070
     0
1040
0.0
1040
0.0
1040
0.0
1040
10.0
1040
10.0
1040
10.0
1040
10.0
1070
     0
1002
{
1002
}
1002
}
  0
VIEWPORT
  5
24A7
 67
     1
  8
DEFPOINTS
 10
4.9437679190878114
 20
6.9223288811252868
 30
0.0
 40
10.0999886862713009
 41
14.0726741628001601
 68
     2
 69
     2
1001
ACAD
1000
MVIEW
1002
{
1070
    16
1010
536.3577323247443474
1020
203.9539620632126002
1030
-69.0380917526235578
1010
0.0
1020
0.0
1030
1.0
1040
0.0
1040
434.2563903717460789
1040
-385.7596913362423834
1040
7.2686095238128408
1040
50.0
1040
0.0
1040
0.0
1070
     0
1070
  1500
1070
     1
1070
     0
1070
     0
1070
     0
1070
     0
1070
     0
1040
0.0
1040
0.0
1040
0.0
1040
1.0
1040
1.0
1040
10.0
1040
10.0
1070
     0
1002
{
1002
}
1002
}
  0
VIEWPORT
  5
24AB
 67
     1
  8
DEFPOINTS
 10
7.743661115628786
 20
3.7093982935970611
 30
0.0
 40
3.047885332889372
 41
4.0066074919948562
 68
     3
 69
     3
1001
ACAD
1000
MVIEW
1002
{
1070
    16
1010
566.0006930278873369
1020
219.8627284681230094
1030
-125.1950471345887053
1010
62.6868425188949914
1020
129.7896463521115038
1030
326.848272225054302
1040
2.657005865371973
1040
217.1061267694726098
1040
0.0
1040
0.0
1040
50.0
1040
0.0
1040
0.0
1070
     0
1070
  1500
1070
     1
1070
     0
1070
     0
1070
     0
1070
     0
1070
     0
1040
0.0
1040
0.0
1040
0.0
1040
1.0
1040
1.0
1040
10.0
1040
10.0
1070
     0
1002
{
1002
}
1002
}
  0
ENDSEC
  0
EOF
