  0
SECTION
  2
HEADER
  9
$ACADVER
  1
AC1009
  9
$INSBASE
 10
0.0
 20
0.0
 30
0.0
  9
$EXTMIN
 10
-62.1001199488816766
 20
-172.0242757427324136
 30
-0.0048824399767113
  9
$EXTMAX
 10
61.0157996229477178
 20
160.0136879510405095
 30
0.0073244050229846
  9
$LIMMIN
 10
0.0
 20
0.0
  9
$LIMMAX
 10
296.9999999999998863
 20
420.0000000000001137
  9
$ORTHOMODE
 70
     1
  9
$REGENMODE
 70
     1
  9
$FILLMODE
 70
     1
  9
$QTEXTMODE
 70
     0
  9
$MIRRTEXT
 70
     1
  9
$DRAGMODE
 70
     2
  9
$LTSCALE
 40
10.0
  9
$OSMODE
 70
  2559
  9
$ATTMODE
 70
     1
  9
$TEXTSIZE
 40
3.5
  9
$TRACEWID
 40
0.5
  9
$TEXTSTYLE
  7
STANDARD
  9
$CLAYER
  8
STEMPEL
  9
$CELTYPE
  6
BYLAYER
  9
$CECOLOR
 62
   256
  9
$DIMSCALE
 40
1.0
  9
$DIMASZ
 40
3.5
  9
$DIMEXO
 40
1.0
  9
$DIMDLI
 40
7.0
  9
$DIMRND
 40
0.0
  9
$DIMDLE
 40
0.0
  9
$DIMEXE
 40
1.0
  9
$DIMTP
 40
0.0
  9
$DIMTM
 40
0.0
  9
$DIMTXT
 40
3.5
  9
$DIMCEN
 40
1.5
  9
$DIMTSZ
 40
0.0
  9
$DIMTOL
 70
     0
  9
$DIMLIM
 70
     0
  9
$DIMTIH
 70
     0
  9
$DIMTOH
 70
     0
  9
$DIMSE1
 70
     0
  9
$DIMSE2
 70
     0
  9
$DIMTAD
 70
     1
  9
$DIMZIN
 70
     8
  9
$DIMBLK
  1

  9
$DIMASO
 70
     1
  9
$DIMSHO
 70
     0
  9
$DIMPOST
  1

  9
$DIMAPOST
  1

  9
$DIMALT
 70
     0
  9
$DIMALTD
 70
     2
  9
$DIMALTF
 40
25.3999999999999986
  9
$DIMLFAC
 40
1.0
  9
$DIMTOFL
 70
     1
  9
$DIMTVP
 40
0.0
  9
$DIMTIX
 70
     0
  9
$DIMSOXD
 70
     0
  9
$DIMSAH
 70
     0
  9
$DIMBLK1
  1

  9
$DIMBLK2
  1

  9
$DIMSTYLE
  2
STANDARD
  9
$DIMCLRD
 70
     0
  9
$DIMCLRE
 70
     0
  9
$DIMCLRT
 70
     1
  9
$DIMTFAC
 40
0.5142857142857143
  9
$DIMGAP
 40
1.5
  9
$LUNITS
 70
     2
  9
$LUPREC
 70
     2
  9
$SKETCHINC
 40
1.0
  9
$FILLETRAD
 40
0.0
  9
$AUNITS
 70
     0
  9
$AUPREC
 70
     0
  9
$MENU
  1
ACAD
  9
$ELEVATION
 40
0.0
  9
$PELEVATION
 40
0.0
  9
$THICKNESS
 40
0.0
  9
$LIMCHECK
 70
     0
  9
$BLIPMODE
 70
     0
  9
$CHAMFERA
 40
0.0
  9
$CHAMFERB
 40
0.0
  9
$SKPOLY
 70
     0
  9
$TDCREATE
 40
2451337.6017592591233552
  9
$TDUPDATE
 40
2458387.5844328701496124
  9
$TDINDWG
 40
0.1726255671
  9
$TDUSRTIMER
 40
0.1726255671
  9
$USRTIMER
 70
     1
  9
$ANGBASE
 50
0.0
  9
$ANGDIR
 70
     0
  9
$PDMODE
 70
     0
  9
$PDSIZE
 40
0.0
  9
$PLINEWID
 40
0.0
  9
$COORDS
 70
     1
  9
$SPLFRAME
 70
     0
  9
$SPLINETYPE
 70
     6
  9
$SPLINESEGS
 70
     8
  9
$ATTDIA
 70
     1
  9
$ATTREQ
 70
     1
  9
$HANDLING
 70
     1
  9
$HANDSEED
  5
2802
  9
$SURFTAB1
 70
     6
  9
$SURFTAB2
 70
     6
  9
$SURFTYPE
 70
     6
  9
$SURFU
 70
     6
  9
$SURFV
 70
     6
  9
$UCSNAME
  2

  9
$UCSORG
 10
0.0
 20
0.0
 30
0.0
  9
$UCSXDIR
 10
1.0
 20
0.0
 30
0.0
  9
$UCSYDIR
 10
0.0
 20
1.0
 30
0.0
  9
$PUCSNAME
  2

  9
$PUCSORG
 10
0.0
 20
0.0
 30
0.0
  9
$PUCSXDIR
 10
1.0
 20
0.0
 30
0.0
  9
$PUCSYDIR
 10
0.0
 20
1.0
 30
0.0
  9
$USERI1
 70
     0
  9
$USERI2
 70
     0
  9
$USERI3
 70
     0
  9
$USERI4
 70
     0
  9
$USERI5
 70
     0
  9
$USERR1
 40
0.0
  9
$USERR2
 40
0.0
  9
$USERR3
 40
0.0
  9
$USERR4
 40
0.0
  9
$USERR5
 40
0.0
  9
$WORLDVIEW
 70
     1
  9
$SHADEDGE
 70
     3
  9
$SHADEDIF
 70
    70
  9
$TILEMODE
 70
     1
  9
$MAXACTVP
 70
    16
  9
$PLIMCHECK
 70
     0
  9
$PEXTMIN
 10
-0.1278078343990714
 20
-0.1044742258264577
 30
-0.0000000349181948
  9
$PEXTMAX
 10
9.910262623909567
 20
14.2446287896409807
 30
0.0000000814935746
  9
$PLIMMIN
 10
-0.2500002402958907
 20
-0.2499999962453767
  9
$PLIMMAX
 10
10.7499995194082203
 20
8.2499997634587334
  9
$UNITMODE
 70
     0
  9
$VISRETAIN
 70
     0
  9
$PLINEGEN
 70
     0
  9
$PSLTSCALE
 70
     0
  0
ENDSEC
  0
SECTION
  2
TABLES
  0
TABLE
  2
VPORT
 70
     1
  0
VPORT
  2
*ACTIVE
 70
     0
 10
0.0
 20
0.0
 11
1.0
 21
1.0
 12
-0.5421601629669796
 22
-55.5074205895715522
 13
0.0
 23
0.0
 14
1.0
 24
1.0
 15
10.0
 25
10.0
 16
-0.0000000000001441
 26
0.0
 36
649.1838493519597932
 17
0.0
 27
49.5021266937255788
 37
-0.0000000000000148
 40
333.7305956242424827
 41
1.868197278911564
 42
50.0
 43
0.0
 44
0.0
 50
0.0
 51
0.0
 71
     0
 72
  1500
 73
     1
 74
     0
 75
     0
 76
     0
 77
     0
 78
     0
  0
ENDTAB
  0
TABLE
  2
LTYPE
 70
     5
  0
LTYPE
  2
CONTINUOUS
 70
     0
  3
Solid line
 72
    65
 73
     0
 40
0.0
  0
LTYPE
  2
VERDECKT
 70
     0
  3
_ _ _ _ _ _ _ _ _ _ _ _ _ _ _ _ _ _ _ _ _ _ _
 72
    65
 73
     2
 40
0.375
 49
0.25
 49
-0.125
  0
ENDTAB
  0
TABLE
  2
LAYER
 70
    11
  0
LAYER
  2
0
 70
     0
 62
     7
  6
CONTINUOUS
  0
LAYER
  2
VOLL
 70
     0
 62
     1
  6
CONTINUOUS
  0
LAYER
  2
STEMPEL
 70
     0
 62
     3
  6
CONTINUOUS
  0
LAYER
  2
DEFPOINTS
 70
     0
 62
     7
  6
CONTINUOUS
  0
ENDTAB
  0
TABLE
  2
STYLE
 70
     2
  0
STYLE
  2
STANDARD
 70
     0
 40
0.0
 41
0.8
 50
0.0
 71
     0
 42
3.5
  3
simplex.shx
  4

  0
STYLE
  2
GREEKS
 70
     0
 40
0.0
 41
0.8
 50
0.0
 71
     0
 42
2.5
  3
SIMPLEX.shx
  4

  0
ENDTAB
  0
TABLE
  2
VIEW
 70
     1
  0
ENDTAB
  0
TABLE
  2
UCS
 70
     0
  0
ENDTAB
  0
TABLE
  2
APPID
 70
    10
  0
APPID
  2
ACAD
 70
     0
  0
APPID
  2
ACAD_NAV_VCDISPLAY
 70
     0
  0
APPID
  2
ACAD_PSEXT
 70
     0
  0
APPID
  2
ACAD_EXEMPT_FROM_CAD_STANDARDS
 70
     0
  0
APPID
  2
ACAECLAYERSTANDARD
 70
     0
  0
APPID
  2
ACCMTRANSPARENCY
 70
     0
  0
APPID
  2
ACAD_STEPID
 70
     0
  0
APPID
  2
ACAD_MLEADERVER
 70
     0
  0
APPID
  2
ACAD_OBJECT_CHANGE_GUID
 70
     0
  0
APPID
  2
ACADANNOMONITORALERTICONDI
 70
     0
  0
ENDTAB
  0
TABLE
  2
DIMSTYLE
 70
     2
  0
DIMSTYLE
  2
STANDARD
 70
     0
  3

  4

  5

  6

  7

 40
1.0
 41
0.18
 42
0.0625
 43
0.38
 44
0.18
 45
0.0
 46
0.0
 47
0.0
 48
0.0
140
0.18
141
0.09
142
0.0
143
25.3999999999999986
144
1.0
145
0.0
146
1.0
147
0.09
 71
     0
 72
     0
 73
     1
 74
     1
 75
     0
 76
     0
 77
     0
 78
     0
170
     0
171
     2
172
     0
173
     0
174
     0
175
     0
176
     0
177
     0
178
     0
  0
ENDTAB
  0
ENDSEC
  0
SECTION
  2
BLOCKS
  0
BLOCK
  8
0
  2
$MODEL_SPACE
 70
     0
 10
0.0
 20
0.0
 30
0.0
  3
$MODEL_SPACE
  1

  0
ENDBLK
  5
36
  8
0
  0
BLOCK
 67
     1
  8
0
  2
$PAPER_SPACE
 70
     0
 10
0.0
 20
0.0
 30
0.0
  3
$PAPER_SPACE
  1

  0
ENDBLK
  5
34
 67
     1
  8
0
  0
BLOCK
  8
0
  2
A$C76E0502D
 70
     0
 10
0.0
 20
0.0
 30
0.0
  3
A$C76E0502D
  1

  0
LINE
  5
270C
  8
0
  6
CONTINUOUS
 62
     3
 10
24.6914264549235796
 20
45.7668051312776285
 30
0.0
 11
17.6914264549235689
 21
33.642449478295589
 31
-0.0000000000000018
  0
LINE
  5
270D
  8
0
  6
CONTINUOUS
 62
     3
 10
20.2895026662767215
 20
32.142449478295589
 30
0.0
 11
17.6914264549234588
 21
33.642449478295589
 31
-0.0000000000000006
  0
LINE
  5
270E
  8
0
  6
CONTINUOUS
 62
     3
 10
20.2895026662767215
 20
32.142449478295589
 30
0.0
 11
27.2895026662767215
 21
44.2668051312776285
 31
0.0000000000000018
  0
LINE
  5
270F
  8
0
  6
CONTINUOUS
 62
     3
 10
27.2895026662767215
 20
44.266805131277458
 30
0.0
 11
24.6914264549234588
 21
45.7668051312774722
 31
-0.0000000000000006
  0
LINE
  5
2710
  8
0
  6
CONTINUOUS
 62
     3
 10
17.6914264549234588
 20
33.64244947829539
 30
0.0
 11
14.1914264549234606
 21
27.5802716518043098
 31
-0.0000000000000008
  0
LINE
  5
2711
  8
0
  6
CONTINUOUS
 62
     3
 10
16.7895026662767215
 20
26.0802716518043098
 30
0.0
 11
14.1914264549234606
 21
27.5802716518043098
 31
-0.0000000000000006
  0
LINE
  5
2712
  8
0
  6
CONTINUOUS
 62
     3
 10
16.7895026662767215
 20
26.0802716518043098
 30
0.0
 11
20.2895026662767215
 21
32.14244947829539
 31
0.0000000000000008
  0
LINE
  5
2713
  8
0
  6
CONTINUOUS
 62
     3
 10
30.7895026662767215
 20
50.3289829577685168
 30
0.0
 11
28.1914264549234588
 21
51.8289829577685097
 31
-0.0000000000000006
  0
LINE
  5
2714
  8
0
  6
CONTINUOUS
 62
     3
 10
28.1914264549233486
 20
51.8289829577685381
 30
0.0
 11
24.6914264549233486
 21
45.7668051312774722
 31
-0.0000000000000008
  0
LINE
  5
2715
  8
0
  6
CONTINUOUS
 62
     3
 10
27.2895026662767215
 20
44.266805131277458
 30
0.0
 11
30.7895026662767215
 21
50.328982957768531
 31
0.0000000000000008
  0
LINE
  5
2716
  8
0
  6
CONTINUOUS
 62
     3
 10
-15.3090940417265706
 20
56.9792211215770124
 30
0.0
 11
-41.6909059582731203
 21
41.7476749098488185
 31
-0.0000000000000059
  0
LINE
  5
2717
  8
0
  6
CONTINUOUS
 62
     3
 10
-56.9999999999997868
 20
15.2315462117283502
 30
0.0
 11
-56.9999999999999076
 21
-15.2315462117279399
 31
0.0
  0
LINE
  5
2718
  8
0
  6
CONTINUOUS
 62
     3
 10
57.0000000000000284
 20
-15.2315462117279399
 30
0.0
 11
57.0000000000000284
 21
15.2315462117278901
 31
0.0
  0
LINE
  5
2719
  8
0
  6
CONTINUOUS
 62
     3
 10
-41.6909059582727792
 20
-41.7476749098490103
 30
0.0
 11
-15.3090940417267998
 21
-56.9792211215768418
 31
0.0000000000000059
  0
CIRCLE
  5
271A
  8
0
  6
CONTINUOUS
 62
     3
 10
0.0000000000000355
 20
-0.0000000000000068
 30
0.0
 40
61.0
  0
CIRCLE
  5
271B
  8
0
  6
CONTINUOUS
 62
     3
 10
0.0000000000000355
 20
-0.0000000000000068
 30
0.0
 40
59.0000000000001066
  0
LINE
  5
271C
  8
0
  6
CONTINUOUS
 62
     3
 10
24.6914264549235796
 20
-45.7668051312775717
 30
0.0
 11
17.6914264549235689
 21
-33.6424494782955321
 31
-0.0000000000000018
  0
LINE
  5
271D
  8
0
  6
CONTINUOUS
 62
     3
 10
27.2895026662767215
 20
-44.2668051312775219
 30
0.0
 11
24.6914264549234588
 21
-45.7668051312775219
 31
-0.0000000000000006
  0
LINE
  5
271E
  8
0
  6
CONTINUOUS
 62
     3
 10
20.2895026662767215
 20
-32.1424494782955321
 30
0.0
 11
27.2895026662767215
 21
-44.2668051312775788
 31
0.0000000000000018
  0
LINE
  5
271F
  8
0
  6
CONTINUOUS
 62
     3
 10
20.2895026662767215
 20
-32.1424494782955321
 30
0.0
 11
17.6914264549234588
 21
-33.6424494782955321
 31
-0.0000000000000006
  0
LINE
  5
2720
  8
0
  6
CONTINUOUS
 62
     3
 10
17.6914264549234588
 20
-33.6424494782954397
 30
0.0
 11
14.1914264549234606
 21
-27.5802716518043702
 31
-0.0000000000000008
  0
LINE
  5
2721
  8
0
  6
CONTINUOUS
 62
     3
 10
16.7895026662767215
 20
-26.0802716518043596
 30
0.0
 11
20.2895026662767215
 21
-32.1424494782954397
 31
0.0000000000000008
  0
LINE
  5
2722
  8
0
  6
CONTINUOUS
 62
     3
 10
16.7895026662767215
 20
-26.0802716518043596
 30
0.0
 11
14.1914264549234606
 21
-27.5802716518043702
 31
-0.0000000000000006
  0
LINE
  5
2723
  8
0
  6
CONTINUOUS
 62
     3
 10
30.7895026662767215
 20
-50.3289829577684529
 30
0.0
 11
28.1914264549234588
 21
-51.82898295776846
 31
-0.0000000000000006
  0
LINE
  5
2724
  8
0
  6
CONTINUOUS
 62
     3
 10
28.1914264549233486
 20
-51.8289829577684813
 30
0.0
 11
24.6914264549233486
 21
-45.7668051312774011
 31
-0.0000000000000008
  0
LINE
  5
2725
  8
0
  6
CONTINUOUS
 62
     3
 10
27.2895026662767215
 20
-44.2668051312775219
 30
0.0
 11
30.7895026662767215
 21
-50.3289829577686021
 31
0.0000000000000008
  0
ARC
  5
2726
  8
0
  6
CONTINUOUS
 62
     3
 10
0.0000000000000078
 20
-0.0000000000000311
 30
0.0
 40
50.1871728448123733
 50
180.0
 51
298.2872820859324747
  0
ARC
  5
2727
  8
0
  6
CONTINUOUS
 62
     3
 10
-0.0000000000000064
 20
-0.0000000000000098
 30
0.0
 40
50.1871728448124017
 50
301.7127179140676958
 51
58.2872820859322971
  0
ARC
  5
2728
  8
0
  6
CONTINUOUS
 62
     3
 10
0.0000000000000078
 20
0.0000000000000044
 30
0.0
 40
50.1871728448123733
 50
61.7127179140675821
 51
180.0
  0
ARC
  5
2729
  8
0
  6
CONTINUOUS
 62
     3
 10
0.0000000000000222
 20
-0.0000000000000097
 30
0.0
 40
48.9736473532500369
 50
180.0
 51
298.2448292674499726
  0
ARC
  5
272A
  8
0
  6
CONTINUOUS
 62
     3
 10
0.000000000000008
 20
-0.0000000000000026
 30
0.0
 40
48.9736473532500511
 50
301.7551707325500843
 51
58.2448292674498873
  0
ARC
  5
272B
  8
0
  6
CONTINUOUS
 62
     3
 10
0.0000000000000222
 20
-0.0000000000000169
 30
0.0
 40
48.9736473532500511
 50
61.7551707325500416
 51
180.0
  0
ARC
  5
272C
  8
0
  6
CONTINUOUS
 62
     3
 10
0.0000000000000169
 20
-0.0000000000000112
 30
0.0
 40
34.9000000000000767
 50
180.0
 51
297.5366718750246946
  0
ARC
  5
272D
  8
0
  6
CONTINUOUS
 62
     3
 10
0.0000000000000453
 20
-0.0000000000000148
 30
0.0
 40
34.9000000000000625
 50
302.4633281249753054
 51
57.5366718750246804
  0
ARC
  5
272E
  8
0
  6
CONTINUOUS
 62
     3
 10
0.0000000000000169
 20
-0.0000000000000112
 30
0.0
 40
34.9000000000000767
 50
62.4633281249751988
 51
180.0
  0
ARC
  5
272F
  8
0
  6
CONTINUOUS
 62
     3
 10
0.0000000000000147
 20
-0.0000000000000015
 30
0.0
 40
34.3818495990035018
 50
180.0
 51
297.4995249682738176
  0
ARC
  5
2730
  8
0
  6
CONTINUOUS
 62
     3
 10
0.0000000000000004
 20
-0.0000000000000193
 30
0.0
 40
34.3818495990034876
 50
302.500475031726296
 51
57.49952496827364
  0
ARC
  5
2731
  8
0
  6
CONTINUOUS
 62
     3
 10
0.0000000000000004
 20
-0.0000000000000122
 30
0.0
 40
34.3818495990034876
 50
62.5004750317260829
 51
180.0
  0
LINE
  5
2732
  8
0
  6
VERDECKT
 62
     1
 10
29.7895026662767215
 20
48.5969321501996774
 30
0.0
 11
27.1914264549234588
 21
50.0969321501996774
 31
-0.0000000000000006
  0
LINE
  5
2733
  8
0
  6
VERDECKT
 62
     1
 10
-58.9999999999999076
 20
15.4919333848295597
 30
0.0
 11
-58.9999999999999076
 21
-0.0000000000000071
 31
0.0
  0
LINE
  5
2734
  8
0
  6
VERDECKT
 62
     1
 10
-58.9999999999999076
 20
-0.0000000000000073
 30
0.0
 11
-58.9999999999999076
 21
-15.4919333848295793
 31
0.0
  0
LINE
  5
2735
  8
0
  6
VERDECKT
 62
     1
 10
58.9999999999999218
 20
-15.4919333848299896
 30
0.0
 11
59.0000000000000284
 21
-0.0000000000002238
 31
0.0
  0
LINE
  5
2736
  8
0
  6
VERDECKT
 62
     1
 10
59.0000000000000284
 20
-0.000000000000224
 30
0.0
 11
59.0000000000000284
 21
15.4919333848295206
 31
0.0
  0
LINE
  5
2737
  8
0
  6
VERDECKT
 62
     1
 10
-16.0835921350004796
 20
58.8414655156968891
 30
0.0
 11
-29.499999999999801
 21
51.0954988232817371
 31
-0.000000000000003
  0
LINE
  5
2738
  8
0
  6
VERDECKT
 62
     1
 10
-29.499999999999801
 20
51.0954988232817371
 30
0.0
 11
-42.9164078649991083
 21
43.349532130866578
 31
-0.000000000000003
  0
LINE
  5
2739
  8
0
  6
VERDECKT
 62
     1
 10
-42.9164078649986465
 20
-43.3495321308669119
 30
0.0
 11
-29.499999999999801
 21
-51.0954988232817797
 31
0.000000000000003
  0
LINE
  5
273A
  8
0
  6
VERDECKT
 62
     1
 10
-29.499999999999801
 20
-51.0954988232817797
 30
0.0
 11
-16.0835921350010516
 21
-58.841465515696612
 31
0.000000000000003
  0
CIRCLE
  5
273B
  8
0
  6
VERDECKT
 62
     1
 10
0.0000000000000208
 20
-0.0000000000000108
 30
0.0
 40
48.9999999999999503
  0
CIRCLE
  5
273C
  8
0
  6
VERDECKT
 62
     1
 10
0.0000000000000208
 20
-0.0000000000000108
 30
0.0
 40
51.0
  0
LINE
  5
273D
  8
0
  6
VERDECKT
 62
     1
 10
29.7895026662767215
 20
-48.5969321501997271
 30
0.0
 11
27.1914264549234588
 21
-50.0969321501997271
 31
-0.0000000000000006
  0
CIRCLE
  5
273E
  8
0
  6
VERDECKT
 62
     1
 10
0.0000000000000004
 20
-0.0000000000000157
 30
0.0
 40
35.8875793553185076
  0
CIRCLE
  5
273F
  8
0
  6
VERDECKT
 62
     1
 10
0.000000000000017
 20
-0.0000000000000112
 30
0.0
 40
36.5000000000000568
  0
ARC
  5
2740
  8
0
  6
VERDECKT
 62
     1
 10
0.0000000000019263
 20
-0.0000000000033067
 30
0.0
 40
50.1871728448085719
 50
298.2872820859323042
 51
301.7127179140678095
  0
ARC
  5
2741
  8
0
  6
VERDECKT
 62
     1
 10
0.0000000000019405
 20
0.0000000000032942
 30
0.0
 40
50.1871728448085719
 50
58.2872820859322331
 51
61.7127179140677384
  0
ARC
  5
2742
  8
0
  6
VERDECKT
 62
     1
 10
0.000000000001017
 20
-0.0000000000014166
 30
0.0
 40
48.9736473532483174
 50
298.2448292674496884
 51
301.7551707325500274
  0
ARC
  5
2743
  8
0
  6
VERDECKT
 62
     1
 10
0.0000000000092308
 20
0.0000000000157572
 30
0.0
 40
48.9736473532317902
 50
58.2448292674493615
 51
61.7551707325507877
  0
ARC
  5
2744
  8
0
  6
VERDECKT
 62
     1
 10
-0.0000000000039479
 20
0.0000000000068882
 30
0.0
 40
34.9000000000080277
 50
297.5366718750253199
 51
302.4633281249747938
  0
ARC
  5
2745
  8
0
  6
VERDECKT
 62
     1
 10
-0.0000000000031379
 20
-0.0000000000055215
 30
0.0
 40
34.9000000000064219
 50
57.5366718750251209
 51
62.4633281249747725
  0
ARC
  5
2746
  8
0
  6
VERDECKT
 62
     1
 10
0.0000000000001568
 20
-0.0000000000002786
 30
0.0
 40
34.381849599003182
 50
297.4995249682738176
 51
302.500475031726296
  0
ARC
  5
2747
  8
0
  6
VERDECKT
 62
     1
 10
-0.0000000000024296
 20
-0.0000000000042115
 30
0.0
 40
34.3818495990083406
 50
57.4995249682740024
 51
62.5004750317257276
  0
ENDBLK
  5
2749
  8
0
  0
BLOCK
  8
0
  2
A$C7E3254A9
 70
     0
 10
0.0
 20
0.0
 30
0.0
  3
A$C7E3254A9
  1

  0
LINE
  5
274D
  8
0
  6
CONTINUOUS
 62
     3
 10
-58.9999999999999503
 20
151.9999999999998863
 30
-0.0000000000000338
 11
-58.9999999999999503
 21
144.9999999999998863
 31
-0.0000000000000322
210
0.0
220
1.0
230
-0.0000000000000002
  0
LINE
  5
274E
  8
0
  6
CONTINUOUS
 62
     3
 10
-61.0000000000003411
 20
144.9999999999998863
 30
-0.0000000000000322
 11
-59.0000000000003411
 21
144.9999999999998863
 31
-0.0000000000000322
210
0.0
220
1.0
230
-0.0000000000000002
  0
LINE
  5
274F
  8
0
  6
CONTINUOUS
 62
     3
 10
-59.0000000000003411
 20
151.9999999999998863
 30
-0.0000000000000338
 11
-61.0000000000003411
 21
151.9999999999998863
 31
-0.0000000000000338
210
0.0
220
1.0
230
-0.0000000000000002
  0
LINE
  5
2750
  8
0
  6
CONTINUOUS
 62
     3
 10
58.9999999999997726
 20
144.9999999999998863
 30
-0.0000000000000322
 11
58.9999999999997726
 21
151.9999999999998863
 31
-0.0000000000000338
210
0.0
220
1.0
230
-0.0000000000000002
  0
LINE
  5
2751
  8
0
  6
CONTINUOUS
 62
     3
 10
59.0000000000002274
 20
144.9999999999998863
 30
-0.0000000000000322
 11
61.0000000000003411
 21
144.9999999999998863
 31
-0.0000000000000322
210
0.0
220
1.0
230
-0.0000000000000002
  0
LINE
  5
2752
  8
0
  6
CONTINUOUS
 62
     3
 10
61.0000000000003411
 20
151.9999999999998863
 30
-0.0000000000000338
 11
59.0000000000002274
 21
151.9999999999998863
 31
-0.0000000000000338
210
0.0
220
1.0
230
-0.0000000000000002
  0
LINE
  5
2753
  8
0
  6
CONTINUOUS
 62
     3
 10
-42.9164078650002665
 20
144.9999999999998863
 30
-0.0000000000000322
 11
-42.9164078650002665
 21
151.9999999999998863
 31
-0.0000000000000338
210
0.0
220
1.0
230
-0.0000000000000002
  0
LINE
  5
2754
  8
0
  6
CONTINUOUS
 62
     3
 10
-16.0835921349993782
 20
151.9999999999998863
 30
-0.0000000000000338
 11
-16.0835921349993782
 21
144.9999999999998863
 31
-0.0000000000000322
210
0.0
220
1.0
230
-0.0000000000000002
  0
LINE
  5
2755
  8
0
  6
CONTINUOUS
 62
     3
 10
-16.0835921350012505
 20
151.9999999999998863
 30
-0.0000000000000338
 11
-42.9164078649990302
 21
151.9999999999998863
 31
-0.0000000000000338
210
0.0
220
1.0
230
-0.0000000000000002
  0
LINE
  5
2756
  8
0
  6
CONTINUOUS
 62
     3
 10
-42.9164078649990515
 20
144.9999999999998863
 30
-0.0000000000000322
 11
-16.0835921350012505
 21
144.9999999999998863
 31
-0.0000000000000322
210
0.0
220
1.0
230
-0.0000000000000002
  0
LINE
  5
2757
  8
0
  6
CONTINUOUS
 62
     3
 10
-61.0
 20
159.9999999999998863
 30
-0.0000000000000355
 11
61.0
 21
159.9999999999998863
 31
-0.0000000000000355
210
0.0
220
1.0
230
-0.0000000000000002
  0
LINE
  5
2758
  8
0
  6
CONTINUOUS
 62
     3
 10
-51.0
 20
0.0
 30
0.0
 11
51.0
 21
0.0
 31
0.0
210
0.0
220
1.0
230
-0.0000000000000002
  0
LINE
  5
2759
  8
0
  6
CONTINUOUS
 62
     3
 10
61.0000000000001208
 20
159.9999999999998863
 30
-0.0000000000000355
 11
61.0000000000001208
 21
151.9999999999998863
 31
-0.0000000000000338
210
0.0
220
1.0
230
-0.0000000000000002
  0
LINE
  5
275A
  8
0
  6
CONTINUOUS
 62
     3
 10
61.0000000000001208
 20
144.9999999999998863
 30
-0.0000000000000322
 11
61.0000000000001208
 21
121.6681164997397957
 31
-0.000000000000027
210
0.0
220
1.0
230
-0.0000000000000002
  0
LINE
  5
275B
  8
0
  6
CONTINUOUS
 62
     3
 10
-61.0000000000001208
 20
159.9999999999998863
 30
-0.0000000000000355
 11
-61.0000000000001208
 21
151.9999999999998863
 31
-0.0000000000000338
210
0.0
220
1.0
230
-0.0000000000000002
  0
LINE
  5
275C
  8
0
  6
CONTINUOUS
 62
     3
 10
-61.0000000000001208
 20
144.9999999999998863
 30
-0.0000000000000322
 11
-61.0000000000001208
 21
121.6681164997397957
 31
-0.000000000000027
210
0.0
220
1.0
230
-0.0000000000000002
  0
ARC
  5
275D
  8
0
  6
CONTINUOUS
 62
     3
 10
46.9999999999993321
 20
121.6681164997397957
 30
0.0
 40
14.0000000000006004
210
0.0
220
-0.0000000000000002
230
-1.0
 50
336.2473682960912242
 51
0.0
  0
ARC
  5
275E
  8
0
  6
CONTINUOUS
 62
     3
 10
-46.9999999999993321
 20
121.6681164997397957
 30
0.0
 40
14.0000000000006093
210
0.0
220
-0.0000000000000002
230
-1.0
 50
180.0
 51
203.7526317039088042
  0
LINE
  5
275F
  8
0
  6
CONTINUOUS
 62
     3
 10
-52.0164842491923025
 20
98.3098483750781753
 30
-0.0000000000000218
 11
-59.8141017092756471
 21
116.0290742597543954
 31
-0.0000000000000258
210
0.0
220
1.0
230
-0.0000000000000002
  0
LINE
  5
2760
  8
0
  6
CONTINUOUS
 62
     3
 10
52.0164842491923025
 20
98.3098483750781753
 30
-0.0000000000000218
 11
59.8141017092756471
 21
116.0290742597543954
 31
-0.0000000000000258
210
0.0
220
1.0
230
-0.0000000000000002
  0
ARC
  5
2761
  8
0
  6
CONTINUOUS
 62
     3
 10
63.0000000000017266
 20
93.4763835979475743
 30
0.0
 40
12.0000000000017302
210
0.0
220
-0.0000000000000002
230
-1.0
 50
156.2473682960921906
 51
179.9999999999986073
  0
ARC
  5
2762
  8
0
  6
CONTINUOUS
 62
     3
 10
-63.0000000000016911
 20
93.4763835979475886
 30
0.0
 40
12.0000000000016893
210
0.0
220
-0.0000000000000002
230
-1.0
 50
0.0
 51
23.7526317039065198
  0
LINE
  5
2763
  8
0
  6
CONTINUOUS
 62
     3
 10
51.0
 20
93.4763835979478728
 30
-0.0000000000000208
 11
51.0
 21
0.0
 31
0.0
210
0.0
220
1.0
230
-0.0000000000000002
  0
LINE
  5
2764
  8
0
  6
CONTINUOUS
 62
     3
 10
-51.0
 20
93.4763835979478728
 30
-0.0000000000000208
 11
-51.0
 21
0.0
 31
0.0
210
0.0
220
1.0
230
-0.0000000000000002
  0
LINE
  5
2765
  8
0
  6
VERDECKT
 62
     1
 10
-56.9999999999999432
 20
144.9999999999998863
 30
-0.0000000000000322
 11
-56.9999999999999432
 21
151.9999999999998863
 31
-0.0000000000000338
210
0.0
220
1.0
230
-0.0000000000000002
  0
LINE
  5
2766
  8
0
  6
VERDECKT
 62
     1
 10
-57.0000000000001066
 20
144.9999999999998863
 30
-0.0000000000000322
 11
-59.0000000000001066
 21
144.9999999999998863
 31
-0.0000000000000322
210
0.0
220
1.0
230
-0.0000000000000002
  0
LINE
  5
2767
  8
0
  6
VERDECKT
 62
     1
 10
-59.0000000000001066
 20
151.9999999999998863
 30
-0.0000000000000338
 11
-57.0000000000001066
 21
151.9999999999998863
 31
-0.0000000000000338
210
0.0
220
1.0
230
-0.0000000000000002
  0
LINE
  5
2768
  8
0
  6
VERDECKT
 62
     1
 10
57.0
 20
151.9999999999998863
 30
-0.0000000000000338
 11
57.0
 21
144.9999999999998863
 31
-0.0000000000000322
210
0.0
220
1.0
230
-0.0000000000000002
  0
LINE
  5
2769
  8
0
  6
VERDECKT
 62
     1
 10
59.0000000000001066
 20
144.9999999999998863
 30
-0.0000000000000322
 11
57.0000000000001066
 21
144.9999999999998863
 31
-0.0000000000000322
210
0.0
220
1.0
230
-0.0000000000000002
  0
LINE
  5
276A
  8
0
  6
VERDECKT
 62
     1
 10
57.0000000000001208
 20
151.9999999999998863
 30
-0.0000000000000338
 11
59.0000000000001066
 21
151.9999999999998863
 31
-0.0000000000000338
210
0.0
220
1.0
230
-0.0000000000000002
  0
LINE
  5
276B
  8
0
  6
VERDECKT
 62
     1
 10
-15.3090940417259294
 20
144.9999999999998863
 30
-0.0000000000000322
 11
-15.3090940417259294
 21
151.9999999999998863
 31
-0.0000000000000338
210
0.0
220
1.0
230
-0.0000000000000002
  0
LINE
  5
276C
  8
0
  6
VERDECKT
 62
     1
 10
-41.6909059582734969
 20
151.9999999999998863
 30
-0.0000000000000338
 11
-41.6909059582734969
 21
144.9999999999998863
 31
-0.0000000000000322
210
0.0
220
1.0
230
-0.0000000000000002
  0
LINE
  5
276D
  8
0
  6
VERDECKT
 62
     1
 10
-16.0835921350010906
 20
151.9999999999998863
 30
-0.0000000000000338
 11
-15.3090940417269508
 21
151.9999999999998863
 31
-0.0000000000000338
210
0.0
220
1.0
230
-0.0000000000000002
  0
LINE
  5
276E
  8
0
  6
VERDECKT
 62
     1
 10
-15.3090940417269508
 20
144.9999999999998863
 30
-0.0000000000000322
 11
-16.08359213500108
 21
144.9999999999998863
 31
-0.0000000000000322
210
0.0
220
1.0
230
-0.0000000000000002
  0
LINE
  5
276F
  8
0
  6
VERDECKT
 62
     1
 10
48.9999999999999503
 20
93.4763835979479865
 30
-0.0000000000000208
 11
48.9999999999999503
 21
0.0
 31
0.0
210
0.0
220
1.0
230
-0.0000000000000002
  0
LINE
  5
2770
  8
0
  6
VERDECKT
 62
     1
 10
-48.9999999999999503
 20
93.4763835979479865
 30
-0.0000000000000208
 11
-48.9999999999999503
 21
0.0
 31
0.0
210
0.0
220
1.0
230
-0.0000000000000002
  0
ARC
  5
2771
  8
0
  6
VERDECKT
 62
     1
 10
62.9999999999989413
 20
93.4763835979481428
 30
0.0
 40
13.9999999999989893
210
0.0
220
-0.0000000000000002
230
-1.0
 50
156.2473682960890926
 51
180.0000000000005969
  0
ARC
  5
2772
  8
0
  6
VERDECKT
 62
     1
 10
-62.9999999999989413
 20
93.4763835979481428
 30
0.0
 40
13.9999999999989999
210
0.0
220
-0.0000000000000002
230
-1.0
 50
0.0
 51
23.752631703911451
  0
LINE
  5
2773
  8
0
  6
VERDECKT
 62
     1
 10
-50.1858982907243529
 20
99.1154258379333015
 30
-0.000000000000022
 11
-57.9835157508076975
 21
116.8346517226093937
 31
-0.0000000000000259
210
0.0
220
1.0
230
-0.0000000000000002
  0
LINE
  5
2774
  8
0
  6
VERDECKT
 62
     1
 10
50.1858982907243529
 20
99.1154258379333015
 30
-0.000000000000022
 11
57.9835157508076975
 21
116.8346517226093937
 31
-0.0000000000000259
210
0.0
220
1.0
230
-0.0000000000000002
  0
ARC
  5
2775
  8
0
  6
VERDECKT
 62
     1
 10
46.9999999999984794
 20
121.6681164997399947
 30
0.0
 40
12.0000000000014602
210
0.0
220
-0.0000000000000002
230
-1.0
 50
336.24736829609202
 51
359.9999999999985789
  0
ARC
  5
2776
  8
0
  6
VERDECKT
 62
     1
 10
-46.9999999999981668
 20
121.6681164997400941
 30
0.0
 40
12.0000000000017693
210
0.0
220
-0.0000000000000002
230
-1.0
 50
180.0000000000015916
 51
203.7526317039076105
  0
LINE
  5
2777
  8
0
  6
VERDECKT
 62
     1
 10
58.9999999999999503
 20
159.9999999999998863
 30
-0.0000000000000355
 11
58.9999999999999503
 21
151.9999999999998863
 31
-0.0000000000000338
210
0.0
220
1.0
230
-0.0000000000000002
  0
LINE
  5
2778
  8
0
  6
VERDECKT
 62
     1
 10
58.9999999999999503
 20
144.9999999999998863
 30
-0.0000000000000322
 11
58.9999999999999503
 21
121.6681164997396962
 31
-0.000000000000027
210
0.0
220
1.0
230
-0.0000000000000002
  0
LINE
  5
2779
  8
0
  6
VERDECKT
 62
     1
 10
-58.9999999999999503
 20
159.9999999999998863
 30
-0.0000000000000355
 11
-58.9999999999999503
 21
151.9999999999998863
 31
-0.0000000000000338
210
0.0
220
1.0
230
-0.0000000000000002
  0
LINE
  5
277A
  8
0
  6
VERDECKT
 62
     1
 10
-58.9999999999999503
 20
144.9999999999998863
 30
-0.0000000000000322
 11
-58.9999999999999503
 21
121.6681164997396962
 31
-0.000000000000027
210
0.0
220
1.0
230
-0.0000000000000002
  0
LINE
  5
277B
  8
0
  6
VERDECKT
 62
     1
 10
24.6914264549235405
 20
151.9999999999998863
 30
-0.0000000000000338
 11
17.6914264549235405
 21
146.9999999999998863
 31
-0.0000000000000326
210
0.0
220
1.0
230
-0.0000000000000002
  0
LINE
  5
277C
  8
0
  6
VERDECKT
 62
     1
 10
20.2895026662766895
 20
146.9999999999998863
 30
-0.0000000000000326
 11
27.2895026662766895
 21
151.9999999999998863
 31
-0.0000000000000338
210
0.0
220
1.0
230
-0.0000000000000002
  0
LINE
  5
277D
  8
0
  6
VERDECKT
 62
     1
 10
20.2895026662766895
 20
146.9999999999998863
 30
-0.0000000000000326
 11
17.6914264549234304
 21
146.9999999999998863
 31
-0.0000000000000326
210
0.0
220
1.0
230
-0.0000000000000002
  0
LINE
  5
277E
  8
0
  6
VERDECKT
 62
     1
 10
17.6914264549234304
 20
146.9999999999998863
 30
-0.0000000000000326
 11
14.1914264549234304
 21
147.0
 31
-0.0000000000000326
210
0.0
220
1.0
230
-0.0000000000000002
  0
LINE
  5
277F
  8
0
  6
VERDECKT
 62
     1
 10
14.1914264549235405
 20
147.0
 30
-0.0000000000000326
 11
14.1914264549235405
 21
139.8000000000000966
 31
-0.000000000000031
210
0.0
220
1.0
230
-0.0000000000000002
  0
LINE
  5
2780
  8
0
  6
VERDECKT
 62
     1
 10
16.7895026662766895
 20
139.8000000000000114
 30
-0.000000000000031
 11
16.7895026662766895
 21
146.9999999999998863
 31
-0.0000000000000326
210
0.0
220
1.0
230
-0.0000000000000002
  0
LINE
  5
2781
  8
0
  6
VERDECKT
 62
     1
 10
14.1914264549234304
 20
139.8000000000000966
 30
-0.000000000000031
 11
17.6914264549235405
 21
139.8000000000000966
 31
-0.000000000000031
210
0.0
220
1.0
230
-0.0000000000000002
  0
LINE
  5
2782
  8
0
  6
VERDECKT
 62
     1
 10
20.2895026662767997
 20
139.8000000000000966
 30
-0.000000000000031
 11
17.6914264549235405
 21
139.8000000000000966
 31
-0.000000000000031
210
0.0
220
1.0
230
-0.0000000000000002
  0
LINE
  5
2783
  8
0
  6
VERDECKT
 62
     1
 10
17.6914264549233202
 20
139.8000000000002103
 30
-0.000000000000031
 11
24.6914264549233202
 21
134.8000000000002103
 31
-0.0000000000000299
210
0.0
220
1.0
230
-0.0000000000000002
  0
LINE
  5
2784
  8
0
  6
VERDECKT
 62
     1
 10
27.2895026662766895
 20
134.8000000000000114
 30
-0.0000000000000299
 11
20.2895026662766895
 21
139.8000000000000114
 31
-0.000000000000031
210
0.0
220
1.0
230
-0.0000000000000002
  0
LINE
  5
2785
  8
0
  6
VERDECKT
 62
     1
 10
24.6914264549233202
 20
134.8000000000000966
 30
-0.0000000000000299
 11
28.1914264549233202
 21
134.8000000000000114
 31
-0.0000000000000299
210
0.0
220
1.0
230
-0.0000000000000002
  0
LINE
  5
2786
  8
0
  6
VERDECKT
 62
     1
 10
30.7895026662765794
 20
134.8000000000000114
 30
-0.0000000000000299
 11
28.1914264549233202
 21
134.8000000000000114
 31
-0.0000000000000299
210
0.0
220
1.0
230
-0.0000000000000002
  0
LINE
  5
2787
  8
0
  6
VERDECKT
 62
     1
 10
28.1914264549233202
 20
134.7999999999998124
 30
-0.0000000000000299
 11
28.1914264549233202
 21
137.2999999999998124
 31
-0.0000000000000305
210
0.0
220
1.0
230
-0.0000000000000002
  0
LINE
  5
2788
  8
0
  6
VERDECKT
 62
     1
 10
30.7895026662765794
 20
137.2999999999998977
 30
-0.0000000000000305
 11
30.7895026662765794
 21
134.8000000000000114
 31
-0.0000000000000299
210
0.0
220
1.0
230
-0.0000000000000002
  0
LINE
  5
2789
  8
0
  6
VERDECKT
 62
     1
 10
30.7895026662765794
 20
137.2999999999998977
 30
-0.0000000000000305
 11
28.1914264549233202
 21
137.2999999999998977
 31
-0.0000000000000305
210
0.0
220
1.0
230
-0.0000000000000002
  0
LINE
  5
278A
  8
0
  6
VERDECKT
 62
     1
 10
28.1914264549233202
 20
137.2999999999998977
 30
-0.0000000000000305
 11
27.1914264549233202
 21
138.4547005383793135
 31
-0.0000000000000307
210
0.0
220
1.0
230
-0.0000000000000002
  0
LINE
  5
278B
  8
0
  6
VERDECKT
 62
     1
 10
29.7895026662766895
 20
138.4547005383793135
 30
-0.0000000000000307
 11
30.7895026662766895
 21
137.2999999999998977
 31
-0.0000000000000305
210
0.0
220
1.0
230
-0.0000000000000002
  0
LINE
  5
278C
  8
0
  6
VERDECKT
 62
     1
 10
29.7895026662766895
 20
138.4547005383793135
 30
-0.0000000000000307
 11
27.1914264549234304
 21
138.4547005383793135
 31
-0.0000000000000307
210
0.0
220
1.0
230
-0.0000000000000002
  0
LINE
  5
278D
  8
0
  6
VERDECKT
 62
     1
 10
27.1914264549233202
 20
138.4547005383793135
 30
-0.0000000000000307
 11
27.1914264549233202
 21
148.3452994616206979
 31
-0.0000000000000329
210
0.0
220
1.0
230
-0.0000000000000002
  0
LINE
  5
278E
  8
0
  6
VERDECKT
 62
     1
 10
29.7895026662766895
 20
148.3452994616206126
 30
-0.0000000000000329
 11
29.7895026662766895
 21
138.4547005383791998
 31
-0.0000000000000307
210
0.0
220
1.0
230
-0.0000000000000002
  0
LINE
  5
278F
  8
0
  6
VERDECKT
 62
     1
 10
29.7895026662766895
 20
148.3452994616206126
 30
-0.0000000000000329
 11
27.1914264549234304
 21
148.3452994616206126
 31
-0.0000000000000329
210
0.0
220
1.0
230
-0.0000000000000002
  0
LINE
  5
2790
  8
0
  6
VERDECKT
 62
     1
 10
27.1914264549233202
 20
148.3452994616206979
 30
-0.0000000000000329
 11
28.1914264549233202
 21
149.5
 31
-0.0000000000000332
210
0.0
220
1.0
230
-0.0000000000000002
  0
LINE
  5
2791
  8
0
  6
VERDECKT
 62
     1
 10
30.7895026662766895
 20
149.4999999999998863
 30
-0.0000000000000332
 11
29.7895026662766895
 21
148.3452994616206126
 31
-0.0000000000000329
210
0.0
220
1.0
230
-0.0000000000000002
  0
LINE
  5
2792
  8
0
  6
VERDECKT
 62
     1
 10
30.7895026662766895
 20
149.4999999999998863
 30
-0.0000000000000332
 11
28.1914264549234304
 21
149.4999999999998863
 31
-0.0000000000000332
210
0.0
220
1.0
230
-0.0000000000000002
  0
LINE
  5
2793
  8
0
  6
VERDECKT
 62
     1
 10
28.1914264549233202
 20
149.5
 30
-0.0000000000000332
 11
28.1914264549233202
 21
152.0
 31
-0.0000000000000338
210
0.0
220
1.0
230
-0.0000000000000002
  0
LINE
  5
2794
  8
0
  6
VERDECKT
 62
     1
 10
30.7895026662766895
 20
151.9999999999998863
 30
-0.0000000000000338
 11
30.7895026662766895
 21
149.4999999999998863
 31
-0.0000000000000332
210
0.0
220
1.0
230
-0.0000000000000002
  0
LINE
  5
2795
  8
0
  6
VERDECKT
 62
     1
 10
30.7895026662766895
 20
151.9999999999998863
 30
-0.0000000000000338
 11
28.1914264549234304
 21
151.9999999999998863
 31
-0.0000000000000338
210
0.0
220
1.0
230
-0.0000000000000002
  0
LINE
  5
2796
  8
0
  6
VERDECKT
 62
     1
 10
28.1914264549233202
 20
152.0
 30
-0.0000000000000338
 11
24.6914264549233202
 21
151.9999999999998863
 31
-0.0000000000000338
210
0.0
220
1.0
230
-0.0000000000000002
  0
LINE
  5
2797
  8
0
  6
VERDECKT
 62
     1
 10
35.8875793553185076
 20
2.0
 30
-0.0000000000000004
 11
-35.8875793553185076
 21
2.0
 31
-0.0000000000000004
210
0.0
220
1.0
230
-0.0000000000000002
  0
LINE
  5
2798
  8
0
  6
VERDECKT
 62
     1
 10
50.1871728448123804
 20
99.1183221215614054
 30
-0.000000000000022
 11
-50.1871728448123804
 21
99.1183221215614054
 31
-0.000000000000022
210
0.0
220
1.0
230
-0.0000000000000002
  0
LINE
  5
2799
  8
0
  6
VERDECKT
 62
     1
 10
48.9736473532500369
 20
100.0
 30
-0.0000000000000222
 11
-48.9736473532500369
 21
100.0
 31
-0.0000000000000222
210
0.0
220
1.0
230
-0.0000000000000002
  0
LINE
  5
279A
  8
0
  6
VERDECKT
 62
     1
 10
-35.8875793553185076
 20
2.0
 30
-0.0000000000000004
 11
-36.5
 21
9.0000000000000018
 31
-0.000000000000002
210
0.0
220
1.0
230
-0.0000000000000002
  0
LINE
  5
279B
  8
0
  6
VERDECKT
 62
     1
 10
35.8875793553185076
 20
2.0
 30
-0.0000000000000004
 11
36.5
 21
9.0000000000000018
 31
-0.000000000000002
210
0.0
220
1.0
230
-0.0000000000000002
  0
LINE
  5
279C
  8
0
  6
VERDECKT
 62
     1
 10
-36.5000000000000284
 20
9.0000000000000018
 30
-0.000000000000002
 11
-36.5000000000000284
 21
76.3805085208027918
 31
-0.000000000000017
210
0.0
220
1.0
230
-0.0000000000000002
  0
LINE
  5
279D
  8
0
  6
VERDECKT
 62
     1
 10
36.5000000000000284
 20
9.0000000000000018
 30
-0.000000000000002
 11
36.5000000000000284
 21
76.3805085208027918
 31
-0.000000000000017
210
0.0
220
1.0
230
-0.0000000000000002
  0
ARC
  5
279E
  8
0
  6
VERDECKT
 62
     1
 10
-48.4999999999999503
 20
76.3805085208028061
 30
0.0
 40
11.9999999999998899
210
0.0
220
-0.0000000000000002
230
-1.0
 50
360.0
 51
36.0000000000008313
  0
ARC
  5
279F
  8
0
  6
VERDECKT
 62
     1
 10
48.5000000000000782
 20
76.3805085208027634
 30
0.0
 40
12.0000000000000195
210
0.0
220
-0.0000000000000002
230
-1.0
 50
143.9999999999992895
 51
179.999999999999801
  0
LINE
  5
27A0
  8
0
  6
VERDECKT
 62
     1
 10
-38.791796067500762
 20
83.4339315483125858
 30
-0.0000000000000185
 11
-50.1871728448123733
 21
99.1183221215614054
 31
-0.000000000000022
210
0.0
220
1.0
230
-0.0000000000000002
  0
LINE
  5
27A1
  8
0
  6
VERDECKT
 62
     1
 10
38.791796067500762
 20
83.4339315483125858
 30
-0.0000000000000185
 11
50.1871728448123733
 21
99.1183221215614054
 31
-0.000000000000022
210
0.0
220
1.0
230
-0.0000000000000002
  0
LINE
  5
27A2
  8
0
  6
VERDECKT
 62
     1
 10
48.9736473532500369
 20
100.0
 30
-0.0000000000000222
 11
50.1871728448123804
 21
99.1183221215614054
 31
-0.000000000000022
210
0.0
220
1.0
230
-0.0000000000000002
  0
LINE
  5
27A3
  8
0
  6
VERDECKT
 62
     1
 10
-48.9736473532500369
 20
100.0
 30
-0.0000000000000222
 11
-50.1871728448123804
 21
99.1183221215614054
 31
-0.000000000000022
210
0.0
220
1.0
230
-0.0000000000000002
  0
LINE
  5
27A4
  8
0
  6
VERDECKT
 62
     1
 10
-37.4973688765007722
 20
84.204257790310038
 30
-0.0000000000000187
 11
-48.9736473532500298
 21
100.0
 31
-0.0000000000000222
210
0.0
220
1.0
230
-0.0000000000000002
  0
LINE
  5
27A5
  8
0
  6
VERDECKT
 62
     1
 10
37.4973688765007722
 20
84.204257790310038
 30
-0.0000000000000187
 11
48.9736473532500298
 21
100.0
 31
-0.0000000000000222
210
0.0
220
1.0
230
-0.0000000000000002
  0
ARC
  5
27A6
  8
0
  6
VERDECKT
 62
     1
 10
-48.5000000000001918
 20
76.2103783591323207
 30
0.0
 40
13.6000000000001204
210
0.0
220
-0.0000000000000002
230
-1.0
 50
0.0000000000003689
 51
35.9999999999998934
  0
ARC
  5
27A7
  8
0
  6
VERDECKT
 62
     1
 10
48.500000000000199
 20
76.2103783591323207
 30
0.0
 40
13.6000000000001506
210
0.0
220
-0.0000000000000002
230
-1.0
 50
144.0000000000001137
 51
179.9999999999996021
  0
LINE
  5
27A8
  8
0
  6
VERDECKT
 62
     1
 10
-34.9000000000000412
 20
7.9224861840866661
 30
-0.0000000000000018
 11
-34.9000000000000412
 21
76.210378359132406
 31
-0.0000000000000169
210
0.0
220
1.0
230
-0.0000000000000002
  0
LINE
  5
27A9
  8
0
  6
VERDECKT
 62
     1
 10
34.9000000000000412
 20
7.9224861840866661
 30
-0.0000000000000018
 11
34.9000000000000412
 21
76.210378359132406
 31
-0.0000000000000169
210
0.0
220
1.0
230
-0.0000000000000002
  0
LINE
  5
27AA
  8
0
  6
VERDECKT
 62
     1
 10
-34.3818495990034876
 20
2.0
 30
-0.0000000000000004
 11
-34.9000000000000412
 21
7.9224861840866661
 31
-0.0000000000000018
210
0.0
220
1.0
230
-0.0000000000000002
  0
LINE
  5
27AB
  8
0
  6
VERDECKT
 62
     1
 10
34.3818495990034876
 20
2.0
 30
-0.0000000000000004
 11
34.9000000000000412
 21
7.9224861840866661
 31
-0.0000000000000018
210
0.0
220
1.0
230
-0.0000000000000002
  0
ENDBLK
  5
27AD
  8
0
  0
ENDSEC
  0
SECTION
  2
ENTITIES
  0
TEXT
  5
8E
  8
VOLL
 10
78.076754716981128
 20
31.025947764705851
 30
0.0
 40
1.8
  1

  7
GREEKS
  0
INSERT
  5
274A
  8
STEMPEL
  2
A$C76E0502D
 10
0.0
 20
-111.0
 30
0.0
  0
INSERT
  5
27AE
  8
STEMPEL
  2
A$C7E3254A9
 10
0.0
 20
0.0
 30
0.0
  0
VIEWPORT
  5
23C0
 67
     1
  8
0
 10
4.8912964133677264
 20
7.0701141596889538
 30
0.0
 40
25.4507311899952704
 41
14.4491202971088608
 68
     1
 69
     1
1001
ACAD
1000
MVIEW
1002
{
1070
    16
1010
0.0
1020
0.0
1030
0.0
1010
0.0
1020
0.0
1030
1.0
1040
0.0
1040
14.4491202971088608
1040
4.8912964133677264
1040
7.0701141596889538
1040
50.0
1040
0.0
1040
0.0
1070
     0
1070
  1500
1070
     1
1070
     1
1070
     0
1070
     0
1070
     0
1070
     0
1040
0.0
1040
0.0
1040
0.0
1040
10.0
1040
10.0
1040
10.0
1040
10.0
1070
     0
1002
{
1002
}
1002
}
  0
VIEWPORT
  5
23C4
 67
     1
  8
DEFPOINTS
 10
4.8912251988282867
 20
7.0702739984684539
 30
0.0
 40
10.0369478452829206
 41
14.3475527264155396
 68
     2
 69
     2
1001
ACAD
1000
MVIEW
1002
{
1070
    16
1010
489.1796005899095121
1020
169.9808700344015051
1030
-35.5751371205783968
1010
0.0
1020
0.0
1030
655.7721966653193704
1040
0.0
1040
438.9783021773105247
1040
-341.0969371398352905
1040
41.584379383436989
1040
50.0
1040
0.0
1040
0.0
1070
     0
1070
  1500
1070
     1
1070
     0
1070
     0
1070
     0
1070
     0
1070
     0
1040
0.0
1040
0.0
1040
0.0
1040
1.0
1040
1.0
1040
10.0
1040
10.0
1070
     0
1002
{
1002
}
1002
}
  0
VIEWPORT
  5
23C8
 67
     1
  8
DEFPOINTS
 10
7.7551615215469312
 20
3.884644694518895
 30
0.0
 40
2.9891528233686842
 41
3.5109028695252849
 68
     3
 69
     3
1001
ACAD
1000
MVIEW
1002
{
1070
    16
1010
565.8399126824225505
1020
237.9237244240902101
1030
-100.6832284210673976
1010
82.6691872352039354
1020
152.9041355226748067
1030
389.0083596028812281
1040
2.618056867980223
1040
204.7439948821086944
1040
0.0
1040
0.0
1040
50.0
1040
0.0
1040
0.0
1070
     0
1070
  1500
1070
     1
1070
     0
1070
     0
1070
     0
1070
     0
1070
     0
1040
0.0
1040
0.0
1040
0.0
1040
1.0
1040
1.0
1040
10.0
1040
10.0
1070
     0
1002
{
1002
}
1002
}
  0
ENDSEC
  0
EOF
