  0
SECTION
  2
HEADER
  9
$ACADVER
  1
AC1009
  9
$INSBASE
 10
0.0
 20
0.0
 30
0.0
  9
$EXTMIN
 10
-73.3532975257930957
 20
-195.0087727996389901
 30
-0.0042721349796011
  9
$EXTMAX
 10
72.5062022152995951
 20
140.0078590971043013
 30
0.006408854395147
  9
$LIMMIN
 10
0.0
 20
0.0
  9
$LIMMAX
 10
296.9999999999998863
 20
420.0000000000001137
  9
$ORTHOMODE
 70
     1
  9
$REGENMODE
 70
     1
  9
$FILLMODE
 70
     1
  9
$QTEXTMODE
 70
     0
  9
$MIRRTEXT
 70
     1
  9
$DRAGMODE
 70
     2
  9
$LTSCALE
 40
10.0
  9
$OSMODE
 70
  2559
  9
$ATTMODE
 70
     1
  9
$TEXTSIZE
 40
3.5
  9
$TRACEWID
 40
0.5
  9
$TEXTSTYLE
  7
STANDARD
  9
$CLAYER
  8
DEFPOINTS
  9
$CELTYPE
  6
BYLAYER
  9
$CECOLOR
 62
   256
  9
$DIMSCALE
 40
1.0
  9
$DIMASZ
 40
3.5
  9
$DIMEXO
 40
1.0
  9
$DIMDLI
 40
7.0
  9
$DIMRND
 40
0.0
  9
$DIMDLE
 40
0.0
  9
$DIMEXE
 40
1.0
  9
$DIMTP
 40
0.0
  9
$DIMTM
 40
0.0
  9
$DIMTXT
 40
3.5
  9
$DIMCEN
 40
1.5
  9
$DIMTSZ
 40
0.0
  9
$DIMTOL
 70
     0
  9
$DIMLIM
 70
     0
  9
$DIMTIH
 70
     0
  9
$DIMTOH
 70
     0
  9
$DIMSE1
 70
     0
  9
$DIMSE2
 70
     0
  9
$DIMTAD
 70
     1
  9
$DIMZIN
 70
     8
  9
$DIMBLK
  1

  9
$DIMASO
 70
     1
  9
$DIMSHO
 70
     0
  9
$DIMPOST
  1

  9
$DIMAPOST
  1

  9
$DIMALT
 70
     0
  9
$DIMALTD
 70
     2
  9
$DIMALTF
 40
25.3999999999999986
  9
$DIMLFAC
 40
1.0
  9
$DIMTOFL
 70
     1
  9
$DIMTVP
 40
0.0
  9
$DIMTIX
 70
     0
  9
$DIMSOXD
 70
     0
  9
$DIMSAH
 70
     0
  9
$DIMBLK1
  1

  9
$DIMBLK2
  1

  9
$DIMSTYLE
  2
STANDARD
  9
$DIMCLRD
 70
     0
  9
$DIMCLRE
 70
     0
  9
$DIMCLRT
 70
     1
  9
$DIMTFAC
 40
0.5142857142857143
  9
$DIMGAP
 40
1.5
  9
$LUNITS
 70
     2
  9
$LUPREC
 70
     2
  9
$SKETCHINC
 40
1.0
  9
$FILLETRAD
 40
0.0
  9
$AUNITS
 70
     0
  9
$AUPREC
 70
     0
  9
$MENU
  1
ACAD
  9
$ELEVATION
 40
0.0
  9
$PELEVATION
 40
0.0
  9
$THICKNESS
 40
0.0
  9
$LIMCHECK
 70
     0
  9
$BLIPMODE
 70
     0
  9
$CHAMFERA
 40
0.0
  9
$CHAMFERB
 40
0.0
  9
$SKPOLY
 70
     0
  9
$TDCREATE
 40
2451337.6017592591233552
  9
$TDUPDATE
 40
2458387.5773611110635102
  9
$TDINDWG
 40
0.095484375
  9
$TDUSRTIMER
 40
0.095484375
  9
$USRTIMER
 70
     1
  9
$ANGBASE
 50
0.0
  9
$ANGDIR
 70
     0
  9
$PDMODE
 70
     0
  9
$PDSIZE
 40
0.0
  9
$PLINEWID
 40
0.0
  9
$COORDS
 70
     1
  9
$SPLFRAME
 70
     0
  9
$SPLINETYPE
 70
     6
  9
$SPLINESEGS
 70
     8
  9
$ATTDIA
 70
     1
  9
$ATTREQ
 70
     1
  9
$HANDLING
 70
     1
  9
$HANDSEED
  5
1E14
  9
$SURFTAB1
 70
     6
  9
$SURFTAB2
 70
     6
  9
$SURFTYPE
 70
     6
  9
$SURFU
 70
     6
  9
$SURFV
 70
     6
  9
$UCSNAME
  2

  9
$UCSORG
 10
0.0
 20
0.0
 30
0.0
  9
$UCSXDIR
 10
1.0
 20
0.0
 30
0.0
  9
$UCSYDIR
 10
0.0
 20
1.0
 30
0.0
  9
$PUCSNAME
  2

  9
$PUCSORG
 10
0.0
 20
0.0
 30
0.0
  9
$PUCSXDIR
 10
1.0
 20
0.0
 30
0.0
  9
$PUCSYDIR
 10
0.0
 20
1.0
 30
0.0
  9
$USERI1
 70
     0
  9
$USERI2
 70
     0
  9
$USERI3
 70
     0
  9
$USERI4
 70
     0
  9
$USERI5
 70
     0
  9
$USERR1
 40
0.0
  9
$USERR2
 40
0.0
  9
$USERR3
 40
0.0
  9
$USERR4
 40
0.0
  9
$USERR5
 40
0.0
  9
$WORLDVIEW
 70
     1
  9
$SHADEDGE
 70
     3
  9
$SHADEDIF
 70
    70
  9
$TILEMODE
 70
     1
  9
$MAXACTVP
 70
    16
  9
$PLIMCHECK
 70
     0
  9
$PEXTMIN
 10
-0.1278078343990714
 20
-0.1043154123847323
 30
-0.0000000349181948
  9
$PEXTMAX
 10
10.3407893484043001
 20
14.5989486855647606
 30
0.0000000814935746
  9
$PLIMMIN
 10
-0.2500002402958907
 20
-0.2499999962453767
  9
$PLIMMAX
 10
10.7499995194082203
 20
8.2499997634587334
  9
$UNITMODE
 70
     0
  9
$VISRETAIN
 70
     0
  9
$PLINEGEN
 70
     0
  9
$PSLTSCALE
 70
     0
  0
ENDSEC
  0
SECTION
  2
TABLES
  0
TABLE
  2
VPORT
 70
     1
  0
VPORT
  2
*ACTIVE
 70
     0
 10
0.0
 20
0.0
 11
1.0
 21
1.0
 12
-0.4235476552467219
 22
-61.2529859955544609
 13
0.0
 23
0.0
 14
1.0
 24
1.0
 15
10.0
 25
10.0
 16
-0.0000000000001469
 26
0.0
 36
661.5758144180499585
 17
0.0
 27
33.7525291442871094
 37
-0.0000000000000013
 40
336.7244482020793157
 41
1.868197278911564
 42
50.0
 43
0.0
 44
0.0
 50
0.0
 51
0.0
 71
     0
 72
  1500
 73
     1
 74
     0
 75
     0
 76
     0
 77
     0
 78
     0
  0
ENDTAB
  0
TABLE
  2
LTYPE
 70
     4
  0
LTYPE
  2
CONTINUOUS
 70
     0
  3
Solid line
 72
    65
 73
     0
 40
0.0
  0
LTYPE
  2
VERDECKT
 70
     0
  3
_ _ _ _ _ _ _ _ _ _ _ _ _ _ _ _ _ _ _ _ _ _ _
 72
    65
 73
     2
 40
0.375
 49
0.25
 49
-0.125
  0
ENDTAB
  0
TABLE
  2
LAYER
 70
    11
  0
LAYER
  2
0
 70
     0
 62
     7
  6
CONTINUOUS
  0
LAYER
  2
VOLL
 70
     0
 62
     1
  6
CONTINUOUS
  0
LAYER
  2
DEFPOINTS
 70
     0
 62
     7
  6
CONTINUOUS
  0
ENDTAB
  0
TABLE
  2
STYLE
 70
     2
  0
STYLE
  2
STANDARD
 70
     0
 40
0.0
 41
0.8
 50
0.0
 71
     0
 42
3.5
  3
simplex.shx
  4

  0
STYLE
  2
GREEKS
 70
     0
 40
0.0
 41
0.8
 50
0.0
 71
     0
 42
2.5
  3
SIMPLEX.shx
  4

  0
ENDTAB
  0
TABLE
  2
VIEW
 70
     1
  0
ENDTAB
  0
TABLE
  2
UCS
 70
     0
  0
ENDTAB
  0
TABLE
  2
APPID
 70
    10
  0
APPID
  2
ACAD
 70
     0
  0
APPID
  2
ACAD_NAV_VCDISPLAY
 70
     0
  0
APPID
  2
ACAECLAYERSTANDARD
 70
     0
  0
APPID
  2
ACCMTRANSPARENCY
 70
     0
  0
APPID
  2
ACAD_PSEXT
 70
     0
  0
APPID
  2
ACAD_STEPID
 70
     0
  0
APPID
  2
ACAD_EXEMPT_FROM_CAD_STANDARDS
 70
     0
  0
APPID
  2
ACAD_MLEADERVER
 70
     0
  0
APPID
  2
ACAD_OBJECT_CHANGE_GUID
 70
     0
  0
APPID
  2
ACADANNOMONITORALERTICONDI
 70
     0
  0
ENDTAB
  0
TABLE
  2
DIMSTYLE
 70
     2
  0
DIMSTYLE
  2
STANDARD
 70
     0
  3

  4

  5

  6

  7

 40
1.0
 41
0.18
 42
0.0625
 43
0.38
 44
0.18
 45
0.0
 46
0.0
 47
0.0
 48
0.0
140
0.18
141
0.09
142
0.0
143
25.3999999999999986
144
1.0
145
0.0
146
1.0
147
0.09
 71
     0
 72
     0
 73
     1
 74
     1
 75
     0
 76
     0
 77
     0
 78
     0
170
     0
171
     2
172
     0
173
     0
174
     0
175
     0
176
     0
177
     0
178
     0
  0
ENDTAB
  0
ENDSEC
  0
SECTION
  2
BLOCKS
  0
BLOCK
  8
0
  2
$MODEL_SPACE
 70
     0
 10
0.0
 20
0.0
 30
0.0
  3
$MODEL_SPACE
  1

  0
ENDBLK
  5
36
  8
0
  0
BLOCK
 67
     1
  8
0
  2
$PAPER_SPACE
 70
     0
 10
0.0
 20
0.0
 30
0.0
  3
$PAPER_SPACE
  1

  0
ENDBLK
  5
34
 67
     1
  8
0
  0
BLOCK
  8
0
  2
A$C1CE15AB1
 70
     0
 10
0.0
 20
0.0
 30
0.0
  3
A$C1CE15AB1
  1

  0
ARC
  5
1CE8
  8
0
  6
CONTINUOUS
 62
     3
 10
-0.0000000000000214
 20
-0.0000000000000708
 30
0.0
 40
59.5479390074607409
 50
61.4434212536334883
 51
179.9999999999998863
  0
ARC
  5
1CE9
  8
0
  6
CONTINUOUS
 62
     3
 10
0.0000000000000923
 20
0.0000000000000003
 30
0.0
 40
59.5479390074606769
 50
301.4434212536335735
 51
58.5565787463664194
  0
ARC
  5
1CEA
  8
0
  6
CONTINUOUS
 62
     3
 10
-0.0000000000000214
 20
0.000000000000082
 30
0.0
 40
59.5479390074608119
 50
180.0000000000001137
 51
298.5565787463664833
  0
LINE
  5
1CEB
  8
0
  6
CONTINUOUS
 62
     3
 10
-67.5000000000000284
 20
18.5404962177389407
 30
0.0000000000000284
 11
-67.5000000000000284
 21
-18.5404962177394594
 31
0.0000000000000284
  0
LINE
  5
1CEC
  8
0
  6
CONTINUOUS
 62
     3
 10
-49.8065407233314374
 20
-49.1864666465803282
 30
0.0
 11
-17.6934592766684986
 21
-67.7269628643194608
 31
-0.0000000000000071
  0
LINE
  5
1CED
  8
0
  6
CONTINUOUS
 62
     3
 10
67.5000000000000853
 20
-18.5404962177388306
 30
-0.0000000000000284
 11
67.5000000000000853
 21
18.5404962177386992
 31
-0.0000000000000284
  0
LINE
  5
1CEE
  8
0
  6
CONTINUOUS
 62
     3
 10
-17.6934592766682783
 20
67.7269628643190202
 30
0.0
 11
-49.8065407233314374
 21
49.1864666465797598
 31
0.0000000000000071
  0
CIRCLE
  5
1CEF
  8
0
  6
CONTINUOUS
 62
     3
 10
0.0000000000000826
 20
0.0000000000000029
 30
0.0
 40
72.5
  0
CIRCLE
  5
1CF0
  8
0
  6
CONTINUOUS
 62
     3
 10
0.0000000000000826
 20
0.0000000000000029
 30
0.0
 40
70.0
  0
ARC
  5
1CF1
  8
0
  6
CONTINUOUS
 62
     3
 10
-0.0000000000000004
 20
-0.0000000000000099
 30
0.0
 40
48.3799396802317005
 50
61.7767166553239022
 51
180.0
  0
ARC
  5
1CF2
  8
0
  6
CONTINUOUS
 62
     3
 10
-0.0000000000001141
 20
-0.000000000000017
 30
0.0
 40
48.3799396802317716
 50
301.7767166553240941
 51
58.2232833446758704
  0
ARC
  5
1CF3
  8
0
  6
CONTINUOUS
 62
     3
 10
-0.0000000000000004
 20
-0.0000000000000277
 30
0.0
 40
48.3799396802316934
 50
180.0
 51
298.2232833446760765
  0
ARC
  5
1CF4
  8
0
  6
CONTINUOUS
 62
     3
 10
-0.0000000000000164
 20
-0.0000000000000126
 30
0.0
 40
48.9999999999999929
 50
61.7542264905847489
 51
180.0
  0
ARC
  5
1CF5
  8
0
  6
CONTINUOUS
 62
     3
 10
-0.0000000000000164
 20
-0.000000000000034
 30
0.0
 40
49.0000000000000213
 50
301.7542264905849834
 51
58.2457735094152085
  0
ARC
  5
1CF6
  8
0
  6
CONTINUOUS
 62
     3
 10
-0.0000000000000164
 20
-0.0000000000000197
 30
0.0
 40
48.9999999999999787
 50
179.9999999999998863
 51
298.2457735094151872
  0
LINE
  5
1CF7
  8
0
  6
CONTINUOUS
 62
     3
 10
30.200961894323509
 20
-55.3096004384196291
 30
0.0
 11
23.200961894323509
 21
-43.1852447854375896
 31
0.0000000000000018
  0
LINE
  5
1CF8
  8
0
  6
CONTINUOUS
 62
     3
 10
32.799038105676658
 20
-53.8096004384194586
 30
0.0
 11
30.2009618943233988
 21
-55.3096004384194728
 31
0.0000000000000006
  0
LINE
  5
1CF9
  8
0
  6
CONTINUOUS
 62
     3
 10
25.7990381056768889
 20
-41.6852447854375825
 30
0.0
 11
32.7990381056768783
 21
-53.809600438419622
 31
-0.0000000000000018
  0
LINE
  5
1CFA
  8
0
  6
CONTINUOUS
 62
     3
 10
25.7990381056768889
 20
-41.6852447854375825
 30
0.0
 11
23.2009618943236298
 21
-43.1852447854375896
 31
0.0000000000000006
  0
LINE
  5
1CFB
  8
0
  6
CONTINUOUS
 62
     3
 10
23.200961894323509
 20
-43.1852447854375967
 30
0.0
 11
19.700961894323509
 21
-37.1230669589465379
 31
0.0000000000000008
  0
LINE
  5
1CFC
  8
0
  6
CONTINUOUS
 62
     3
 10
22.2990381056766616
 20
-35.6230669589465379
 30
0.0
 11
25.7990381056766616
 21
-41.6852447854375967
 31
-0.0000000000000008
  0
LINE
  5
1CFD
  8
0
  6
CONTINUOUS
 62
     3
 10
22.2990381056766616
 20
-35.6230669589465379
 30
0.0
 11
19.7009618943233988
 21
-37.1230669589465379
 31
0.0000000000000006
  0
LINE
  5
1CFE
  8
0
  6
CONTINUOUS
 62
     3
 10
33.6929252573586098
 20
-61.3578584013657675
 30
0.0
 11
30.2009618943232887
 21
-55.3096004384194728
 31
0.0000000000000008
  0
LINE
  5
1CFF
  8
0
  6
CONTINUOUS
 62
     3
 10
32.799038105676658
 20
-53.8096004384194586
 30
0.0
 11
36.2910014687119826
 21
-59.857858401365732
 31
-0.0000000000000008
  0
LINE
  5
1D00
  8
0
  6
CONTINUOUS
 62
     3
 10
30.200961894323509
 20
55.3096004384196434
 30
0.0
 11
23.200961894323509
 21
43.1852447854375896
 31
0.0000000000000018
  0
LINE
  5
1D01
  8
0
  6
CONTINUOUS
 62
     3
 10
25.7990381056768889
 20
41.6852447854375825
 30
0.0
 11
23.2009618943236298
 21
43.1852447854375896
 31
0.0000000000000006
  0
LINE
  5
1D02
  8
0
  6
CONTINUOUS
 62
     3
 10
25.7990381056768889
 20
41.6852447854375825
 30
0.0
 11
32.7990381056768783
 21
53.8096004384196291
 31
-0.0000000000000018
  0
LINE
  5
1D03
  8
0
  6
CONTINUOUS
 62
     3
 10
32.799038105676658
 20
53.8096004384194586
 30
0.0
 11
30.2009618943233988
 21
55.3096004384194728
 31
0.0000000000000006
  0
LINE
  5
1D04
  8
0
  6
CONTINUOUS
 62
     3
 10
23.200961894323509
 20
43.1852447854375967
 30
0.0
 11
19.700961894323509
 21
37.1230669589465379
 31
0.0000000000000008
  0
LINE
  5
1D05
  8
0
  6
CONTINUOUS
 62
     3
 10
22.2990381056766616
 20
35.6230669589465379
 30
0.0
 11
19.7009618943233988
 21
37.1230669589465379
 31
0.0000000000000006
  0
LINE
  5
1D06
  8
0
  6
CONTINUOUS
 62
     3
 10
22.2990381056766616
 20
35.6230669589465379
 30
0.0
 11
25.7990381056766616
 21
41.6852447854375967
 31
-0.0000000000000008
  0
LINE
  5
1D07
  8
0
  6
CONTINUOUS
 62
     3
 10
33.6929252573586098
 20
61.3578584013657675
 30
0.0
 11
30.2009618943232887
 21
55.3096004384194728
 31
0.0000000000000008
  0
LINE
  5
1D08
  8
0
  6
CONTINUOUS
 62
     3
 10
32.799038105676658
 20
53.8096004384194586
 30
0.0
 11
36.2910014687119826
 21
59.857858401365732
 31
-0.0000000000000008
  0
ARC
  5
1D09
  8
0
  6
VERDECKT
 62
     1
 10
-0.0000000000361738
 20
-0.0000000000628046
 30
0.0
 40
59.5479390075331807
 50
58.5565787463681673
 51
61.4434212536318185
  0
ARC
  5
1D0A
  8
0
  6
VERDECKT
 62
     1
 10
-0.0000000000361738
 20
0.0000000000628122
 30
0.0
 40
59.5479390075331807
 50
298.5565787463681886
 51
301.4434212536318114
  0
CIRCLE
  5
1D0B
  8
0
  6
VERDECKT
 62
     1
 10
-0.0000000000000211
 20
0.0000000000000002
 30
0.0
 40
61.7499999999998934
  0
LINE
  5
1D0C
  8
0
  6
VERDECKT
 62
     1
 10
-18.6541289617217885
 20
70.0590713090001458
 30
0.0
 11
-35.0000000000002629
 21
60.6217782649111498
 31
0.0000000000000036
  0
LINE
  5
1D0D
  8
0
  6
VERDECKT
 62
     1
 10
-35.0000000000002629
 20
60.6217782649111498
 30
0.0
 11
-51.3458710382766697
 21
51.1844852208233405
 31
0.0000000000000036
  0
LINE
  5
1D0E
  8
0
  6
VERDECKT
 62
     1
 10
70.0000000000007674
 20
-18.8745860881761587
 30
-0.0000000000000284
 11
70.0000000000007674
 21
0.0000000000000036
 31
-0.0000000000000284
  0
LINE
  5
1D0F
  8
0
  6
VERDECKT
 62
     1
 10
70.0000000000007674
 20
0.0000000000000023
 30
-0.0000000000000284
 11
70.0000000000007674
 21
18.8745860881781908
 31
-0.0000000000000284
  0
LINE
  5
1D10
  8
0
  6
VERDECKT
 62
     1
 10
-51.3458710382766697
 20
-51.1844852208212728
 30
0.0
 11
-34.9999999999992397
 21
-60.6217782649096506
 31
-0.0000000000000036
  0
LINE
  5
1D11
  8
0
  6
VERDECKT
 62
     1
 10
-34.9999999999992397
 20
-60.6217782649096506
 30
0.0
 11
-18.6541289617215718
 21
-70.0590713089981705
 31
-0.0000000000000036
  0
LINE
  5
1D12
  8
0
  6
VERDECKT
 62
     1
 10
-69.9999999999992326
 20
18.8745860881777716
 30
0.0000000000000284
 11
-69.9999999999992326
 21
0.0000000000000036
 31
0.0000000000000284
  0
LINE
  5
1D13
  8
0
  6
VERDECKT
 62
     1
 10
-69.9999999999992326
 20
0.0000000000000023
 30
0.0000000000000284
 11
-69.9999999999992326
 21
-18.8745860881757004
 31
0.0000000000000284
  0
CIRCLE
  5
1D14
  8
0
  6
VERDECKT
 62
     1
 10
0.0000000000000932
 20
-0.0000000000000115
 30
0.0
 40
60.3296706598122228
  0
CIRCLE
  5
1D15
  8
0
  6
VERDECKT
 62
     1
 10
0.000000000000092
 20
-0.0000000000000112
 30
0.0
 40
63.1703293401876635
  0
CIRCLE
  5
1D16
  8
0
  6
VERDECKT
 62
     1
 10
0.0000000000000924
 20
-0.0000000000000113
 30
0.0
 40
63.6793245563805073
  0
CIRCLE
  5
1D17
  8
0
  6
VERDECKT
 62
     1
 10
0.0000000000000973
 20
-0.0000000000000126
 30
0.0
 40
51.0
  0
CIRCLE
  5
1D18
  8
0
  6
VERDECKT
 62
     1
 10
0.0000000000000965
 20
-0.0000000000000124
 30
0.0
 40
52.2661935401615665
  0
CIRCLE
  5
1D19
  8
0
  6
VERDECKT
 62
     1
 10
0.0000000000000976
 20
-0.0000000000000127
 30
0.0
 40
54.5272966604436604
  0
CIRCLE
  5
1D1A
  8
0
  6
VERDECKT
 62
     1
 10
0.000000000000097
 20
-0.0000000000000126
 30
0.0
 40
53.2088316273708415
  0
CIRCLE
  5
1D1B
  8
0
  6
VERDECKT
 62
     1
 10
0.0000000000000973
 20
-0.0000000000000126
 30
0.0
 40
54.7602582506926083
  0
ARC
  5
1D1C
  8
0
  6
VERDECKT
 62
     1
 10
-0.000000000021942
 20
-0.0000000000379174
 30
0.0
 40
48.3799396802754629
 50
58.2232833446775118
 51
61.7767166553222395
  0
ARC
  5
1D1D
  8
0
  6
VERDECKT
 62
     1
 10
-0.0000000000250115
 20
0.0000000000434397
 30
0.0
 40
48.3799396802818222
 50
298.2232833446777818
 51
301.7767166553221045
  0
CIRCLE
  5
1D1E
  8
0
  6
VERDECKT
 62
     1
 10
-0.0000000000000004
 20
-0.000000000000017
 30
0.0
 40
50.38757935531833
  0
ARC
  5
1D1F
  8
0
  6
VERDECKT
 62
     1
 10
-0.000000000014341
 20
-0.0000000000248177
 30
0.0
 40
49.0000000000286207
 50
58.2457735094162032
 51
61.7542264905837328
  0
ARC
  5
1D20
  8
0
  6
VERDECKT
 62
     1
 10
0.0000000000213567
 20
-0.0000000000368472
 30
0.0
 40
48.9999999999574385
 50
298.2457735094135955
 51
301.7542264905864045
  0
CIRCLE
  5
1D21
  8
0
  6
VERDECKT
 62
     1
 10
-0.0000000000000213
 20
-0.0000000000000113
 30
0.0
 40
59.9883512059686907
  0
CIRCLE
  5
1D22
  8
0
  6
VERDECKT
 62
     1
 10
-0.0000000000000211
 20
-0.0000000000000114
 30
0.0
 40
61.7499999999990266
  0
CIRCLE
  5
1D23
  8
0
  6
VERDECKT
 62
     1
 10
-0.0000000000000164
 20
-0.0000000000000126
 30
0.0
 40
51.0
  0
CIRCLE
  5
1D24
  8
0
  6
VERDECKT
 62
     1
 10
-0.0000000000000106
 20
-0.0000000000000143
 30
0.0
 40
66.5
  0
CIRCLE
  5
1D25
  8
0
  6
VERDECKT
 62
     1
 10
-0.0000000000000167
 20
-0.0000000000000126
 30
0.0
 40
53.2088316273708415
  0
CIRCLE
  5
1D26
  8
0
  6
VERDECKT
 62
     1
 10
-0.0000000000000164
 20
-0.0000000000000126
 30
0.0
 40
51.0026612228659815
  0
CIRCLE
  5
1D27
  8
0
  6
VERDECKT
 62
     1
 10
-0.0000000000000105
 20
-0.0000000000000143
 30
0.0
 40
64.0
  0
LINE
  5
1D28
  8
0
  6
VERDECKT
 62
     1
 10
35.299038105676658
 20
-58.139727457341678
 30
-0.0000000000000142
 11
32.7009618943233988
 21
-59.6397274573416709
 31
-0.0000000000000136
  0
LINE
  5
1D29
  8
0
  6
VERDECKT
 62
     1
 10
36.2990381056771128
 20
-59.8717782649105175
 30
0.0
 11
33.7009618943238465
 21
-61.3717782649105104
 31
0.0000000000000006
  0
LINE
  5
1D2A
  8
0
  6
VERDECKT
 62
     1
 10
33.7009618943232923
 20
-61.3717782649105317
 30
0.0
 11
33.6929252573586098
 21
-61.3578584013657675
 31
0.0
  0
LINE
  5
1D2B
  8
0
  6
VERDECKT
 62
     1
 10
36.2910014687119826
 20
-59.857858401365732
 30
0.0
 11
36.299038105676658
 21
-59.8717782649105317
 31
0.0
  0
LINE
  5
1D2C
  8
0
  6
VERDECKT
 62
     1
 10
35.299038105676658
 20
58.139727457341678
 30
-0.0000000000000142
 11
32.7009618943233988
 21
59.6397274573416709
 31
-0.0000000000000136
  0
LINE
  5
1D2D
  8
0
  6
VERDECKT
 62
     1
 10
36.2990381056771128
 20
59.8717782649105175
 30
0.0
 11
33.7009618943238465
 21
61.3717782649105104
 31
0.0000000000000006
  0
LINE
  5
1D2E
  8
0
  6
VERDECKT
 62
     1
 10
33.7009618943232923
 20
61.3717782649105317
 30
0.0
 11
33.6929252573586098
 21
61.3578584013657675
 31
0.0
  0
LINE
  5
1D2F
  8
0
  6
VERDECKT
 62
     1
 10
36.2910014687119826
 20
59.857858401365732
 30
0.0
 11
36.299038105676658
 21
59.8717782649105317
 31
0.0
  0
ENDBLK
  5
1D31
  8
0
  0
BLOCK
  8
0
  2
A$C27F52DE6
 70
     0
 10
0.0
 20
0.0
 30
0.0
  3
A$C27F52DE6
  1

  0
LINE
  5
1D35
  8
0
  6
CONTINUOUS
 62
     3
 10
70.0000000000007958
 20
122.999999999999801
 30
-0.0000000000000273
 11
70.0000000000007958
 21
129.9999999999998863
 31
-0.0000000000000289
210
0.0
220
1.0
230
-0.0000000000000002
  0
LINE
  5
1D36
  8
0
  6
CONTINUOUS
 62
     3
 10
70.0000000000003411
 20
122.999999999999801
 30
-0.0000000000000273
 11
72.5000000000001137
 21
122.999999999999801
 31
-0.0000000000000273
210
0.0
220
1.0
230
-0.0000000000000002
  0
LINE
  5
1D37
  8
0
  6
CONTINUOUS
 62
     3
 10
72.5000000000000853
 20
129.9999999999998863
 30
-0.0000000000000289
 11
70.0000000000003268
 21
129.9999999999998863
 31
-0.0000000000000289
210
0.0
220
1.0
230
-0.0000000000000002
  0
LINE
  5
1D38
  8
0
  6
CONTINUOUS
 62
     3
 10
-51.3458710382808476
 20
122.9999999999999005
 30
-0.0000000000000273
 11
-51.3458710382808476
 21
129.9999999999998863
 31
-0.0000000000000289
210
0.0
220
1.0
230
-0.0000000000000002
  0
LINE
  5
1D39
  8
0
  6
CONTINUOUS
 62
     3
 10
-18.6541289617175607
 20
129.9999999999998863
 30
-0.0000000000000289
 11
-18.6541289617175607
 21
122.9999999999999005
 31
-0.0000000000000273
210
0.0
220
1.0
230
-0.0000000000000002
  0
LINE
  5
1D3A
  8
0
  6
CONTINUOUS
 62
     3
 10
-51.3458710382775507
 20
122.9999999999999005
 30
-0.0000000000000273
 11
-18.6541289617218808
 21
122.9999999999999005
 31
-0.0000000000000273
210
0.0
220
1.0
230
-0.0000000000000002
  0
LINE
  5
1D3B
  8
0
  6
CONTINUOUS
 62
     3
 10
-18.6541289617218702
 20
129.9999999999998863
 30
-0.0000000000000289
 11
-51.3458710382775507
 21
129.9999999999998863
 31
-0.0000000000000289
210
0.0
220
1.0
230
-0.0000000000000002
  0
LINE
  5
1D3C
  8
0
  6
CONTINUOUS
 62
     3
 10
-69.9999999999992042
 20
129.9999999999998863
 30
-0.0000000000000289
 11
-69.9999999999992042
 21
122.999999999999801
 31
-0.0000000000000273
210
0.0
220
1.0
230
-0.0000000000000002
  0
LINE
  5
1D3D
  8
0
  6
CONTINUOUS
 62
     3
 10
-72.4999999999998863
 20
122.999999999999801
 30
-0.0000000000000273
 11
-70.0000000000001137
 21
122.999999999999801
 31
-0.0000000000000273
210
0.0
220
1.0
230
-0.0000000000000002
  0
LINE
  5
1D3E
  8
0
  6
CONTINUOUS
 62
     3
 10
-70.0000000000001279
 20
129.9999999999998863
 30
-0.0000000000000289
 11
-72.4999999999998863
 21
129.9999999999998863
 31
-0.0000000000000289
210
0.0
220
1.0
230
-0.0000000000000002
  0
LINE
  5
1D3F
  8
0
  6
CONTINUOUS
 62
     3
 10
-72.4999999999998863
 20
139.9999999999998863
 30
-0.0000000000000311
 11
72.5000000000001137
 21
139.9999999999998863
 31
-0.0000000000000311
210
0.0
220
1.0
230
-0.0000000000000002
  0
ARC
  5
1D40
  8
0
  6
CONTINUOUS
 62
     3
 10
64.5000000000001705
 20
117.0137684906560054
 30
0.0
 40
7.9999999999998339
210
0.0
220
-0.0000000000000002
230
-1.0
 50
331.7419703852917792
 51
359.9999999999997158
  0
ARC
  5
1D41
  8
0
  6
CONTINUOUS
 62
     3
 10
-64.5000000000001847
 20
117.0137684906560054
 30
0.0
 40
7.9999999999998153
210
0.0
220
-0.0000000000000002
230
-1.0
 50
180.000000000000199
 51
208.2580296147081924
  0
LINE
  5
1D42
  8
0
  6
CONTINUOUS
 62
     3
 10
-63.1703293401875499
 20
97.6424731910467756
 30
-0.0000000000000217
 11
-71.5465951761251517
 21
113.2262235834887036
 31
-0.0000000000000251
210
0.0
220
1.0
230
-0.0000000000000002
  0
LINE
  5
1D43
  8
0
  6
CONTINUOUS
 62
     3
 10
63.1703293401876635
 20
97.6424731910469745
 30
-0.0000000000000217
 11
71.5465951761251517
 21
113.2262235834887036
 31
-0.0000000000000251
210
0.0
220
1.0
230
-0.0000000000000002
  0
LINE
  5
1D44
  8
0
  6
CONTINUOUS
 62
     3
 10
72.5000000000001137
 20
139.9999999999998863
 30
-0.0000000000000311
 11
72.5000000000001137
 21
129.9999999999998863
 31
-0.0000000000000289
210
0.0
220
1.0
230
-0.0000000000000002
  0
LINE
  5
1D45
  8
0
  6
CONTINUOUS
 62
     3
 10
72.5000000000001137
 20
122.999999999999801
 30
-0.0000000000000273
 11
72.5000000000001137
 21
117.0137684906560054
 31
-0.000000000000026
210
0.0
220
1.0
230
-0.0000000000000002
  0
LINE
  5
1D46
  8
0
  6
CONTINUOUS
 62
     3
 10
-72.4999999999998863
 20
139.9999999999998863
 30
-0.0000000000000311
 11
-72.4999999999998863
 21
129.9999999999998863
 31
-0.0000000000000289
210
0.0
220
1.0
230
-0.0000000000000002
  0
LINE
  5
1D47
  8
0
  6
CONTINUOUS
 62
     3
 10
-72.4999999999998863
 20
122.999999999999801
 30
-0.0000000000000273
 11
-72.4999999999998863
 21
117.0137684906560054
 31
-0.000000000000026
210
0.0
220
1.0
230
-0.0000000000000002
  0
LINE
  5
1D48
  8
0
  6
CONTINUOUS
 62
     3
 10
-60.329670659812102
 20
92.357526808952926
 30
-0.0000000000000205
 11
60.3296706598123365
 21
92.357526808952926
 31
-0.0000000000000205
210
0.0
220
1.0
230
-0.0000000000000002
  0
LINE
  5
1D49
  8
0
  6
CONTINUOUS
 62
     3
 10
-63.1703293401875428
 20
97.6424731910467756
 30
-0.0000000000000217
 11
63.1703293401877772
 21
97.6424731910467756
 31
-0.0000000000000217
210
0.0
220
1.0
230
-0.0000000000000002
  0
ARC
  5
1D4A
  8
0
  6
CONTINUOUS
 62
     3
 10
60.2030709606336671
 20
95.8314743586591646
 30
0.0
 40
3.4762535957467131
210
0.0
220
-0.0000000000000002
230
-1.0
 50
272.0870838750727785
 51
31.3968568955134408
  0
ARC
  5
1D4B
  8
0
  6
CONTINUOUS
 62
     3
 10
-60.2030709606339016
 20
95.8314743586591646
 30
0.0
 40
3.4762535957467171
210
0.0
220
-0.0000000000000002
230
-1.0
 50
148.6031431044866054
 51
267.9129161249272215
  0
LINE
  5
1D4C
  8
0
  6
CONTINUOUS
 62
     3
 10
-52.2661935401614528
 20
77.3557089119285166
 30
-0.0000000000000172
 11
52.2661935401616802
 21
77.3557089119285166
 31
-0.0000000000000172
210
0.0
220
1.0
230
-0.0000000000000002
  0
LINE
  5
1D4D
  8
0
  6
CONTINUOUS
 62
     3
 10
-54.5272966604435396
 20
72.5120796990274243
 30
-0.0000000000000161
 11
54.5272966604437599
 21
72.5120796990274243
 31
-0.0000000000000161
210
0.0
220
1.0
230
-0.0000000000000002
  0
ARC
  5
1D4E
  8
0
  6
CONTINUOUS
 62
     3
 10
51.0000000000000995
 20
73.8150456928756284
 30
0.0
 40
3.7602582506923961
210
0.0
220
-0.0000000000000002
230
-1.0
 50
339.7260186864176035
 51
70.3221984681006802
  0
ARC
  5
1D4F
  8
0
  6
CONTINUOUS
 62
     3
 10
-51.0000000000003268
 20
73.8150456928756427
 30
0.0
 40
3.7602582506923912
210
0.0
220
-0.0000000000000002
230
-1.0
 50
109.6778015318994051
 51
200.2739813135825955
  0
LINE
  5
1D50
  8
0
  6
CONTINUOUS
 62
     3
 10
-52.2661935401614883
 20
77.3557089119285024
 30
-0.0000000000000172
 11
-60.3296706598111712
 21
92.3575268089528834
 31
-0.0000000000000205
210
0.0
220
1.0
230
-0.0000000000000002
  0
LINE
  5
1D51
  8
0
  6
CONTINUOUS
 62
     3
 10
52.2661935401615168
 20
77.3557089119285735
 30
-0.0000000000000172
 11
60.3296706598111712
 21
92.3575268089528834
 31
-0.0000000000000205
210
0.0
220
1.0
230
-0.0000000000000002
  0
LINE
  5
1D52
  8
0
  6
CONTINUOUS
 62
     3
 10
-66.5
 20
0.0
 30
0.0
 11
66.5
 21
0.0
 31
0.0
210
0.0
220
1.0
230
-0.0000000000000002
  0
LINE
  5
1D53
  8
0
  6
CONTINUOUS
 62
     3
 10
-66.5
 20
0.0
 30
0.0
 11
-66.5
 21
47.5487828927858516
 31
-0.0000000000000106
210
0.0
220
1.0
230
-0.0000000000000002
  0
LINE
  5
1D54
  8
0
  6
CONTINUOUS
 62
     3
 10
66.5
 20
0.0
 30
0.0
 11
66.5
 21
47.5487828927858516
 31
-0.0000000000000106
210
0.0
220
1.0
230
-0.0000000000000002
  0
ARC
  5
1D55
  8
0
  6
CONTINUOUS
 62
     3
 10
-56.4999999999999289
 20
47.5487828927858232
 30
0.0
 40
10.0000000000000693
210
0.0
220
-0.0000000000000002
230
-1.0
 50
151.9445179055809092
 51
179.999999999999801
  0
ARC
  5
1D56
  8
0
  6
CONTINUOUS
 62
     3
 10
56.4999999999999289
 20
47.5487828927858232
 30
0.0
 40
10.0000000000000693
210
0.0
220
-0.0000000000000002
230
-1.0
 50
0.0000000000002036
 51
28.0554820944190908
  0
LINE
  5
1D57
  8
0
  6
CONTINUOUS
 62
     3
 10
54.5272966604436604
 20
72.5120796990271543
 30
-0.0000000000000161
 11
65.3249256841794761
 21
52.2520462990505621
 31
-0.0000000000000116
210
0.0
220
1.0
230
-0.0000000000000002
  0
LINE
  5
1D58
  8
0
  6
CONTINUOUS
 62
     3
 10
-54.5272966604435112
 20
72.5120796990274243
 30
-0.0000000000000161
 11
-65.3249256841794761
 21
52.2520462990505621
 31
-0.0000000000000116
210
0.0
220
1.0
230
-0.0000000000000002
  0
LINE
  5
1D59
  8
0
  6
VERDECKT
 62
     1
 10
-59.5479390074607409
 20
96.1836077834897054
 30
-0.0000000000000214
 11
59.5479390074607409
 21
96.1836077834897054
 31
-0.0000000000000214
210
0.0
220
1.0
230
-0.0000000000000002
  0
LINE
  5
1D5A
  8
0
  6
VERDECKT
 62
     1
 10
-61.7499999999998934
 20
94.9999999999999574
 30
-0.0000000000000211
 11
61.7499999999998934
 21
94.9999999999999574
 31
-0.0000000000000211
210
0.0
220
1.0
230
-0.0000000000000002
  0
LINE
  5
1D5B
  8
0
  6
VERDECKT
 62
     1
 10
-67.5
 20
122.9999999999999005
 30
-0.0000000000000273
 11
-67.5
 21
130.0
 31
-0.0000000000000289
210
0.0
220
1.0
230
-0.0000000000000002
  0
LINE
  5
1D5C
  8
0
  6
VERDECKT
 62
     1
 10
-67.4999999999997868
 20
122.9999999999999005
 30
-0.0000000000000273
 11
-69.9999999999998863
 21
122.9999999999999005
 31
-0.0000000000000273
210
0.0
220
1.0
230
-0.0000000000000002
  0
LINE
  5
1D5D
  8
0
  6
VERDECKT
 62
     1
 10
-69.9999999999998863
 20
130.0
 30
-0.0000000000000289
 11
-67.4999999999997726
 21
130.0
 31
-0.0000000000000289
210
0.0
220
1.0
230
-0.0000000000000002
  0
LINE
  5
1D5E
  8
0
  6
VERDECKT
 62
     1
 10
-17.6934592766692695
 20
123.0
 30
-0.0000000000000273
 11
-17.6934592766692695
 21
130.0
 31
-0.0000000000000289
210
0.0
220
1.0
230
-0.0000000000000002
  0
LINE
  5
1D5F
  8
0
  6
VERDECKT
 62
     1
 10
-49.8065407233304995
 20
130.0
 30
-0.0000000000000289
 11
-49.8065407233304995
 21
123.0
 31
-0.0000000000000273
210
0.0
220
1.0
230
-0.0000000000000002
  0
LINE
  5
1D60
  8
0
  6
VERDECKT
 62
     1
 10
-17.6934592766683707
 20
123.0
 30
-0.0000000000000273
 11
-18.6541289617215398
 21
123.0
 31
-0.0000000000000273
210
0.0
220
1.0
230
-0.0000000000000002
  0
LINE
  5
1D61
  8
0
  6
VERDECKT
 62
     1
 10
-18.6541289617215398
 20
130.0
 30
-0.0000000000000289
 11
-17.69345927666836
 21
130.0
 31
-0.0000000000000289
210
0.0
220
1.0
230
-0.0000000000000002
  0
LINE
  5
1D62
  8
0
  6
VERDECKT
 62
     1
 10
67.5000000000001137
 20
130.0
 30
-0.0000000000000289
 11
67.5000000000001137
 21
122.9999999999999005
 31
-0.0000000000000273
210
0.0
220
1.0
230
-0.0000000000000002
  0
LINE
  5
1D63
  8
0
  6
VERDECKT
 62
     1
 10
70.0000000000001137
 20
122.9999999999999005
 30
-0.0000000000000273
 11
67.5000000000002274
 21
122.9999999999999005
 31
-0.0000000000000273
210
0.0
220
1.0
230
-0.0000000000000002
  0
LINE
  5
1D64
  8
0
  6
VERDECKT
 62
     1
 10
67.5000000000002274
 20
130.0
 30
-0.0000000000000289
 11
70.0000000000001137
 21
130.0
 31
-0.0000000000000289
210
0.0
220
1.0
230
-0.0000000000000002
  0
LINE
  5
1D65
  8
0
  6
VERDECKT
 62
     1
 10
-59.5479390074607409
 20
96.1836077834897054
 30
-0.0000000000000214
 11
-69.2849463820939491
 21
114.298970340946596
 31
-0.0000000000000254
210
0.0
220
1.0
230
-0.0000000000000002
  0
LINE
  5
1D66
  8
0
  6
VERDECKT
 62
     1
 10
59.5479390074607409
 20
96.1836077834897054
 30
-0.0000000000000214
 11
69.2849463820939491
 21
114.298970340946596
 31
-0.0000000000000254
210
0.0
220
1.0
230
-0.0000000000000002
  0
ARC
  5
1D67
  8
0
  6
VERDECKT
 62
     1
 10
63.9999999999990266
 20
117.1396290213221931
 30
0.0
 40
6.0000000000009601
210
0.0
220
-0.0000000000000002
230
-1.0
 50
331.7419703852963835
 51
359.999999999998181
  0
ARC
  5
1D68
  8
0
  6
VERDECKT
 62
     1
 10
-63.9999999999990266
 20
117.1396290213221931
 30
0.0
 40
6.0000000000009663
210
0.0
220
-0.0000000000000002
230
-1.0
 50
180.0000000000015916
 51
208.2580296147035028
  0
LINE
  5
1D69
  8
0
  6
VERDECKT
 62
     1
 10
-61.7499999999998934
 20
94.9999999999999574
 30
-0.0000000000000211
 11
-63.1703293401875499
 21
97.6424731910467756
 31
-0.0000000000000217
210
0.0
220
1.0
230
-0.0000000000000002
  0
LINE
  5
1D6A
  8
0
  6
VERDECKT
 62
     1
 10
61.7499999999998934
 20
94.9999999999999574
 30
-0.0000000000000211
 11
63.1703293401876635
 21
97.6424731910469745
 31
-0.0000000000000217
210
0.0
220
1.0
230
-0.0000000000000002
  0
LINE
  5
1D6B
  8
0
  6
VERDECKT
 62
     1
 10
59.5479390074607409
 20
96.1836077834897054
 30
-0.0000000000000214
 11
61.7499999999998934
 21
94.9999999999999574
 31
-0.0000000000000211
210
0.0
220
1.0
230
-0.0000000000000002
  0
LINE
  5
1D6C
  8
0
  6
VERDECKT
 62
     1
 10
-59.5479390074607409
 20
96.1836077834897054
 30
-0.0000000000000214
 11
-61.7499999999998934
 21
94.9999999999999574
 31
-0.0000000000000211
210
0.0
220
1.0
230
-0.0000000000000002
  0
LINE
  5
1D6D
  8
0
  6
VERDECKT
 62
     1
 10
70.0000000000001137
 20
140.0
 30
-0.0000000000000311
 11
70.0000000000001137
 21
130.0
 31
-0.0000000000000289
210
0.0
220
1.0
230
-0.0000000000000002
  0
LINE
  5
1D6E
  8
0
  6
VERDECKT
 62
     1
 10
70.0000000000001137
 20
122.9999999999999005
 30
-0.0000000000000273
 11
70.0000000000001137
 21
117.1396290213219942
 31
-0.000000000000026
210
0.0
220
1.0
230
-0.0000000000000002
  0
LINE
  5
1D6F
  8
0
  6
VERDECKT
 62
     1
 10
-69.9999999999998863
 20
140.0
 30
-0.0000000000000311
 11
-69.9999999999998863
 21
130.0
 31
-0.0000000000000289
210
0.0
220
1.0
230
-0.0000000000000002
  0
LINE
  5
1D70
  8
0
  6
VERDECKT
 62
     1
 10
-69.9999999999998863
 20
122.9999999999999005
 30
-0.0000000000000273
 11
-69.9999999999998863
 21
117.1396290213219942
 31
-0.000000000000026
210
0.0
220
1.0
230
-0.0000000000000002
  0
LINE
  5
1D71
  8
0
  6
VERDECKT
 62
     1
 10
-60.3296706598119599
 20
92.357526808952997
 30
-0.0000000000000205
 11
-63.170329340187493
 21
97.642473191046804
 31
-0.0000000000000217
210
0.0
220
1.0
230
-0.0000000000000002
  0
LINE
  5
1D72
  8
0
  6
VERDECKT
 62
     1
 10
60.3296706598121872
 20
92.357526808952997
 30
-0.0000000000000205
 11
63.1703293401877204
 21
97.642473191046804
 31
-0.0000000000000217
210
0.0
220
1.0
230
-0.0000000000000002
  0
LINE
  5
1D73
  8
0
  6
VERDECKT
 62
     1
 10
-53.2088316273707207
 20
74.9859696194935879
 30
-0.0000000000000167
 11
53.2088316273709623
 21
74.9859696194935879
 31
-0.0000000000000167
210
0.0
220
1.0
230
-0.0000000000000002
  0
LINE
  5
1D74
  8
0
  6
VERDECKT
 62
     1
 10
-50.9999999999998792
 20
73.815045692875529
 30
-0.0000000000000164
 11
51.0000000000001208
 21
73.815045692875529
 31
-0.0000000000000164
210
0.0
220
1.0
230
-0.0000000000000002
  0
ARC
  5
1D75
  8
0
  6
VERDECKT
 62
     1
 10
55.0000000000003411
 20
73.9931157546717913
 30
0.0
 40
4.0000000000004521
210
0.0
220
-0.0000000000000002
230
-1.0
 50
151.7419703852957866
 51
179.9999999999996021
  0
ARC
  5
1D76
  8
0
  6
VERDECKT
 62
     1
 10
-55.0000000000005613
 20
73.9931157546717913
 30
0.0
 40
4.0000000000004539
210
0.0
220
-0.0000000000000002
230
-1.0
 50
0.0000000000004071
 51
28.258029614704121
  0
LINE
  5
1D77
  8
0
  6
VERDECKT
 62
     1
 10
-51.4767024119372607
 20
75.8868882082554848
 30
-0.0000000000000169
 11
-52.2661935401614528
 21
77.3557089119285166
 31
-0.0000000000000172
210
0.0
220
1.0
230
-0.0000000000000002
  0
LINE
  5
1D78
  8
0
  6
VERDECKT
 62
     1
 10
51.476702411937481
 20
75.8868882082554848
 30
-0.0000000000000169
 11
52.2661935401616802
 21
77.3557089119285166
 31
-0.0000000000000172
210
0.0
220
1.0
230
-0.0000000000000002
  0
LINE
  5
1D79
  8
0
  6
VERDECKT
 62
     1
 10
53.2088316273709978
 20
74.9859696194936163
 30
-0.0000000000000167
 11
54.5272966604438096
 21
72.512079699027467
 31
-0.0000000000000161
210
0.0
220
1.0
230
-0.0000000000000002
  0
LINE
  5
1D7A
  8
0
  6
VERDECKT
 62
     1
 10
-53.2088316273707704
 20
74.9859696194936163
 30
-0.0000000000000167
 11
-54.5272966604435823
 21
72.512079699027467
 31
-0.0000000000000161
210
0.0
220
1.0
230
-0.0000000000000002
  0
LINE
  5
1D7B
  8
0
  6
VERDECKT
 62
     1
 10
-50.9999999999998792
 20
73.815045692875529
 30
-0.0000000000000164
 11
-53.2088316273707207
 21
74.9859696194935879
 31
-0.0000000000000167
210
0.0
220
1.0
230
-0.0000000000000002
  0
LINE
  5
1D7C
  8
0
  6
VERDECKT
 62
     1
 10
51.0000000000001208
 20
73.815045692875529
 30
-0.0000000000000164
 11
53.2088316273709623
 21
74.9859696194935879
 31
-0.0000000000000167
210
0.0
220
1.0
230
-0.0000000000000002
  0
LINE
  5
1D7D
  8
0
  6
VERDECKT
 62
     1
 10
51.0000000000001208
 20
73.9931157546718197
 30
-0.0000000000000164
 11
51.0000000000001208
 21
73.815045692875529
 31
-0.0000000000000164
210
0.0
220
1.0
230
-0.0000000000000002
  0
LINE
  5
1D7E
  8
0
  6
VERDECKT
 62
     1
 10
-50.9999999999998792
 20
73.9931157546718197
 30
-0.0000000000000164
 11
-50.9999999999998792
 21
73.815045692875529
 31
-0.0000000000000164
210
0.0
220
1.0
230
-0.0000000000000002
  0
LINE
  5
1D7F
  8
0
  6
VERDECKT
 62
     1
 10
-50.3875793553183868
 20
1.9999999999999709
 30
-0.0000000000000004
 11
50.3875793553183868
 21
1.9999999999999709
 31
-0.0000000000000004
210
0.0
220
1.0
230
-0.0000000000000002
  0
LINE
  5
1D80
  8
0
  6
VERDECKT
 62
     1
 10
-59.9883512059686765
 20
95.9468862267917331
 30
-0.0000000000000213
 11
59.9883512059686765
 21
95.9468862267917331
 31
-0.0000000000000213
210
0.0
220
1.0
230
-0.0000000000000002
  0
LINE
  5
1D81
  8
0
  6
VERDECKT
 62
     1
 10
-61.7499999999990905
 20
95.0000000000003979
 30
-0.0000000000000211
 11
61.7499999999990905
 21
95.0000000000003979
 31
-0.0000000000000211
210
0.0
220
1.0
230
-0.0000000000000002
  0
LINE
  5
1D82
  8
0
  6
VERDECKT
 62
     1
 10
-48.3799396802317005
 20
1.999999999999972
 30
-0.0000000000000004
 11
-49.0
 21
9.0873218858169498
 31
-0.000000000000002
210
0.0
220
1.0
230
-0.0000000000000002
  0
LINE
  5
1D83
  8
0
  6
VERDECKT
 62
     1
 10
48.3799396802317005
 20
1.999999999999972
 30
-0.0000000000000004
 11
49.0
 21
9.0873218858169498
 31
-0.000000000000002
210
0.0
220
1.0
230
-0.0000000000000002
  0
LINE
  5
1D84
  8
0
  6
VERDECKT
 62
     1
 10
-50.3875793553183726
 20
1.9999999999999689
 30
-0.0000000000000004
 11
-51.0000000000000284
 21
8.9999999999999432
 31
-0.000000000000002
210
0.0
220
1.0
230
-0.0000000000000002
  0
LINE
  5
1D85
  8
0
  6
VERDECKT
 62
     1
 10
50.3875793553183726
 20
1.9999999999999689
 30
-0.0000000000000004
 11
51.0000000000000284
 21
8.9999999999999432
 31
-0.000000000000002
210
0.0
220
1.0
230
-0.0000000000000002
  0
LINE
  5
1D86
  8
0
  6
VERDECKT
 62
     1
 10
49.0
 20
73.9931157546719334
 30
-0.0000000000000164
 11
49.0
 21
9.0873218858169498
 31
-0.000000000000002
210
0.0
220
1.0
230
-0.0000000000000002
  0
LINE
  5
1D87
  8
0
  6
VERDECKT
 62
     1
 10
-49.0
 20
73.9931157546719334
 30
-0.0000000000000164
 11
-49.0
 21
9.0873218858169498
 31
-0.000000000000002
210
0.0
220
1.0
230
-0.0000000000000002
  0
ARC
  5
1D88
  8
0
  6
VERDECKT
 62
     1
 10
54.9999999999989768
 20
73.993115754672246
 30
0.0
 40
5.9999999999989786
210
0.0
220
-0.0000000000000002
230
-1.0
 50
151.7419703852916086
 51
180.000000000002899
  0
ARC
  5
1D89
  8
0
  6
VERDECKT
 62
     1
 10
-54.9999999999989768
 20
73.993115754672246
 30
0.0
 40
5.999999999998975
210
0.0
220
-0.0000000000000002
230
-1.0
 50
359.9999999999969873
 51
28.2580296147083985
  0
LINE
  5
1D8A
  8
0
  6
VERDECKT
 62
     1
 10
-49.7150536179060509
 20
76.8337744350473741
 30
-0.0000000000000171
 11
-59.9883512059686907
 21
95.9468862267917331
 31
-0.0000000000000213
210
0.0
220
1.0
230
-0.0000000000000002
  0
LINE
  5
1D8B
  8
0
  6
VERDECKT
 62
     1
 10
49.7150536179060509
 20
76.8337744350473741
 30
-0.0000000000000171
 11
59.9883512059686907
 21
95.9468862267917331
 31
-0.0000000000000213
210
0.0
220
1.0
230
-0.0000000000000002
  0
LINE
  5
1D8C
  8
0
  6
VERDECKT
 62
     1
 10
59.9883512059686907
 20
95.9468862267917473
 30
-0.0000000000000213
 11
61.7499999999990408
 21
95.0000000000004263
 31
-0.0000000000000211
210
0.0
220
1.0
230
-0.0000000000000002
  0
LINE
  5
1D8D
  8
0
  6
VERDECKT
 62
     1
 10
-59.9883512059686907
 20
95.9468862267917473
 30
-0.0000000000000213
 11
-61.7499999999990408
 21
95.0000000000004263
 31
-0.0000000000000211
210
0.0
220
1.0
230
-0.0000000000000002
  0
LINE
  5
1D8E
  8
0
  6
VERDECKT
 62
     1
 10
-51.4767024119373673
 20
75.88688820825557
 30
-0.0000000000000169
 11
-52.2661935401614883
 21
77.3557089119285024
 31
-0.0000000000000172
210
0.0
220
1.0
230
-0.0000000000000002
  0
LINE
  5
1D8F
  8
0
  6
VERDECKT
 62
     1
 10
-60.3296706598111712
 20
92.3575268089528834
 30
-0.0000000000000205
 11
-61.7499999999990479
 21
95.0000000000003979
 31
-0.0000000000000211
210
0.0
220
1.0
230
-0.0000000000000002
  0
LINE
  5
1D90
  8
0
  6
VERDECKT
 62
     1
 10
51.4767024119373673
 20
75.88688820825557
 30
-0.0000000000000169
 11
52.2661935401615168
 21
77.3557089119285735
 31
-0.0000000000000172
210
0.0
220
1.0
230
-0.0000000000000002
  0
LINE
  5
1D91
  8
0
  6
VERDECKT
 62
     1
 10
60.3296706598111712
 20
92.3575268089528834
 30
-0.0000000000000205
 11
61.7499999999990479
 21
95.0000000000003979
 31
-0.0000000000000211
210
0.0
220
1.0
230
-0.0000000000000002
  0
ARC
  5
1D92
  8
0
  6
VERDECKT
 62
     1
 10
55.0000000000005898
 20
73.9931157546718623
 30
0.0
 40
4.0000000000005906
210
0.0
220
-0.0000000000000002
230
-1.0
 50
151.7419703852964972
 51
179.9999999999990052
  0
ARC
  5
1D93
  8
0
  6
VERDECKT
 62
     1
 10
-55.0000000000006111
 20
73.9931157546718623
 30
0.0
 40
4.0000000000006111
210
0.0
220
-0.0000000000000002
230
-1.0
 50
0.0000000000010178
 51
28.2580296147031405
  0
LINE
  5
1D94
  8
0
  6
VERDECKT
 62
     1
 10
51.0
 20
73.9931157546719334
 30
-0.0000000000000164
 11
51.0
 21
8.9999999999999432
 31
-0.000000000000002
210
0.0
220
1.0
230
-0.0000000000000002
  0
LINE
  5
1D95
  8
0
  6
VERDECKT
 62
     1
 10
-51.0
 20
73.9931157546719334
 30
-0.0000000000000164
 11
-51.0
 21
8.9999999999999432
 31
-0.000000000000002
210
0.0
220
1.0
230
-0.0000000000000002
  0
LINE
  5
1D96
  8
0
  6
VERDECKT
 62
     1
 10
53.2088316273708415
 20
74.9859696194937015
 30
-0.0000000000000167
 11
-53.2088316273708415
 21
74.9859696194937015
 31
-0.0000000000000167
210
0.0
220
1.0
230
-0.0000000000000002
  0
LINE
  5
1D97
  8
0
  6
VERDECKT
 62
     1
 10
51.0026612228659815
 20
73.8100528978768722
 30
-0.0000000000000164
 11
-51.0026612228659815
 21
73.8100528978768722
 31
-0.0000000000000164
210
0.0
220
1.0
230
-0.0000000000000002
  0
LINE
  5
1D98
  8
0
  6
VERDECKT
 62
     1
 10
53.2088316273708202
 20
74.9859696194936873
 30
-0.0000000000000167
 11
54.5272966604436604
 21
72.5120796990271543
 31
-0.0000000000000161
210
0.0
220
1.0
230
-0.0000000000000002
  0
LINE
  5
1D99
  8
0
  6
VERDECKT
 62
     1
 10
-53.2088316273708202
 20
74.9859696194936873
 30
-0.0000000000000167
 11
-54.5272966604435112
 21
72.5120796990274243
 31
-0.0000000000000161
210
0.0
220
1.0
230
-0.0000000000000002
  0
LINE
  5
1D9A
  8
0
  6
VERDECKT
 62
     1
 10
-51.0026612228659886
 20
73.8100528978768438
 30
-0.0000000000000164
 11
-53.2088316273708628
 21
74.9859696194936731
 31
-0.0000000000000167
210
0.0
220
1.0
230
-0.0000000000000002
  0
LINE
  5
1D9B
  8
0
  6
VERDECKT
 62
     1
 10
51.0026612228659886
 20
73.8100528978768438
 30
-0.0000000000000164
 11
53.2088316273708628
 21
74.9859696194936731
 31
-0.0000000000000167
210
0.0
220
1.0
230
-0.0000000000000002
  0
LINE
  5
1D9C
  8
0
  6
VERDECKT
 62
     1
 10
51.0026612228660099
 20
73.8100528978768864
 30
-0.0000000000000164
 11
63.0597633731421965
 21
51.1893847510229989
 31
-0.0000000000000114
210
0.0
220
1.0
230
-0.0000000000000002
  0
LINE
  5
1D9D
  8
0
  6
VERDECKT
 62
     1
 10
-51.0026612228660099
 20
73.8100528978768864
 30
-0.0000000000000164
 11
-63.0597633731421965
 21
51.1893847510229989
 31
-0.0000000000000114
210
0.0
220
1.0
230
-0.0000000000000002
  0
ARC
  5
1D9E
  8
0
  6
VERDECKT
 62
     1
 10
-56.0000000000006324
 20
47.4264416056593703
 30
0.0
 40
7.9999999999993596
210
0.0
220
-0.0000000000000002
230
-1.0
 50
151.9418200751865129
 51
180.0000000000009948
  0
ARC
  5
1D9F
  8
0
  6
VERDECKT
 62
     1
 10
56.0000000000006182
 20
47.4264416056593703
 30
0.0
 40
7.9999999999993667
210
0.0
220
-0.0000000000000002
230
-1.0
 50
0.0
 51
28.0581799248144712
  0
LINE
  5
1DA0
  8
0
  6
VERDECKT
 62
     1
 10
-64.0
 20
0.0
 30
0.0
 11
-64.0
 21
47.4264416056592211
 31
-0.0000000000000105
210
0.0
220
1.0
230
-0.0000000000000002
  0
LINE
  5
1DA1
  8
0
  6
VERDECKT
 62
     1
 10
64.0
 20
0.0
 30
0.0
 11
64.0
 21
47.4264416056592211
 31
-0.0000000000000105
210
0.0
220
1.0
230
-0.0000000000000002
  0
LINE
  5
1DA2
  8
0
  6
VERDECKT
 62
     1
 10
30.2009618943235409
 20
130.0
 30
-0.0000000000000289
 11
23.2009618943235409
 21
125.0
 31
-0.0000000000000278
210
0.0
220
1.0
230
-0.0000000000000002
  0
LINE
  5
1DA3
  8
0
  6
VERDECKT
 62
     1
 10
25.7990381056769102
 20
125.0
 30
-0.0000000000000278
 11
32.7990381056769209
 21
130.0
 31
-0.0000000000000289
210
0.0
220
1.0
230
-0.0000000000000002
  0
LINE
  5
1DA4
  8
0
  6
VERDECKT
 62
     1
 10
25.7990381056769102
 20
125.0
 30
-0.0000000000000278
 11
23.2009618943236617
 21
125.0
 31
-0.0000000000000278
210
0.0
220
1.0
230
-0.0000000000000002
  0
LINE
  5
1DA5
  8
0
  6
VERDECKT
 62
     1
 10
23.2009618943235409
 20
125.0
 30
-0.0000000000000278
 11
19.7009618943235409
 21
125.0000000000000995
 31
-0.0000000000000278
210
0.0
220
1.0
230
-0.0000000000000002
  0
LINE
  5
1DA6
  8
0
  6
VERDECKT
 62
     1
 10
19.7009618943230791
 20
125.0000000000000995
 30
-0.0000000000000278
 11
19.7009618943230791
 21
117.8000000000001961
 31
-0.0000000000000262
210
0.0
220
1.0
230
-0.0000000000000002
  0
LINE
  5
1DA7
  8
0
  6
VERDECKT
 62
     1
 10
22.29903810567669
 20
117.8000000000001961
 30
-0.0000000000000262
 11
22.29903810567669
 21
125.0000000000000995
 31
-0.0000000000000278
210
0.0
220
1.0
230
-0.0000000000000002
  0
LINE
  5
1DA8
  8
0
  6
VERDECKT
 62
     1
 10
19.7009618943234308
 20
117.8000000000001961
 30
-0.0000000000000262
 11
23.2009618943235409
 21
117.8000000000001961
 31
-0.0000000000000262
210
0.0
220
1.0
230
-0.0000000000000002
  0
LINE
  5
1DA9
  8
0
  6
VERDECKT
 62
     1
 10
25.7990381056769102
 20
117.8000000000001961
 30
-0.0000000000000262
 11
23.2009618943236617
 21
117.8000000000001961
 31
-0.0000000000000262
210
0.0
220
1.0
230
-0.0000000000000002
  0
LINE
  5
1DAA
  8
0
  6
VERDECKT
 62
     1
 10
23.20096189432331
 20
117.8000000000001961
 30
-0.0000000000000262
 11
30.2009618943233207
 21
112.8000000000001961
 31
-0.000000000000025
210
0.0
220
1.0
230
-0.0000000000000002
  0
LINE
  5
1DAB
  8
0
  6
VERDECKT
 62
     1
 10
32.7990381056766935
 20
112.8000000000001961
 30
-0.000000000000025
 11
25.79903810567669
 21
117.8000000000001961
 31
-0.0000000000000262
210
0.0
220
1.0
230
-0.0000000000000002
  0
LINE
  5
1DAC
  8
0
  6
VERDECKT
 62
     1
 10
30.2009618943230898
 20
112.8000000000001961
 30
-0.000000000000025
 11
33.7009618943230933
 21
112.8000000000000966
 31
-0.000000000000025
210
0.0
220
1.0
230
-0.0000000000000002
  0
LINE
  5
1DAD
  8
0
  6
VERDECKT
 62
     1
 10
36.2990381056771412
 20
112.8000000000000966
 30
-0.000000000000025
 11
33.700961894323882
 21
112.8000000000000966
 31
-0.000000000000025
210
0.0
220
1.0
230
-0.0000000000000002
  0
LINE
  5
1DAE
  8
0
  6
VERDECKT
 62
     1
 10
33.7009618943230933
 20
112.8000000000000966
 30
-0.000000000000025
 11
33.7009618943230933
 21
115.3000000000000966
 31
-0.0000000000000256
210
0.0
220
1.0
230
-0.0000000000000002
  0
LINE
  5
1DAF
  8
0
  6
VERDECKT
 62
     1
 10
36.2990381056771412
 20
115.3000000000000966
 30
-0.0000000000000256
 11
36.2990381056771412
 21
112.8000000000000966
 31
-0.000000000000025
210
0.0
220
1.0
230
-0.0000000000000002
  0
LINE
  5
1DB0
  8
0
  6
VERDECKT
 62
     1
 10
36.2990381056771412
 20
115.3000000000000966
 30
-0.0000000000000256
 11
33.700961894323882
 21
115.3000000000000966
 31
-0.0000000000000256
210
0.0
220
1.0
230
-0.0000000000000002
  0
LINE
  5
1DB1
  8
0
  6
VERDECKT
 62
     1
 10
33.7009618943230933
 20
115.3000000000000966
 30
-0.0000000000000256
 11
32.7009618943230933
 21
116.4547005383793987
 31
-0.0000000000000259
210
0.0
220
1.0
230
-0.0000000000000002
  0
LINE
  5
1DB2
  8
0
  6
VERDECKT
 62
     1
 10
35.2990381056766935
 20
116.4547005383793987
 30
-0.0000000000000259
 11
36.2990381056766935
 21
115.3000000000000966
 31
-0.0000000000000256
210
0.0
220
1.0
230
-0.0000000000000002
  0
LINE
  5
1DB3
  8
0
  6
VERDECKT
 62
     1
 10
35.2990381056766935
 20
116.4547005383793987
 30
-0.0000000000000259
 11
32.7009618943234273
 21
116.4547005383793987
 31
-0.0000000000000259
210
0.0
220
1.0
230
-0.0000000000000002
  0
LINE
  5
1DB4
  8
0
  6
VERDECKT
 62
     1
 10
32.7009618943230933
 20
116.4547005383793987
 30
-0.0000000000000259
 11
32.7009618943230933
 21
126.3452994616207974
 31
-0.0000000000000281
210
0.0
220
1.0
230
-0.0000000000000002
  0
LINE
  5
1DB5
  8
0
  6
VERDECKT
 62
     1
 10
35.2990381056766935
 20
126.3452994616207974
 30
-0.0000000000000281
 11
35.2990381056766935
 21
116.4547005383793987
 31
-0.0000000000000259
210
0.0
220
1.0
230
-0.0000000000000002
  0
LINE
  5
1DB6
  8
0
  6
VERDECKT
 62
     1
 10
35.2990381056766935
 20
126.3452994616207974
 30
-0.0000000000000281
 11
32.7009618943234273
 21
126.3452994616207974
 31
-0.0000000000000281
210
0.0
220
1.0
230
-0.0000000000000002
  0
LINE
  5
1DB7
  8
0
  6
VERDECKT
 62
     1
 10
32.7009618943230933
 20
126.3452994616207974
 30
-0.0000000000000281
 11
33.7009618943230933
 21
127.5000000000000995
 31
-0.0000000000000283
210
0.0
220
1.0
230
-0.0000000000000002
  0
LINE
  5
1DB8
  8
0
  6
VERDECKT
 62
     1
 10
36.2990381056771412
 20
127.5000000000000995
 30
-0.0000000000000283
 11
35.2990381056771412
 21
126.3452994616207974
 31
-0.0000000000000281
210
0.0
220
1.0
230
-0.0000000000000002
  0
LINE
  5
1DB9
  8
0
  6
VERDECKT
 62
     1
 10
36.2990381056771412
 20
127.5000000000000995
 30
-0.0000000000000283
 11
33.700961894323882
 21
127.5000000000000995
 31
-0.0000000000000283
210
0.0
220
1.0
230
-0.0000000000000002
  0
LINE
  5
1DBA
  8
0
  6
VERDECKT
 62
     1
 10
33.7009618943230933
 20
127.5000000000000995
 30
-0.0000000000000283
 11
33.7009618943230933
 21
130.0000000000001137
 31
-0.0000000000000289
210
0.0
220
1.0
230
-0.0000000000000002
  0
LINE
  5
1DBB
  8
0
  6
VERDECKT
 62
     1
 10
36.2990381056771412
 20
130.0000000000001137
 30
-0.0000000000000289
 11
36.2990381056771412
 21
127.5000000000000995
 31
-0.0000000000000283
210
0.0
220
1.0
230
-0.0000000000000002
  0
LINE
  5
1DBC
  8
0
  6
VERDECKT
 62
     1
 10
36.2990381056771412
 20
130.0000000000001137
 30
-0.0000000000000289
 11
33.700961894323882
 21
130.0000000000001137
 31
-0.0000000000000289
210
0.0
220
1.0
230
-0.0000000000000002
  0
LINE
  5
1DBD
  8
0
  6
VERDECKT
 62
     1
 10
33.7009618943233065
 20
130.0000000000001137
 30
-0.0000000000000289
 11
30.2009618943233207
 21
130.0
 31
-0.0000000000000289
210
0.0
220
1.0
230
-0.0000000000000002
  0
ENDBLK
  5
1DBF
  8
0
  0
ENDSEC
  0
SECTION
  2
ENTITIES
  0
TEXT
  5
8E
  8
VOLL
 10
78.076754716981128
 20
31.025947764705851
 30
0.0
 40
1.8
  1

  7
GREEKS
  0
INSERT
  5
1D32
  8
DEFPOINTS
  2
A$C1CE15AB1
 10
0.0
 20
-122.5
 30
0.0
  0
INSERT
  5
1DC0
  8
DEFPOINTS
  2
A$C27F52DE6
 10
0.0
 20
0.0
 30
0.0
  0
VIEWPORT
  5
1A3B
 67
     1
  8
0
 10
5.1064453393994418
 20
7.2472687009108121
 30
0.0
 40
26.0791120347483485
 41
14.80587037829339
 68
     1
 69
     1
1001
ACAD
1000
MVIEW
1002
{
1070
    16
1010
0.0
1020
0.0
1030
0.0
1010
0.0
1020
0.0
1030
1.0
1040
0.0
1040
14.80587037829339
1040
5.1064453393994418
1040
7.2472687009108121
1040
50.0
1040
0.0
1040
0.0
1070
     0
1070
  1500
1070
     1
1070
     1
1070
     0
1070
     0
1070
     0
1070
     0
1040
0.0
1040
0.0
1040
0.0
1040
10.0
1040
10.0
1040
10.0
1040
10.0
1070
     0
1002
{
1002
}
1002
}
  0
VIEWPORT
  5
1A3F
 67
     1
  8
DEFPOINTS
 10
5.1064244124019851
 20
7.2472433729304546
 30
0.0
 40
10.4673112776904507
 41
14.7014914753395392
 68
     2
 69
     2
1001
ACAD
1000
MVIEW
1002
{
1070
    16
1010
572.453575050031418
1020
268.167600475563404
1030
-65.1155720811220959
1010
0.0
1020
0.0
1030
1.0
1040
0.0
1040
437.3233039807377054
1040
-423.3360451484958276
1040
-54.5938305622378621
1040
50.0
1040
0.0
1040
0.0
1070
     0
1070
  1500
1070
     1
1070
     0
1070
     0
1070
     0
1070
     0
1070
     0
1040
0.0
1040
0.0
1040
0.0
1040
1.0
1040
1.0
1040
10.0
1040
10.0
1070
     0
1002
{
1002
}
1002
}
  0
VIEWPORT
  5
1A43
 67
     1
  8
DEFPOINTS
 10
8.2153395376727651
 20
3.606428184645647
 30
0.0
 40
2.924483492998184
 41
4.1164847711254851
 68
     3
 69
     3
1001
ACAD
1000
MVIEW
1002
{
1070
    16
1010
553.5188649023195921
1020
231.4045023486656874
1030
-52.7948805249272226
1010
49.066396380745573
1020
147.2647358481181072
1030
379.4275343170626797
1040
2.7960474889568978
1040
210.9142896207405897
1040
0.0
1040
0.0
1040
50.0
1040
0.0
1040
0.0
1070
     0
1070
  1500
1070
     1
1070
     0
1070
     0
1070
     0
1070
     0
1070
     0
1040
0.0
1040
0.0
1040
0.0
1040
1.0
1040
1.0
1040
10.0
1040
10.0
1070
     0
1002
{
1002
}
1002
}
  0
ENDSEC
  0
EOF
