  0
SECTION
  2
HEADER
  9
$ACADVER
  1
AC1009
  9
$INSBASE
 10
0.0
 20
0.0
 30
0.0
  9
$EXTMIN
 10
-62.1001199488811224
 20
-172.0242757427328115
 30
-0.0042721349796011
  9
$EXTMAX
 10
61.0157996229480588
 20
140.0136116338119052
 30
0.0064088543950902
  9
$LIMMIN
 10
0.0
 20
0.0
  9
$LIMMAX
 10
296.9999999999998863
 20
420.0000000000001137
  9
$ORTHOMODE
 70
     1
  9
$REGENMODE
 70
     1
  9
$FILLMODE
 70
     1
  9
$QTEXTMODE
 70
     0
  9
$MIRRTEXT
 70
     1
  9
$DRAGMODE
 70
     2
  9
$LTSCALE
 40
10.0
  9
$OSMODE
 70
  2559
  9
$ATTMODE
 70
     1
  9
$TEXTSIZE
 40
3.5
  9
$TRACEWID
 40
0.5
  9
$TEXTSTYLE
  7
STANDARD
  9
$CLAYER
  8
STEMPEL
  9
$CELTYPE
  6
BYLAYER
  9
$CECOLOR
 62
   256
  9
$DIMSCALE
 40
1.0
  9
$DIMASZ
 40
3.5
  9
$DIMEXO
 40
1.0
  9
$DIMDLI
 40
7.0
  9
$DIMRND
 40
0.0
  9
$DIMDLE
 40
0.0
  9
$DIMEXE
 40
1.0
  9
$DIMTP
 40
0.0
  9
$DIMTM
 40
0.0
  9
$DIMTXT
 40
3.5
  9
$DIMCEN
 40
1.5
  9
$DIMTSZ
 40
0.0
  9
$DIMTOL
 70
     0
  9
$DIMLIM
 70
     0
  9
$DIMTIH
 70
     0
  9
$DIMTOH
 70
     0
  9
$DIMSE1
 70
     0
  9
$DIMSE2
 70
     0
  9
$DIMTAD
 70
     1
  9
$DIMZIN
 70
     8
  9
$DIMBLK
  1

  9
$DIMASO
 70
     1
  9
$DIMSHO
 70
     0
  9
$DIMPOST
  1

  9
$DIMAPOST
  1

  9
$DIMALT
 70
     0
  9
$DIMALTD
 70
     2
  9
$DIMALTF
 40
25.3999999999999986
  9
$DIMLFAC
 40
1.0
  9
$DIMTOFL
 70
     1
  9
$DIMTVP
 40
0.0
  9
$DIMTIX
 70
     0
  9
$DIMSOXD
 70
     0
  9
$DIMSAH
 70
     0
  9
$DIMBLK1
  1

  9
$DIMBLK2
  1

  9
$DIMSTYLE
  2
STANDARD
  9
$DIMCLRD
 70
     0
  9
$DIMCLRE
 70
     0
  9
$DIMCLRT
 70
     1
  9
$DIMTFAC
 40
0.5142857142857143
  9
$DIMGAP
 40
1.5
  9
$LUNITS
 70
     2
  9
$LUPREC
 70
     2
  9
$SKETCHINC
 40
1.0
  9
$FILLETRAD
 40
0.0
  9
$AUNITS
 70
     0
  9
$AUPREC
 70
     0
  9
$MENU
  1
ACAD
  9
$ELEVATION
 40
0.0
  9
$PELEVATION
 40
0.0
  9
$THICKNESS
 40
0.0
  9
$LIMCHECK
 70
     0
  9
$BLIPMODE
 70
     0
  9
$CHAMFERA
 40
0.0
  9
$CHAMFERB
 40
0.0
  9
$SKPOLY
 70
     0
  9
$TDCREATE
 40
2451337.6017592591233552
  9
$TDUPDATE
 40
2458387.5758912041783333
  9
$TDINDWG
 40
0.1016211574
  9
$TDUSRTIMER
 40
0.1016211574
  9
$USRTIMER
 70
     1
  9
$ANGBASE
 50
0.0
  9
$ANGDIR
 70
     0
  9
$PDMODE
 70
     0
  9
$PDSIZE
 40
0.0
  9
$PLINEWID
 40
0.0
  9
$COORDS
 70
     1
  9
$SPLFRAME
 70
     0
  9
$SPLINETYPE
 70
     6
  9
$SPLINESEGS
 70
     8
  9
$ATTDIA
 70
     1
  9
$ATTREQ
 70
     1
  9
$HANDLING
 70
     1
  9
$HANDSEED
  5
2803
  9
$SURFTAB1
 70
     6
  9
$SURFTAB2
 70
     6
  9
$SURFTYPE
 70
     6
  9
$SURFU
 70
     6
  9
$SURFV
 70
     6
  9
$UCSNAME
  2

  9
$UCSORG
 10
0.0
 20
0.0
 30
0.0
  9
$UCSXDIR
 10
1.0
 20
0.0
 30
0.0
  9
$UCSYDIR
 10
0.0
 20
1.0
 30
0.0
  9
$PUCSNAME
  2

  9
$PUCSORG
 10
0.0
 20
0.0
 30
0.0
  9
$PUCSXDIR
 10
1.0
 20
0.0
 30
0.0
  9
$PUCSYDIR
 10
0.0
 20
1.0
 30
0.0
  9
$USERI1
 70
     0
  9
$USERI2
 70
     0
  9
$USERI3
 70
     0
  9
$USERI4
 70
     0
  9
$USERI5
 70
     0
  9
$USERR1
 40
0.0
  9
$USERR2
 40
0.0
  9
$USERR3
 40
0.0
  9
$USERR4
 40
0.0
  9
$USERR5
 40
0.0
  9
$WORLDVIEW
 70
     1
  9
$SHADEDGE
 70
     3
  9
$SHADEDIF
 70
    70
  9
$TILEMODE
 70
     1
  9
$MAXACTVP
 70
    16
  9
$PLIMCHECK
 70
     0
  9
$PEXTMIN
 10
-0.1278078343990714
 20
-0.1249616535398452
 30
-0.0000000349181948
  9
$PEXTMAX
 10
10.1444087372312595
 20
14.5687353611061301
 30
0.0000000814935746
  9
$PLIMMIN
 10
-0.2500002402958907
 20
-0.2499999962453767
  9
$PLIMMAX
 10
10.7499995194082203
 20
8.2499997634587334
  9
$UNITMODE
 70
     0
  9
$VISRETAIN
 70
     0
  9
$PLINEGEN
 70
     0
  9
$PSLTSCALE
 70
     0
  0
ENDSEC
  0
SECTION
  2
TABLES
  0
TABLE
  2
VPORT
 70
     1
  0
VPORT
  2
*ACTIVE
 70
     0
 10
0.0
 20
0.0
 11
1.0
 21
1.0
 12
-0.5421601629665816
 22
-55.5074587481860178
 13
0.0
 23
0.0
 14
1.0
 24
1.0
 15
10.0
 25
10.0
 16
-0.0000000000001343
 26
0.0
 36
604.6668113125931541
 17
0.0
 27
39.502126693725593
 37
-0.0000000000000126
 40
313.6285647973257937
 41
1.868197278911564
 42
50.0
 43
0.0
 44
0.0
 50
0.0
 51
0.0
 71
     0
 72
  1500
 73
     1
 74
     0
 75
     0
 76
     0
 77
     0
 78
     0
  0
ENDTAB
  0
TABLE
  2
LTYPE
 70
     5
  0
LTYPE
  2
CONTINUOUS
 70
     0
  3
Solid line
 72
    65
 73
     0
 40
0.0
  0
LTYPE
  2
VERDECKT
 70
     0
  3
_ _ _ _ _ _ _ _ _ _ _ _ _ _ _ _ _ _ _ _ _ _ _
 72
    65
 73
     2
 40
0.375
 49
0.25
 49
-0.125
  0
ENDTAB
  0
TABLE
  2
LAYER
 70
    11
  0
LAYER
  2
0
 70
     0
 62
     7
  6
CONTINUOUS
  0
LAYER
  2
VOLL
 70
     0
 62
     1
  6
CONTINUOUS
  0
LAYER
  2
STEMPEL
 70
     0
 62
     3
  6
CONTINUOUS
  0
LAYER
  2
DEFPOINTS
 70
     0
 62
     7
  6
CONTINUOUS
  0
ENDTAB
  0
TABLE
  2
STYLE
 70
     2
  0
STYLE
  2
STANDARD
 70
     0
 40
0.0
 41
0.8
 50
0.0
 71
     0
 42
3.5
  3
simplex.shx
  4

  0
STYLE
  2
GREEKS
 70
     0
 40
0.0
 41
0.8
 50
0.0
 71
     0
 42
2.5
  3
SIMPLEX.shx
  4

  0
ENDTAB
  0
TABLE
  2
VIEW
 70
     1
  0
ENDTAB
  0
TABLE
  2
UCS
 70
     0
  0
ENDTAB
  0
TABLE
  2
APPID
 70
    10
  0
APPID
  2
ACAD
 70
     0
  0
APPID
  2
ACAD_NAV_VCDISPLAY
 70
     0
  0
APPID
  2
ACAD_PSEXT
 70
     0
  0
APPID
  2
ACAECLAYERSTANDARD
 70
     0
  0
APPID
  2
ACCMTRANSPARENCY
 70
     0
  0
APPID
  2
ACAD_STEPID
 70
     0
  0
APPID
  2
ACAD_EXEMPT_FROM_CAD_STANDARDS
 70
     0
  0
APPID
  2
ACAD_MLEADERVER
 70
     0
  0
APPID
  2
ACAD_OBJECT_CHANGE_GUID
 70
     0
  0
APPID
  2
ACADANNOMONITORALERTICONDI
 70
     0
  0
ENDTAB
  0
TABLE
  2
DIMSTYLE
 70
     2
  0
DIMSTYLE
  2
STANDARD
 70
     0
  3

  4

  5

  6

  7

 40
1.0
 41
0.18
 42
0.0625
 43
0.38
 44
0.18
 45
0.0
 46
0.0
 47
0.0
 48
0.0
140
0.18
141
0.09
142
0.0
143
25.3999999999999986
144
1.0
145
0.0
146
1.0
147
0.09
 71
     0
 72
     0
 73
     1
 74
     1
 75
     0
 76
     0
 77
     0
 78
     0
170
     0
171
     2
172
     0
173
     0
174
     0
175
     0
176
     0
177
     0
178
     0
  0
ENDTAB
  0
ENDSEC
  0
SECTION
  2
BLOCKS
  0
BLOCK
  8
0
  2
$MODEL_SPACE
 70
     0
 10
0.0
 20
0.0
 30
0.0
  3
$MODEL_SPACE
  1

  0
ENDBLK
  5
36
  8
0
  0
BLOCK
 67
     1
  8
0
  2
$PAPER_SPACE
 70
     0
 10
0.0
 20
0.0
 30
0.0
  3
$PAPER_SPACE
  1

  0
ENDBLK
  5
34
 67
     1
  8
0
  0
BLOCK
  8
0
  2
A$C37D92D41
 70
     0
 10
0.0
 20
0.0
 30
0.0
  3
A$C37D92D41
  1

  0
LINE
  5
2706
  8
0
  6
CONTINUOUS
 62
     3
 10
-15.3090940417266399
 20
56.9792211215770408
 30
0.0
 11
-41.6909059582731913
 21
41.7476749098488469
 31
-0.0000000000000059
  0
LINE
  5
2707
  8
0
  6
CONTINUOUS
 62
     3
 10
-56.9999999999998508
 20
15.2315462117283893
 30
0.0
 11
-56.9999999999999716
 21
-15.2315462117279008
 31
0.0
  0
LINE
  5
2708
  8
0
  6
CONTINUOUS
 62
     3
 10
57.0000000000000213
 20
-15.2315462117279008
 30
0.0
 11
57.0000000000000213
 21
15.2315462117279292
 31
0.0
  0
LINE
  5
2709
  8
0
  6
CONTINUOUS
 62
     3
 10
-41.6909059582728503
 20
-41.7476749098489819
 30
0.0
 11
-15.3090940417268602
 21
-56.9792211215767992
 31
0.0000000000000059
  0
CIRCLE
  5
270A
  8
0
  6
CONTINUOUS
 62
     3
 10
0.0000000000000311
 20
0.0000000000000318
 30
0.0
 40
61.0
  0
CIRCLE
  5
270B
  8
0
  6
CONTINUOUS
 62
     3
 10
0.0000000000000311
 20
0.0000000000000318
 30
0.0
 40
59.0000000000001066
  0
LINE
  5
270C
  8
0
  6
CONTINUOUS
 62
     3
 10
24.6914264549235689
 20
45.7668051312776569
 30
0.0
 11
17.6914264549235689
 21
33.6424494782956174
 31
-0.0000000000000018
  0
LINE
  5
270D
  8
0
  6
CONTINUOUS
 62
     3
 10
20.2895026662767215
 20
32.1424494782956174
 30
0.0
 11
17.6914264549234588
 21
33.6424494782956174
 31
-0.0000000000000006
  0
LINE
  5
270E
  8
0
  6
CONTINUOUS
 62
     3
 10
20.2895026662767215
 20
32.1424494782956174
 30
0.0
 11
27.2895026662767215
 21
44.2668051312776569
 31
0.0000000000000018
  0
LINE
  5
270F
  8
0
  6
CONTINUOUS
 62
     3
 10
27.2895026662767215
 20
44.2668051312774935
 30
0.0
 11
24.6914264549234588
 21
45.7668051312774935
 31
-0.0000000000000006
  0
LINE
  5
2710
  8
0
  6
CONTINUOUS
 62
     3
 10
17.6914264549234588
 20
33.6424494782954113
 30
0.0
 11
14.1914264549234606
 21
27.5802716518043383
 31
-0.0000000000000008
  0
LINE
  5
2711
  8
0
  6
CONTINUOUS
 62
     3
 10
16.7895026662767215
 20
26.0802716518043383
 30
0.0
 11
14.1914264549234606
 21
27.5802716518043383
 31
-0.0000000000000006
  0
LINE
  5
2712
  8
0
  6
CONTINUOUS
 62
     3
 10
16.7895026662767215
 20
26.0802716518043383
 30
0.0
 11
20.2895026662767215
 21
32.1424494782954184
 31
0.0000000000000008
  0
LINE
  5
2713
  8
0
  6
CONTINUOUS
 62
     3
 10
30.7895026662767215
 20
50.3289829577685381
 30
0.0
 11
28.1914264549234588
 21
51.8289829577685524
 31
-0.0000000000000006
  0
LINE
  5
2714
  8
0
  6
CONTINUOUS
 62
     3
 10
28.1914264549233415
 20
51.8289829577685666
 30
0.0
 11
24.6914264549233486
 21
45.7668051312774935
 31
-0.0000000000000008
  0
LINE
  5
2715
  8
0
  6
CONTINUOUS
 62
     3
 10
27.2895026662767215
 20
44.2668051312774935
 30
0.0
 11
30.7895026662767215
 21
50.3289829577685595
 31
0.0000000000000008
  0
LINE
  5
2716
  8
0
  6
CONTINUOUS
 62
     3
 10
24.6914264549235689
 20
-45.7668051312775503
 30
0.0
 11
17.6914264549235689
 21
-33.6424494782955108
 31
-0.0000000000000018
  0
LINE
  5
2717
  8
0
  6
CONTINUOUS
 62
     3
 10
27.2895026662767215
 20
-44.2668051312774935
 30
0.0
 11
24.6914264549234588
 21
-45.7668051312774935
 31
-0.0000000000000006
  0
LINE
  5
2718
  8
0
  6
CONTINUOUS
 62
     3
 10
20.2895026662767215
 20
-32.1424494782955108
 30
0.0
 11
27.2895026662767215
 21
-44.2668051312775503
 31
0.0000000000000018
  0
LINE
  5
2719
  8
0
  6
CONTINUOUS
 62
     3
 10
20.2895026662767215
 20
-32.1424494782955108
 30
0.0
 11
17.6914264549234588
 21
-33.6424494782955108
 31
-0.0000000000000006
  0
LINE
  5
271A
  8
0
  6
CONTINUOUS
 62
     3
 10
17.6914264549234588
 20
-33.6424494782954113
 30
0.0
 11
14.1914264549234606
 21
-27.5802716518043383
 31
-0.0000000000000008
  0
LINE
  5
271B
  8
0
  6
CONTINUOUS
 62
     3
 10
16.7895026662767215
 20
-26.0802716518043383
 30
0.0
 11
20.2895026662767215
 21
-32.1424494782953971
 31
0.0000000000000008
  0
LINE
  5
271C
  8
0
  6
CONTINUOUS
 62
     3
 10
16.7895026662767215
 20
-26.0802716518043383
 30
0.0
 11
14.1914264549234606
 21
-27.5802716518043383
 31
-0.0000000000000006
  0
LINE
  5
271D
  8
0
  6
CONTINUOUS
 62
     3
 10
30.7895026662767215
 20
-50.3289829577684316
 30
0.0
 11
28.1914264549234588
 21
-51.8289829577684316
 31
-0.0000000000000006
  0
LINE
  5
271E
  8
0
  6
CONTINUOUS
 62
     3
 10
28.1914264549233415
 20
-51.8289829577684529
 30
0.0
 11
24.6914264549233486
 21
-45.7668051312773798
 31
-0.0000000000000008
  0
LINE
  5
271F
  8
0
  6
CONTINUOUS
 62
     3
 10
27.2895026662767215
 20
-44.2668051312774935
 30
0.0
 11
30.7895026662767215
 21
-50.3289829577685595
 31
0.0000000000000008
  0
ARC
  5
2720
  8
0
  6
CONTINUOUS
 62
     3
 10
0.0000000000000004
 20
0.0000000000000097
 30
0.0
 40
34.3818495990034876
 50
62.500475031726161
 51
180.0
  0
ARC
  5
2721
  8
0
  6
CONTINUOUS
 62
     3
 10
0.0000000000000004
 20
0.0000000000000114
 30
0.0
 40
34.3818495990034876
 50
302.500475031726296
 51
57.4995249682737182
  0
ARC
  5
2722
  8
0
  6
CONTINUOUS
 62
     3
 10
0.0000000000000004
 20
0.0000000000000168
 30
0.0
 40
34.3818495990034876
 50
180.0
 51
297.4995249682738745
  0
ARC
  5
2723
  8
0
  6
CONTINUOUS
 62
     3
 10
0.0000000000000125
 20
0.000000000000013
 30
0.0
 40
34.9000000000001123
 50
62.4633281249751988
 51
180.0
  0
ARC
  5
2724
  8
0
  6
CONTINUOUS
 62
     3
 10
-0.0000000000000159
 20
0.0000000000000147
 30
0.0
 40
34.9000000000001265
 50
302.4633281249753054
 51
57.5366718750246378
  0
ARC
  5
2725
  8
0
  6
CONTINUOUS
 62
     3
 10
0.0000000000000125
 20
0.000000000000029
 30
0.0
 40
34.9000000000001123
 50
180.0
 51
297.5366718750246946
  0
ARC
  5
2726
  8
0
  6
CONTINUOUS
 62
     3
 10
0.0000000000000178
 20
0.0000000000000109
 30
0.0
 40
48.9736473532500369
 50
61.7551707325500416
 51
180.0
  0
ARC
  5
2727
  8
0
  6
CONTINUOUS
 62
     3
 10
0.0000000000000178
 20
0.0000000000000109
 30
0.0
 40
48.9736473532500511
 50
301.7551707325500843
 51
58.2448292674499513
  0
ARC
  5
2728
  8
0
  6
CONTINUOUS
 62
     3
 10
0.0000000000000178
 20
0.0000000000000251
 30
0.0
 40
48.9736473532500511
 50
180.0
 51
298.2448292674499726
  0
ARC
  5
2729
  8
0
  6
CONTINUOUS
 62
     3
 10
0.0000000000000176
 20
0.000000000000025
 30
0.0
 40
50.1871728448123804
 50
61.7127179140676105
 51
180.0
  0
ARC
  5
272A
  8
0
  6
CONTINUOUS
 62
     3
 10
0.0000000000000176
 20
0.0000000000000179
 30
0.0
 40
50.1871728448123875
 50
301.7127179140675821
 51
58.2872820859323468
  0
ARC
  5
272B
  8
0
  6
CONTINUOUS
 62
     3
 10
0.0000000000000034
 20
0.0000000000000037
 30
0.0
 40
50.1871728448123733
 50
180.0
 51
298.2872820859324179
  0
LINE
  5
272C
  8
0
  6
VERDECKT
 62
     1
 10
-58.9999999999999716
 20
15.4919333848296006
 30
0.0
 11
-58.9999999999999716
 21
0.000000000000032
 31
0.0
  0
LINE
  5
272D
  8
0
  6
VERDECKT
 62
     1
 10
-58.9999999999999716
 20
0.0000000000000313
 30
0.0
 11
-58.9999999999999716
 21
-15.4919333848295402
 31
0.0
  0
LINE
  5
272E
  8
0
  6
VERDECKT
 62
     1
 10
58.9999999999999076
 20
-15.4919333848299505
 30
0.0
 11
59.0000000000000284
 21
-0.0000000000001847
 31
0.0
  0
LINE
  5
272F
  8
0
  6
VERDECKT
 62
     1
 10
59.0000000000000284
 20
-0.0000000000001854
 30
0.0
 11
59.0000000000000284
 21
15.4919333848295597
 31
0.0
  0
LINE
  5
2730
  8
0
  6
VERDECKT
 62
     1
 10
-16.08359213500054
 20
58.8414655156969317
 30
0.0
 11
-29.4999999999998614
 21
51.0954988232817726
 31
-0.000000000000003
  0
LINE
  5
2731
  8
0
  6
VERDECKT
 62
     1
 10
-29.4999999999998614
 20
51.0954988232817726
 30
0.0
 11
-42.9164078649991723
 21
43.3495321308666135
 31
-0.000000000000003
  0
LINE
  5
2732
  8
0
  6
VERDECKT
 62
     1
 10
-42.9164078649987104
 20
-43.3495321308668693
 30
0.0
 11
-29.4999999999998614
 21
-51.0954988232817513
 31
0.000000000000003
  0
LINE
  5
2733
  8
0
  6
VERDECKT
 62
     1
 10
-29.4999999999998614
 20
-51.0954988232817513
 30
0.0
 11
-16.0835921350011084
 21
-58.8414655156965694
 31
0.000000000000003
  0
LINE
  5
2734
  8
0
  6
VERDECKT
 62
     1
 10
29.7895026662767215
 20
48.5969321501996987
 30
0.0
 11
27.1914264549234588
 21
50.0969321501997129
 31
-0.0000000000000006
  0
LINE
  5
2735
  8
0
  6
VERDECKT
 62
     1
 10
29.7895026662767215
 20
-48.5969321501996987
 30
0.0
 11
27.1914264549234588
 21
-50.0969321501997129
 31
-0.0000000000000006
  0
ARC
  5
2736
  8
0
  6
VERDECKT
 62
     1
 10
-0.0000000000008238
 20
-0.000000000001351
 30
0.0
 40
34.3818495990050792
 50
57.4995249682738034
 51
62.5004750317259905
  0
ARC
  5
2737
  8
0
  6
VERDECKT
 62
     1
 10
-0.0000000000023159
 20
0.0000000000040917
 30
0.0
 40
34.3818495990081772
 50
297.4995249682741019
 51
302.5004750317258981
  0
ARC
  5
2738
  8
0
  6
VERDECKT
 62
     1
 10
0.0000000000028404
 20
0.0000000000049193
 30
0.0
 40
34.8999999999944492
 50
57.5366718750242825
 51
62.4633281249755825
  0
ARC
  5
2739
  8
0
  6
VERDECKT
 62
     1
 10
0.0000000000035936
 20
-0.0000000000063038
 30
0.0
 40
34.8999999999928434
 50
297.5366718750244104
 51
302.4633281249758738
  0
ARC
  5
273A
  8
0
  6
VERDECKT
 62
     1
 10
0.0000000000023626
 20
0.0000000000039757
 30
0.0
 40
48.9736473532454397
 50
58.2448292674498731
 51
61.755170732550269
  0
ARC
  5
273B
  8
0
  6
VERDECKT
 62
     1
 10
0.0000000000092264
 20
-0.000000000015749
 30
0.0
 40
48.9736473532317902
 50
298.2448292674491768
 51
301.7551707325507095
  0
ARC
  5
273C
  8
0
  6
VERDECKT
 62
     1
 10
0.0000000000022203
 20
0.000000000003457
 30
0.0
 40
50.1871728448083019
 50
58.2872820859324605
 51
61.71271791406798
  0
ARC
  5
273D
  8
0
  6
VERDECKT
 62
     1
 10
0.000000000001936
 20
-0.0000000000032861
 30
0.0
 40
50.1871728448085719
 50
298.2872820859323042
 51
301.7127179140678095
  0
CIRCLE
  5
273E
  8
0
  6
VERDECKT
 62
     1
 10
0.0000000000000125
 20
0.0000000000000165
 30
0.0
 40
36.5000000000000568
  0
CIRCLE
  5
273F
  8
0
  6
VERDECKT
 62
     1
 10
0.0000000000000004
 20
0.0000000000000132
 30
0.0
 40
35.8875793553185076
  0
CIRCLE
  5
2740
  8
0
  6
VERDECKT
 62
     1
 10
0.0000000000000163
 20
0.0000000000000176
 30
0.0
 40
48.9999999999999503
  0
CIRCLE
  5
2741
  8
0
  6
VERDECKT
 62
     1
 10
0.0000000000000163
 20
0.0000000000000176
 30
0.0
 40
51.0
  0
ENDBLK
  5
2743
  8
0
  0
BLOCK
  8
0
  2
A$C692C0B51
 70
     0
 10
0.0
 20
0.0
 30
0.0
  3
A$C692C0B51
  1

  0
LINE
  5
2747
  8
0
  6
CONTINUOUS
 62
     3
 10
61.0000000000003268
 20
110.0
 30
-0.0000000000000244
 11
-61.0000000000003268
 21
110.0
 31
-0.0000000000000244
210
0.0
220
1.0
230
-0.0000000000000002
  0
LINE
  5
2748
  8
0
  6
CONTINUOUS
 62
     3
 10
-59.0
 20
132.0
 30
-0.0000000000000293
 11
-59.0
 21
125.0
 31
-0.0000000000000278
210
0.0
220
1.0
230
-0.0000000000000002
  0
LINE
  5
2749
  8
0
  6
CONTINUOUS
 62
     3
 10
-61.0000000000003268
 20
125.0
 30
-0.0000000000000278
 11
-59.0000000000003411
 21
125.0
 31
-0.0000000000000278
210
0.0
220
1.0
230
-0.0000000000000002
  0
LINE
  5
274A
  8
0
  6
CONTINUOUS
 62
     3
 10
-59.0000000000003411
 20
132.0
 30
-0.0000000000000293
 11
-61.0000000000003411
 21
132.0
 31
-0.0000000000000293
210
0.0
220
1.0
230
-0.0000000000000002
  0
LINE
  5
274B
  8
0
  6
CONTINUOUS
 62
     3
 10
58.9999999999997726
 20
125.0
 30
-0.0000000000000278
 11
58.9999999999997726
 21
132.0
 31
-0.0000000000000293
210
0.0
220
1.0
230
-0.0000000000000002
  0
LINE
  5
274C
  8
0
  6
CONTINUOUS
 62
     3
 10
59.0000000000002274
 20
125.0
 30
-0.0000000000000278
 11
61.0000000000003411
 21
125.0
 31
-0.0000000000000278
210
0.0
220
1.0
230
-0.0000000000000002
  0
LINE
  5
274D
  8
0
  6
CONTINUOUS
 62
     3
 10
61.0000000000003411
 20
132.0
 30
-0.0000000000000293
 11
59.0000000000002274
 21
132.0
 31
-0.0000000000000293
210
0.0
220
1.0
230
-0.0000000000000002
  0
LINE
  5
274E
  8
0
  6
CONTINUOUS
 62
     3
 10
-42.9164078650003376
 20
125.0
 30
-0.0000000000000278
 11
-42.9164078650003376
 21
132.0
 31
-0.0000000000000293
210
0.0
220
1.0
230
-0.0000000000000002
  0
LINE
  5
274F
  8
0
  6
CONTINUOUS
 62
     3
 10
-16.0835921349994315
 20
132.0
 30
-0.0000000000000293
 11
-16.0835921349994315
 21
125.0
 31
-0.0000000000000278
210
0.0
220
1.0
230
-0.0000000000000002
  0
LINE
  5
2750
  8
0
  6
CONTINUOUS
 62
     3
 10
-16.0835921350012612
 20
132.0
 30
-0.0000000000000293
 11
-42.9164078649990799
 21
132.0
 31
-0.0000000000000293
210
0.0
220
1.0
230
-0.0000000000000002
  0
LINE
  5
2751
  8
0
  6
CONTINUOUS
 62
     3
 10
-42.916407864999087
 20
125.0
 30
-0.0000000000000278
 11
-16.0835921350012505
 21
125.0
 31
-0.0000000000000278
210
0.0
220
1.0
230
-0.0000000000000002
  0
LINE
  5
2752
  8
0
  6
CONTINUOUS
 62
     3
 10
-61.0
 20
140.0
 30
-0.0000000000000311
 11
61.0
 21
140.0
 31
-0.0000000000000311
210
0.0
220
1.0
230
-0.0000000000000002
  0
LINE
  5
2753
  8
0
  6
CONTINUOUS
 62
     3
 10
61.0000000000003411
 20
140.0
 30
-0.0000000000000311
 11
61.0000000000003411
 21
132.0
 31
-0.0000000000000293
210
0.0
220
1.0
230
-0.0000000000000002
  0
LINE
  5
2754
  8
0
  6
CONTINUOUS
 62
     3
 10
61.0000000000003411
 20
125.0
 30
-0.0000000000000278
 11
61.0000000000003411
 21
110.0
 31
-0.0000000000000244
210
0.0
220
1.0
230
-0.0000000000000002
  0
LINE
  5
2755
  8
0
  6
CONTINUOUS
 62
     3
 10
-61.0000000000003411
 20
140.0
 30
-0.0000000000000311
 11
-61.0000000000003411
 21
132.0
 31
-0.0000000000000293
210
0.0
220
1.0
230
-0.0000000000000002
  0
LINE
  5
2756
  8
0
  6
CONTINUOUS
 62
     3
 10
-61.0000000000003411
 20
125.0
 30
-0.0000000000000278
 11
-61.0000000000003411
 21
110.0
 31
-0.0000000000000244
210
0.0
220
1.0
230
-0.0000000000000002
  0
LINE
  5
2757
  8
0
  6
CONTINUOUS
 62
     3
 10
-50.9999999999999787
 20
0.0
 30
0.0
 11
0.0
 21
0.0000000000000031
 31
0.0
210
0.0
220
1.0
230
-0.0000000000000002
  0
LINE
  5
2758
  8
0
  6
CONTINUOUS
 62
     3
 10
-0.0000000000000006
 20
0.0000000000000031
 30
0.0
 11
50.9999999999999929
 21
0.0
 31
0.0
210
0.0
220
1.0
230
-0.0000000000000002
  0
LINE
  5
2759
  8
0
  6
CONTINUOUS
 62
     3
 10
-61.0000000000003268
 20
110.0
 30
-0.0000000000000244
 11
61.0000000000003268
 21
110.0
 31
-0.0000000000000244
210
0.0
220
1.0
230
-0.0000000000000002
  0
LINE
  5
275A
  8
0
  6
CONTINUOUS
 62
     3
 10
61.0000000000001208
 20
110.0
 30
-0.0000000000000244
 11
61.0000000000001208
 21
101.6681164997397957
 31
-0.0000000000000226
210
0.0
220
1.0
230
-0.0000000000000002
  0
LINE
  5
275B
  8
0
  6
CONTINUOUS
 62
     3
 10
-61.0000000000001208
 20
110.0
 30
-0.0000000000000244
 11
-61.0000000000001208
 21
101.6681164997397957
 31
-0.0000000000000226
210
0.0
220
1.0
230
-0.0000000000000002
  0
ARC
  5
275C
  8
0
  6
CONTINUOUS
 62
     3
 10
46.9999999999993321
 20
101.6681164997397957
 30
0.0
 40
14.0000000000006004
210
0.0
220
-0.0000000000000002
230
-1.0
 50
336.2473682960912242
 51
0.0
  0
ARC
  5
275D
  8
0
  6
CONTINUOUS
 62
     3
 10
-46.9999999999993321
 20
101.6681164997397957
 30
0.0
 40
14.0000000000006093
210
0.0
220
-0.0000000000000002
230
-1.0
 50
180.0
 51
203.7526317039088042
  0
LINE
  5
275E
  8
0
  6
CONTINUOUS
 62
     3
 10
-52.0164842491923025
 20
78.3098483750781611
 30
-0.0000000000000174
 11
-59.8141017092756471
 21
96.0290742597544096
 31
-0.0000000000000213
210
0.0
220
1.0
230
-0.0000000000000002
  0
LINE
  5
275F
  8
0
  6
CONTINUOUS
 62
     3
 10
52.0164842491923025
 20
78.3098483750781611
 30
-0.0000000000000174
 11
59.8141017092756471
 21
96.0290742597544096
 31
-0.0000000000000213
210
0.0
220
1.0
230
-0.0000000000000002
  0
ARC
  5
2760
  8
0
  6
CONTINUOUS
 62
     3
 10
63.0000000000017266
 20
73.4763835979475743
 30
0.0
 40
12.0000000000017302
210
0.0
220
-0.0000000000000002
230
-1.0
 50
156.2473682960921906
 51
179.9999999999986073
  0
ARC
  5
2761
  8
0
  6
CONTINUOUS
 62
     3
 10
-63.0000000000016911
 20
73.4763835979475886
 30
0.0
 40
12.0000000000016893
210
0.0
220
-0.0000000000000002
230
-1.0
 50
0.0
 51
23.7526317039065198
  0
LINE
  5
2762
  8
0
  6
CONTINUOUS
 62
     3
 10
51.0
 20
73.4763835979478728
 30
-0.0000000000000163
 11
51.0
 21
0.0
 31
0.0
210
0.0
220
1.0
230
-0.0000000000000002
  0
LINE
  5
2763
  8
0
  6
CONTINUOUS
 62
     3
 10
-51.0
 20
73.4763835979478728
 30
-0.0000000000000163
 11
-51.0
 21
0.0
 31
0.0
210
0.0
220
1.0
230
-0.0000000000000002
  0
LINE
  5
2764
  8
0
  6
VERDECKT
 62
     1
 10
-57.0
 20
125.0
 30
-0.0000000000000278
 11
-57.0
 21
132.0
 31
-0.0000000000000293
210
0.0
220
1.0
230
-0.0000000000000002
  0
LINE
  5
2765
  8
0
  6
VERDECKT
 62
     1
 10
-57.0000000000001066
 20
125.0
 30
-0.0000000000000278
 11
-59.0000000000001066
 21
125.0
 31
-0.0000000000000278
210
0.0
220
1.0
230
-0.0000000000000002
  0
LINE
  5
2766
  8
0
  6
VERDECKT
 62
     1
 10
-59.0000000000001066
 20
132.0
 30
-0.0000000000000293
 11
-57.0000000000001066
 21
132.0
 31
-0.0000000000000293
210
0.0
220
1.0
230
-0.0000000000000002
  0
LINE
  5
2767
  8
0
  6
VERDECKT
 62
     1
 10
57.0
 20
132.0
 30
-0.0000000000000293
 11
57.0
 21
125.0
 31
-0.0000000000000278
210
0.0
220
1.0
230
-0.0000000000000002
  0
LINE
  5
2768
  8
0
  6
VERDECKT
 62
     1
 10
59.0000000000001066
 20
125.0
 30
-0.0000000000000278
 11
57.0000000000001066
 21
125.0
 31
-0.0000000000000278
210
0.0
220
1.0
230
-0.0000000000000002
  0
LINE
  5
2769
  8
0
  6
VERDECKT
 62
     1
 10
57.0000000000001208
 20
132.0
 30
-0.0000000000000293
 11
59.0000000000001066
 21
132.0
 31
-0.0000000000000293
210
0.0
220
1.0
230
-0.0000000000000002
  0
LINE
  5
276A
  8
0
  6
VERDECKT
 62
     1
 10
-15.3090940417259809
 20
125.0
 30
-0.0000000000000278
 11
-15.3090940417259809
 21
132.0
 31
-0.0000000000000293
210
0.0
220
1.0
230
-0.0000000000000002
  0
LINE
  5
276B
  8
0
  6
VERDECKT
 62
     1
 10
-41.6909059582735608
 20
132.0
 30
-0.0000000000000293
 11
-41.6909059582735608
 21
125.0
 31
-0.0000000000000278
210
0.0
220
1.0
230
-0.0000000000000002
  0
LINE
  5
276C
  8
0
  6
VERDECKT
 62
     1
 10
-16.0835921350011404
 20
132.0
 30
-0.0000000000000293
 11
-15.3090940417270094
 21
132.0
 31
-0.0000000000000293
210
0.0
220
1.0
230
-0.0000000000000002
  0
LINE
  5
276D
  8
0
  6
VERDECKT
 62
     1
 10
-15.3090940417270005
 20
125.0
 30
-0.0000000000000278
 11
-16.0835921350011297
 21
125.0
 31
-0.0000000000000278
210
0.0
220
1.0
230
-0.0000000000000002
  0
LINE
  5
276E
  8
0
  6
VERDECKT
 62
     1
 10
59.0000000000001066
 20
140.0
 30
-0.0000000000000311
 11
59.0000000000001066
 21
132.0
 31
-0.0000000000000293
210
0.0
220
1.0
230
-0.0000000000000002
  0
LINE
  5
276F
  8
0
  6
VERDECKT
 62
     1
 10
59.0000000000001066
 20
125.0
 30
-0.0000000000000278
 11
59.0000000000001066
 21
110.0
 31
-0.0000000000000244
210
0.0
220
1.0
230
-0.0000000000000002
  0
LINE
  5
2770
  8
0
  6
VERDECKT
 62
     1
 10
-59.0000000000001066
 20
140.0
 30
-0.0000000000000311
 11
-59.0000000000001066
 21
132.0
 31
-0.0000000000000293
210
0.0
220
1.0
230
-0.0000000000000002
  0
LINE
  5
2771
  8
0
  6
VERDECKT
 62
     1
 10
-59.0000000000001066
 20
125.0
 30
-0.0000000000000278
 11
-59.0000000000001066
 21
110.0
 31
-0.0000000000000244
210
0.0
220
1.0
230
-0.0000000000000002
  0
LINE
  5
2772
  8
0
  6
VERDECKT
 62
     1
 10
24.6914264549235405
 20
132.0
 30
-0.0000000000000293
 11
17.6914264549235405
 21
127.0
 31
-0.0000000000000282
210
0.0
220
1.0
230
-0.0000000000000002
  0
LINE
  5
2773
  8
0
  6
VERDECKT
 62
     1
 10
20.2895026662766895
 20
127.0
 30
-0.0000000000000282
 11
27.2895026662766895
 21
132.0
 31
-0.0000000000000293
210
0.0
220
1.0
230
-0.0000000000000002
  0
LINE
  5
2774
  8
0
  6
VERDECKT
 62
     1
 10
20.2895026662766895
 20
127.0
 30
-0.0000000000000282
 11
17.6914264549234304
 21
127.0
 31
-0.0000000000000282
210
0.0
220
1.0
230
-0.0000000000000002
  0
LINE
  5
2775
  8
0
  6
VERDECKT
 62
     1
 10
17.6914264549234304
 20
127.0
 30
-0.0000000000000282
 11
14.1914264549234304
 21
127.0000000000000995
 31
-0.0000000000000282
210
0.0
220
1.0
230
-0.0000000000000002
  0
LINE
  5
2776
  8
0
  6
VERDECKT
 62
     1
 10
14.1914264549235405
 20
127.0000000000000995
 30
-0.0000000000000282
 11
14.1914264549235405
 21
119.8000000000001961
 31
-0.0000000000000266
210
0.0
220
1.0
230
-0.0000000000000002
  0
LINE
  5
2777
  8
0
  6
VERDECKT
 62
     1
 10
16.7895026662766895
 20
119.8000000000000966
 30
-0.0000000000000266
 11
16.7895026662766895
 21
127.0
 31
-0.0000000000000282
210
0.0
220
1.0
230
-0.0000000000000002
  0
LINE
  5
2778
  8
0
  6
VERDECKT
 62
     1
 10
14.1914264549234304
 20
119.8000000000001961
 30
-0.0000000000000266
 11
17.6914264549235405
 21
119.8000000000001961
 31
-0.0000000000000266
210
0.0
220
1.0
230
-0.0000000000000002
  0
LINE
  5
2779
  8
0
  6
VERDECKT
 62
     1
 10
20.2895026662767997
 20
119.8000000000001961
 30
-0.0000000000000266
 11
17.6914264549235405
 21
119.8000000000001961
 31
-0.0000000000000266
210
0.0
220
1.0
230
-0.0000000000000002
  0
LINE
  5
277A
  8
0
  6
VERDECKT
 62
     1
 10
17.6914264549233202
 20
119.8000000000002956
 30
-0.0000000000000266
 11
24.6914264549233202
 21
114.8000000000002956
 31
-0.0000000000000255
210
0.0
220
1.0
230
-0.0000000000000002
  0
LINE
  5
277B
  8
0
  6
VERDECKT
 62
     1
 10
27.2895026662766895
 20
114.8000000000000966
 30
-0.0000000000000255
 11
20.2895026662766895
 21
119.8000000000000966
 31
-0.0000000000000266
210
0.0
220
1.0
230
-0.0000000000000002
  0
LINE
  5
277C
  8
0
  6
VERDECKT
 62
     1
 10
24.6914264549233202
 20
114.8000000000001961
 30
-0.0000000000000255
 11
28.1914264549233202
 21
114.8000000000000966
 31
-0.0000000000000255
210
0.0
220
1.0
230
-0.0000000000000002
  0
LINE
  5
277D
  8
0
  6
VERDECKT
 62
     1
 10
30.7895026662765794
 20
114.8000000000000966
 30
-0.0000000000000255
 11
28.1914264549233202
 21
114.8000000000000966
 31
-0.0000000000000255
210
0.0
220
1.0
230
-0.0000000000000002
  0
LINE
  5
277E
  8
0
  6
VERDECKT
 62
     1
 10
28.1914264549233202
 20
114.7999999999999972
 30
-0.0000000000000255
 11
28.1914264549233202
 21
117.2999999999999972
 31
-0.000000000000026
210
0.0
220
1.0
230
-0.0000000000000002
  0
LINE
  5
277F
  8
0
  6
VERDECKT
 62
     1
 10
30.7895026662765794
 20
117.3000000000000966
 30
-0.000000000000026
 11
30.7895026662765794
 21
114.8000000000000966
 31
-0.0000000000000255
210
0.0
220
1.0
230
-0.0000000000000002
  0
LINE
  5
2780
  8
0
  6
VERDECKT
 62
     1
 10
30.7895026662765794
 20
117.3000000000000966
 30
-0.000000000000026
 11
28.1914264549233202
 21
117.3000000000000966
 31
-0.000000000000026
210
0.0
220
1.0
230
-0.0000000000000002
  0
LINE
  5
2781
  8
0
  6
VERDECKT
 62
     1
 10
28.1914264549233202
 20
117.3000000000000966
 30
-0.000000000000026
 11
27.1914264549233202
 21
118.4547005383793987
 31
-0.0000000000000263
210
0.0
220
1.0
230
-0.0000000000000002
  0
LINE
  5
2782
  8
0
  6
VERDECKT
 62
     1
 10
29.7895026662766895
 20
118.4547005383793987
 30
-0.0000000000000263
 11
30.7895026662766895
 21
117.3000000000000966
 31
-0.000000000000026
210
0.0
220
1.0
230
-0.0000000000000002
  0
LINE
  5
2783
  8
0
  6
VERDECKT
 62
     1
 10
29.7895026662766895
 20
118.4547005383793987
 30
-0.0000000000000263
 11
27.1914264549234304
 21
118.4547005383793987
 31
-0.0000000000000263
210
0.0
220
1.0
230
-0.0000000000000002
  0
LINE
  5
2784
  8
0
  6
VERDECKT
 62
     1
 10
27.1914264549233202
 20
118.4547005383793987
 30
-0.0000000000000263
 11
27.1914264549233202
 21
128.3452994616208116
 31
-0.0000000000000285
210
0.0
220
1.0
230
-0.0000000000000002
  0
LINE
  5
2785
  8
0
  6
VERDECKT
 62
     1
 10
29.7895026662766895
 20
128.3452994616206979
 30
-0.0000000000000285
 11
29.7895026662766895
 21
118.4547005383792992
 31
-0.0000000000000263
210
0.0
220
1.0
230
-0.0000000000000002
  0
LINE
  5
2786
  8
0
  6
VERDECKT
 62
     1
 10
29.7895026662766895
 20
128.3452994616206979
 30
-0.0000000000000285
 11
27.1914264549234304
 21
128.3452994616206979
 31
-0.0000000000000285
210
0.0
220
1.0
230
-0.0000000000000002
  0
LINE
  5
2787
  8
0
  6
VERDECKT
 62
     1
 10
27.1914264549233202
 20
128.3452994616208116
 30
-0.0000000000000285
 11
28.1914264549233202
 21
129.5000000000001137
 31
-0.0000000000000288
210
0.0
220
1.0
230
-0.0000000000000002
  0
LINE
  5
2788
  8
0
  6
VERDECKT
 62
     1
 10
30.7895026662766895
 20
129.5
 30
-0.0000000000000288
 11
29.7895026662766895
 21
128.3452994616206979
 31
-0.0000000000000285
210
0.0
220
1.0
230
-0.0000000000000002
  0
LINE
  5
2789
  8
0
  6
VERDECKT
 62
     1
 10
30.7895026662766895
 20
129.5
 30
-0.0000000000000288
 11
28.1914264549234304
 21
129.5
 31
-0.0000000000000288
210
0.0
220
1.0
230
-0.0000000000000002
  0
LINE
  5
278A
  8
0
  6
VERDECKT
 62
     1
 10
28.1914264549233202
 20
129.5000000000001137
 30
-0.0000000000000288
 11
28.1914264549233202
 21
132.0000000000001137
 31
-0.0000000000000293
210
0.0
220
1.0
230
-0.0000000000000002
  0
LINE
  5
278B
  8
0
  6
VERDECKT
 62
     1
 10
30.7895026662766895
 20
132.0
 30
-0.0000000000000293
 11
30.7895026662766895
 21
129.5
 31
-0.0000000000000288
210
0.0
220
1.0
230
-0.0000000000000002
  0
LINE
  5
278C
  8
0
  6
VERDECKT
 62
     1
 10
30.7895026662766895
 20
132.0
 30
-0.0000000000000293
 11
28.1914264549234304
 21
132.0
 31
-0.0000000000000293
210
0.0
220
1.0
230
-0.0000000000000002
  0
LINE
  5
278D
  8
0
  6
VERDECKT
 62
     1
 10
28.1914264549233202
 20
132.0000000000001137
 30
-0.0000000000000293
 11
24.6914264549233202
 21
132.0
 31
-0.0000000000000293
210
0.0
220
1.0
230
-0.0000000000000002
  0
LINE
  5
278E
  8
0
  6
VERDECKT
 62
     1
 10
-48.9736473532500369
 20
80.0000000000000142
 30
-0.0000000000000178
 11
48.9736473532500369
 21
80.0000000000000142
 31
-0.0000000000000178
210
0.0
220
1.0
230
-0.0000000000000002
  0
LINE
  5
278F
  8
0
  6
VERDECKT
 62
     1
 10
-50.1871728448123804
 20
79.1183221215614054
 30
-0.0000000000000176
 11
50.1871728448123804
 21
79.1183221215614054
 31
-0.0000000000000176
210
0.0
220
1.0
230
-0.0000000000000002
  0
LINE
  5
2790
  8
0
  6
VERDECKT
 62
     1
 10
-35.8875793553185076
 20
2.0
 30
-0.0000000000000004
 11
35.8875793553185076
 21
2.0
 31
-0.0000000000000004
210
0.0
220
1.0
230
-0.0000000000000002
  0
LINE
  5
2791
  8
0
  6
VERDECKT
 62
     1
 10
-34.3818495990034876
 20
2.0
 30
-0.0000000000000004
 11
-34.9000000000000412
 21
7.9224861840866661
 31
-0.0000000000000018
210
0.0
220
1.0
230
-0.0000000000000002
  0
LINE
  5
2792
  8
0
  6
VERDECKT
 62
     1
 10
34.3818495990034876
 20
2.0
 30
-0.0000000000000004
 11
34.9000000000000412
 21
7.9224861840866661
 31
-0.0000000000000018
210
0.0
220
1.0
230
-0.0000000000000002
  0
LINE
  5
2793
  8
0
  6
VERDECKT
 62
     1
 10
34.9000000000000483
 20
56.2103783591324131
 30
-0.0000000000000125
 11
34.9000000000000483
 21
7.9224861840866661
 31
-0.0000000000000018
210
0.0
220
1.0
230
-0.0000000000000002
  0
LINE
  5
2794
  8
0
  6
VERDECKT
 62
     1
 10
-34.9000000000000483
 20
56.2103783591324131
 30
-0.0000000000000125
 11
-34.9000000000000483
 21
7.9224861840866661
 31
-0.0000000000000018
210
0.0
220
1.0
230
-0.0000000000000002
  0
ARC
  5
2795
  8
0
  6
VERDECKT
 62
     1
 10
48.5000000000000426
 20
56.2103783591324628
 30
0.0
 40
13.5999999999999304
210
0.0
220
-0.0000000000000002
230
-1.0
 50
144.0000000000001137
 51
180.000000000000199
  0
ARC
  5
2796
  8
0
  6
VERDECKT
 62
     1
 10
-48.5000000000000782
 20
56.2103783591324415
 30
0.0
 40
13.5999999999999801
210
0.0
220
-0.0000000000000002
230
-1.0
 50
359.9999999999997726
 51
35.999999999999801
  0
LINE
  5
2797
  8
0
  6
VERDECKT
 62
     1
 10
-37.4973688765007722
 20
64.2042577903100238
 30
-0.0000000000000143
 11
-48.9736473532500298
 21
80.0000000000000284
 31
-0.0000000000000178
210
0.0
220
1.0
230
-0.0000000000000002
  0
LINE
  5
2798
  8
0
  6
VERDECKT
 62
     1
 10
37.4973688765007722
 20
64.2042577903100238
 30
-0.0000000000000143
 11
48.9736473532500298
 21
80.0000000000000284
 31
-0.0000000000000178
210
0.0
220
1.0
230
-0.0000000000000002
  0
LINE
  5
2799
  8
0
  6
VERDECKT
 62
     1
 10
48.9736473532500369
 20
80.0000000000000142
 30
-0.0000000000000178
 11
50.1871728448123804
 21
79.1183221215614054
 31
-0.0000000000000176
210
0.0
220
1.0
230
-0.0000000000000002
  0
LINE
  5
279A
  8
0
  6
VERDECKT
 62
     1
 10
-48.9736473532500369
 20
80.0000000000000142
 30
-0.0000000000000178
 11
-50.1871728448123804
 21
79.1183221215614054
 31
-0.0000000000000176
210
0.0
220
1.0
230
-0.0000000000000002
  0
LINE
  5
279B
  8
0
  6
VERDECKT
 62
     1
 10
-38.791796067500762
 20
63.4339315483125716
 30
-0.0000000000000141
 11
-50.1871728448123733
 21
79.1183221215614054
 31
-0.0000000000000176
210
0.0
220
1.0
230
-0.0000000000000002
  0
LINE
  5
279C
  8
0
  6
VERDECKT
 62
     1
 10
38.791796067500762
 20
63.4339315483125716
 30
-0.0000000000000141
 11
50.1871728448123733
 21
79.1183221215614054
 31
-0.0000000000000176
210
0.0
220
1.0
230
-0.0000000000000002
  0
ARC
  5
279D
  8
0
  6
VERDECKT
 62
     1
 10
48.5000000000000426
 20
56.3805085208027776
 30
0.0
 40
11.9999999999999805
210
0.0
220
-0.0000000000000002
230
-1.0
 50
143.9999999999990905
 51
179.9999999999998863
  0
ARC
  5
279E
  8
0
  6
VERDECKT
 62
     1
 10
-48.4999999999999787
 20
56.3805085208027918
 30
0.0
 40
11.9999999999999307
210
0.0
220
-0.0000000000000002
230
-1.0
 50
360.0
 51
36.0000000000007816
  0
LINE
  5
279F
  8
0
  6
VERDECKT
 62
     1
 10
36.5000000000000284
 20
56.3805085208027918
 30
-0.0000000000000125
 11
36.5000000000000284
 21
9.0000000000000018
 31
-0.000000000000002
210
0.0
220
1.0
230
-0.0000000000000002
  0
LINE
  5
27A0
  8
0
  6
VERDECKT
 62
     1
 10
-36.5000000000000284
 20
56.3805085208027918
 30
-0.0000000000000125
 11
-36.5000000000000284
 21
9.0000000000000018
 31
-0.000000000000002
210
0.0
220
1.0
230
-0.0000000000000002
  0
LINE
  5
27A1
  8
0
  6
VERDECKT
 62
     1
 10
-35.8875793553185076
 20
2.0
 30
-0.0000000000000004
 11
-36.5
 21
9.0000000000000018
 31
-0.000000000000002
210
0.0
220
1.0
230
-0.0000000000000002
  0
LINE
  5
27A2
  8
0
  6
VERDECKT
 62
     1
 10
35.8875793553185076
 20
2.0
 30
-0.0000000000000004
 11
36.5
 21
9.0000000000000018
 31
-0.000000000000002
210
0.0
220
1.0
230
-0.0000000000000002
  0
LINE
  5
27A3
  8
0
  6
VERDECKT
 62
     1
 10
48.9999999999999503
 20
73.4763835979479865
 30
-0.0000000000000163
 11
48.9999999999999503
 21
0.0
 31
0.0
210
0.0
220
1.0
230
-0.0000000000000002
  0
LINE
  5
27A4
  8
0
  6
VERDECKT
 62
     1
 10
-48.9999999999999503
 20
73.4763835979479865
 30
-0.0000000000000163
 11
-48.9999999999999503
 21
0.0
 31
0.0
210
0.0
220
1.0
230
-0.0000000000000002
  0
ARC
  5
27A5
  8
0
  6
VERDECKT
 62
     1
 10
62.9999999999989413
 20
73.4763835979481428
 30
0.0
 40
13.9999999999989893
210
0.0
220
-0.0000000000000002
230
-1.0
 50
156.2473682960890926
 51
180.0000000000005969
  0
ARC
  5
27A6
  8
0
  6
VERDECKT
 62
     1
 10
-62.9999999999989413
 20
73.4763835979481428
 30
0.0
 40
13.9999999999989999
210
0.0
220
-0.0000000000000002
230
-1.0
 50
0.0
 51
23.752631703911451
  0
LINE
  5
27A7
  8
0
  6
VERDECKT
 62
     1
 10
-50.1858982907243529
 20
79.1154258379332873
 30
-0.0000000000000176
 11
-57.9835157508076975
 21
96.834651722609479
 31
-0.0000000000000215
210
0.0
220
1.0
230
-0.0000000000000002
  0
LINE
  5
27A8
  8
0
  6
VERDECKT
 62
     1
 10
50.1858982907243529
 20
79.1154258379332873
 30
-0.0000000000000176
 11
57.9835157508076975
 21
96.834651722609479
 31
-0.0000000000000215
210
0.0
220
1.0
230
-0.0000000000000002
  0
ARC
  5
27A9
  8
0
  6
VERDECKT
 62
     1
 10
46.9999999999984794
 20
101.6681164997399947
 30
0.0
 40
12.0000000000014602
210
0.0
220
-0.0000000000000002
230
-1.0
 50
336.24736829609202
 51
359.9999999999985789
  0
ARC
  5
27AA
  8
0
  6
VERDECKT
 62
     1
 10
-46.9999999999981668
 20
101.6681164997400941
 30
0.0
 40
12.0000000000017693
210
0.0
220
-0.0000000000000002
230
-1.0
 50
180.0000000000015916
 51
203.7526317039076105
  0
LINE
  5
27AB
  8
0
  6
VERDECKT
 62
     1
 10
58.9999999999999503
 20
110.0
 30
-0.0000000000000244
 11
58.9999999999999503
 21
101.6681164997396962
 31
-0.0000000000000226
210
0.0
220
1.0
230
-0.0000000000000002
  0
LINE
  5
27AC
  8
0
  6
VERDECKT
 62
     1
 10
-58.9999999999999503
 20
110.0
 30
-0.0000000000000244
 11
-58.9999999999999503
 21
101.6681164997396962
 31
-0.0000000000000226
210
0.0
220
1.0
230
-0.0000000000000002
  0
ENDBLK
  5
27AE
  8
0
  0
ENDSEC
  0
SECTION
  2
ENTITIES
  0
TEXT
  5
8E
  8
VOLL
 10
78.076754716981128
 20
31.025947764705851
 30
0.0
 40
1.8
  1

  7
GREEKS
  0
INSERT
  5
2744
  8
STEMPEL
  2
A$C37D92D41
 10
-0.0000000000000037
 20
-111.0
 30
0.0
  0
INSERT
  5
27AF
  8
STEMPEL
  2
A$C692C0B51
 10
0.0
 20
0.0
 30
0.0
  0
VIEWPORT
  5
2457
 67
     1
  8
0
 10
5.0084839135041497
 20
7.221862817092175
 30
0.0
 40
26.0634929597670606
 41
14.7970029751665599
 68
     1
 69
     1
1001
ACAD
1000
MVIEW
1002
{
1070
    16
1010
0.0
1020
0.0
1030
0.0
1010
0.0
1020
0.0
1030
1.0
1040
0.0
1040
14.7970029751665599
1040
5.0084839135041497
1040
7.221862817092175
1040
50.0
1040
0.0
1040
0.0
1070
     0
1070
  1500
1070
     1
1070
     1
1070
     0
1070
     0
1070
     0
1070
     0
1040
0.0
1040
0.0
1040
0.0
1040
10.0
1040
10.0
1040
10.0
1040
10.0
1070
     0
1002
{
1002
}
1002
}
  0
VIEWPORT
  5
245B
 67
     1
  8
DEFPOINTS
 10
5.0083118925818537
 20
7.221576990044297
 30
0.0
 40
10.2711212327900601
 41
14.6921820936186496
 68
     2
 69
     2
1001
ACAD
1000
MVIEW
1002
{
1070
    16
1010
590.1952011751383225
1020
252.7924935918138942
1030
-55.1286955291153475
1010
0.0
1020
0.0
1030
1.0
1040
0.0
1040
448.7116603031068962
1040
-439.9272708422208211
1040
-34.6005826677797188
1040
50.0
1040
0.0
1040
0.0
1070
     0
1070
  1500
1070
     1
1070
     0
1070
     0
1070
     0
1070
     0
1070
     0
1040
0.0
1040
0.0
1040
0.0
1040
1.0
1040
1.0
1040
10.0
1040
10.0
1070
     0
1002
{
1002
}
1002
}
  0
VIEWPORT
  5
245F
 67
     1
  8
DEFPOINTS
 10
7.9014379121082419
 20
4.0747959528349273
 30
0.0
 40
2.9917890677936461
 41
3.4569691153773858
 68
     3
 69
     3
1001
ACAD
1000
MVIEW
1002
{
1070
    16
1010
574.7960369579908502
1020
233.5725189162012896
1030
-101.7162147331321052
1010
28.3158524417749504
1020
136.3741875770851095
1030
260.823849838077308
1040
2.9151379774055979
1040
187.8079346967228958
1040
0.0
1040
0.0
1040
50.0
1040
0.0
1040
0.0
1070
     0
1070
  1500
1070
     1
1070
     0
1070
     0
1070
     0
1070
     0
1070
     0
1040
0.0
1040
0.0
1040
0.0
1040
1.0
1040
1.0
1040
10.0
1040
10.0
1070
     0
1002
{
1002
}
1002
}
  0
ENDSEC
  0
EOF
