  0
SECTION
  2
HEADER
  9
$ACADVER
  1
AC1009
  9
$INSBASE
 10
0.0
 20
0.0
 30
0.0
  9
$EXTMIN
 10
-51.6719135736352726
 20
-151.2179196567288955
 30
-0.004272134979658
  9
$EXTMAX
 10
50.6226599302297018
 20
140.011960672702287
 30
0.0064088543950902
  9
$LIMMIN
 10
0.0
 20
0.0
  9
$LIMMAX
 10
296.9999999999998863
 20
420.0000000000001137
  9
$ORTHOMODE
 70
     1
  9
$REGENMODE
 70
     1
  9
$FILLMODE
 70
     1
  9
$QTEXTMODE
 70
     0
  9
$MIRRTEXT
 70
     1
  9
$DRAGMODE
 70
     2
  9
$LTSCALE
 40
10.0
  9
$OSMODE
 70
  2559
  9
$ATTMODE
 70
     1
  9
$TEXTSIZE
 40
3.5
  9
$TRACEWID
 40
0.5
  9
$TEXTSTYLE
  7
STANDARD
  9
$CLAYER
  8
STEMPEL
  9
$CELTYPE
  6
BYLAYER
  9
$CECOLOR
 62
   256
  9
$DIMSCALE
 40
1.0
  9
$DIMASZ
 40
3.5
  9
$DIMEXO
 40
1.0
  9
$DIMDLI
 40
7.0
  9
$DIMRND
 40
0.0
  9
$DIMDLE
 40
0.0
  9
$DIMEXE
 40
1.0
  9
$DIMTP
 40
0.0
  9
$DIMTM
 40
0.0
  9
$DIMTXT
 40
3.5
  9
$DIMCEN
 40
1.5
  9
$DIMTSZ
 40
0.0
  9
$DIMTOL
 70
     0
  9
$DIMLIM
 70
     0
  9
$DIMTIH
 70
     0
  9
$DIMTOH
 70
     0
  9
$DIMSE1
 70
     0
  9
$DIMSE2
 70
     0
  9
$DIMTAD
 70
     1
  9
$DIMZIN
 70
     8
  9
$DIMBLK
  1

  9
$DIMASO
 70
     1
  9
$DIMSHO
 70
     0
  9
$DIMPOST
  1

  9
$DIMAPOST
  1

  9
$DIMALT
 70
     0
  9
$DIMALTD
 70
     2
  9
$DIMALTF
 40
25.3999999999999986
  9
$DIMLFAC
 40
1.0
  9
$DIMTOFL
 70
     1
  9
$DIMTVP
 40
0.0
  9
$DIMTIX
 70
     0
  9
$DIMSOXD
 70
     0
  9
$DIMSAH
 70
     0
  9
$DIMBLK1
  1

  9
$DIMBLK2
  1

  9
$DIMSTYLE
  2
STANDARD
  9
$DIMCLRD
 70
     0
  9
$DIMCLRE
 70
     0
  9
$DIMCLRT
 70
     1
  9
$DIMTFAC
 40
0.5142857142857143
  9
$DIMGAP
 40
1.5
  9
$LUNITS
 70
     2
  9
$LUPREC
 70
     2
  9
$SKETCHINC
 40
1.0
  9
$FILLETRAD
 40
0.0
  9
$AUNITS
 70
     0
  9
$AUPREC
 70
     0
  9
$MENU
  1
ACAD
  9
$ELEVATION
 40
0.0
  9
$PELEVATION
 40
0.0
  9
$THICKNESS
 40
0.0
  9
$LIMCHECK
 70
     0
  9
$BLIPMODE
 70
     0
  9
$CHAMFERA
 40
0.0
  9
$CHAMFERB
 40
0.0
  9
$SKPOLY
 70
     0
  9
$TDCREATE
 40
2451337.6017592591233552
  9
$TDUPDATE
 40
2458387.5744560179300606
  9
$TDINDWG
 40
0.140678588
  9
$TDUSRTIMER
 40
0.140678588
  9
$USRTIMER
 70
     1
  9
$ANGBASE
 50
0.0
  9
$ANGDIR
 70
     0
  9
$PDMODE
 70
     0
  9
$PDSIZE
 40
0.0
  9
$PLINEWID
 40
0.0
  9
$COORDS
 70
     1
  9
$SPLFRAME
 70
     0
  9
$SPLINETYPE
 70
     6
  9
$SPLINESEGS
 70
     8
  9
$ATTDIA
 70
     1
  9
$ATTREQ
 70
     1
  9
$HANDLING
 70
     1
  9
$HANDSEED
  5
24F3
  9
$SURFTAB1
 70
     6
  9
$SURFTAB2
 70
     6
  9
$SURFTYPE
 70
     6
  9
$SURFU
 70
     6
  9
$SURFV
 70
     6
  9
$UCSNAME
  2

  9
$UCSORG
 10
0.0
 20
0.0
 30
0.0
  9
$UCSXDIR
 10
1.0
 20
0.0
 30
0.0
  9
$UCSYDIR
 10
0.0
 20
1.0
 30
0.0
  9
$PUCSNAME
  2

  9
$PUCSORG
 10
0.0
 20
0.0
 30
0.0
  9
$PUCSXDIR
 10
1.0
 20
0.0
 30
0.0
  9
$PUCSYDIR
 10
0.0
 20
1.0
 30
0.0
  9
$USERI1
 70
     0
  9
$USERI2
 70
     0
  9
$USERI3
 70
     0
  9
$USERI4
 70
     0
  9
$USERI5
 70
     0
  9
$USERR1
 40
0.0
  9
$USERR2
 40
0.0
  9
$USERR3
 40
0.0
  9
$USERR4
 40
0.0
  9
$USERR5
 40
0.0
  9
$WORLDVIEW
 70
     1
  9
$SHADEDGE
 70
     3
  9
$SHADEDIF
 70
    70
  9
$TILEMODE
 70
     1
  9
$MAXACTVP
 70
    16
  9
$PLIMCHECK
 70
     0
  9
$PEXTMIN
 10
-0.1167806627419665
 20
-0.0839216472401461
 30
-0.0000000000112498
  9
$PEXTMAX
 10
17.4584701124564816
 20
24.6003174875856416
 30
0.0000000000002956
  9
$PLIMMIN
 10
-0.2500002402958907
 20
-0.2499999962453767
  9
$PLIMMAX
 10
10.7499995194082203
 20
8.2499997634587334
  9
$UNITMODE
 70
     0
  9
$VISRETAIN
 70
     0
  9
$PLINEGEN
 70
     0
  9
$PSLTSCALE
 70
     0
  0
ENDSEC
  0
SECTION
  2
TABLES
  0
TABLE
  2
VPORT
 70
     1
  0
VPORT
  2
*ACTIVE
 70
     0
 10
0.0
 20
0.0
 11
1.0
 21
1.0
 12
-0.5246268217027535
 22
-50.3047445524380805
 13
0.0
 23
0.0
 14
1.0
 24
1.0
 15
10.0
 25
10.0
 16
-0.0000000000001232
 26
0.0
 36
554.964367973297044
 17
0.0
 27
44.7017650604247976
 37
-0.0000000000000129
 40
292.7144846471683763
 41
1.868197278911564
 42
50.0
 43
0.0
 44
0.0
 50
0.0
 51
0.0
 71
     0
 72
  1500
 73
     1
 74
     0
 75
     0
 76
     0
 77
     0
 78
     0
  0
ENDTAB
  0
TABLE
  2
LTYPE
 70
     3
  0
LTYPE
  2
CONTINUOUS
 70
     0
  3
Solid line
 72
    65
 73
     0
 40
0.0
  0
LTYPE
  2
VERDECKT
 70
     0
  3
_ _ _ _ _ _ _ _ _ _ _ _ _ _ _ _ _ _ _ _ _ _ _
 72
    65
 73
     2
 40
0.375
 49
0.25
 49
-0.125
  0
ENDTAB
  0
TABLE
  2
LAYER
 70
    11
  0
LAYER
  2
0
 70
     0
 62
     7
  6
CONTINUOUS
  0
LAYER
  2
VOLL
 70
     0
 62
     1
  6
CONTINUOUS
  0
LAYER
  2
STEMPEL
 70
     0
 62
     3
  6
CONTINUOUS
  0
LAYER
  2
DEFPOINTS
 70
     0
 62
     7
  6
CONTINUOUS
  0
ENDTAB
  0
TABLE
  2
STYLE
 70
     2
  0
STYLE
  2
STANDARD
 70
     0
 40
0.0
 41
0.8
 50
0.0
 71
     0
 42
3.5
  3
simplex.shx
  4

  0
STYLE
  2
GREEKS
 70
     0
 40
0.0
 41
0.8
 50
0.0
 71
     0
 42
2.5
  3
SIMPLEX.shx
  4

  0
ENDTAB
  0
TABLE
  2
VIEW
 70
     1
  0
ENDTAB
  0
TABLE
  2
UCS
 70
     0
  0
ENDTAB
  0
TABLE
  2
APPID
 70
    10
  0
APPID
  2
ACAD
 70
     0
  0
APPID
  2
ACAD_NAV_VCDISPLAY
 70
     0
  0
APPID
  2
ACAECLAYERSTANDARD
 70
     0
  0
APPID
  2
ACCMTRANSPARENCY
 70
     0
  0
APPID
  2
ACAD_PSEXT
 70
     0
  0
APPID
  2
ACAD_STEPID
 70
     0
  0
APPID
  2
ACAD_EXEMPT_FROM_CAD_STANDARDS
 70
     0
  0
APPID
  2
ACAD_MLEADERVER
 70
     0
  0
APPID
  2
ACAD_OBJECT_CHANGE_GUID
 70
     0
  0
APPID
  2
ACADANNOMONITORALERTICONDI
 70
     0
  0
ENDTAB
  0
TABLE
  2
DIMSTYLE
 70
     1
  0
DIMSTYLE
  2
STANDARD
 70
     0
  3

  4

  5

  6

  7

 40
1.0
 41
0.18
 42
0.0625
 43
0.38
 44
0.18
 45
0.0
 46
0.0
 47
0.0
 48
0.0
140
0.18
141
0.09
142
0.0
143
25.3999999999999986
144
1.0
145
0.0
146
1.0
147
0.09
 71
     0
 72
     0
 73
     1
 74
     1
 75
     0
 76
     0
 77
     0
 78
     0
170
     0
171
     2
172
     0
173
     0
174
     0
175
     0
176
     0
177
     0
178
     0
  0
ENDTAB
  0
ENDSEC
  0
SECTION
  2
BLOCKS
  0
BLOCK
  8
0
  2
$MODEL_SPACE
 70
     0
 10
0.0
 20
0.0
 30
0.0
  3
$MODEL_SPACE
  1

  0
ENDBLK
  5
36
  8
0
  0
BLOCK
 67
     1
  8
0
  2
$PAPER_SPACE
 70
     0
 10
0.0
 20
0.0
 30
0.0
  3
$PAPER_SPACE
  1

  0
ENDBLK
  5
34
 67
     1
  8
0
  0
BLOCK
  8
0
  2
A$C5C987431
 70
     0
 10
0.0
 20
0.0
 30
0.0
  3
A$C5C987431
  1

  0
LINE
  5
23D2
  8
0
  6
CONTINUOUS
 62
     3
 10
22.2990381056766012
 20
-35.6230669589463389
 30
0.0
 11
15.2990381056767095
 21
-23.4987113059642887
 31
-0.0000000000000018
  0
LINE
  5
23D3
  8
0
  6
CONTINUOUS
 62
     3
 10
12.7009618943234504
 20
-24.9987113059642887
 30
0.0
 11
15.2990381056768303
 21
-23.4987113059642887
 31
0.0000000000000006
  0
LINE
  5
23D4
  8
0
  6
CONTINUOUS
 62
     3
 10
12.7009618943234504
 20
-24.9987113059642887
 30
0.0
 11
19.7009618943233384
 21
-37.1230669589463389
 31
0.0000000000000018
  0
LINE
  5
23D5
  8
0
  6
CONTINUOUS
 62
     3
 10
19.7009618943233384
 20
-37.1230669589463389
 30
0.0
 11
22.2990381056767113
 21
-35.6230669589463389
 31
0.0000000000000006
  0
LINE
  5
23D6
  8
0
  6
CONTINUOUS
 62
     3
 10
15.2990381056767095
 20
-23.4987113059644201
 30
0.0
 11
11.7990381056767095
 21
-17.4365334794733506
 31
-0.0000000000000008
  0
LINE
  5
23D7
  8
0
  6
CONTINUOUS
 62
     3
 10
9.2009618943234557
 20
-18.9365334794732405
 30
0.0
 11
11.7990381056768303
 21
-17.4365334794732405
 31
0.0000000000000006
  0
LINE
  5
23D8
  8
0
  6
CONTINUOUS
 62
     3
 10
9.2009618943234557
 20
-18.9365334794732405
 30
0.0
 11
12.7009618943234504
 21
-24.99871130596431
 31
0.0000000000000008
  0
LINE
  5
23D9
  8
0
  6
CONTINUOUS
 62
     3
 10
25.7875558231703792
 20
-41.665356888749578
 30
0.0
 11
22.2990381056767113
 21
-35.6230669589463389
 31
-0.0000000000000008
  0
LINE
  5
23DA
  8
0
  6
CONTINUOUS
 62
     3
 10
19.7009618943233384
 20
-37.1230669589463389
 30
0.0
 11
23.1894796118169992
 21
-43.1653568887495922
 31
0.0000000000000008
  0
LINE
  5
23DB
  8
0
  6
CONTINUOUS
 62
     3
 10
19.7009618943234486
 20
37.1230669589465094
 30
0.0
 11
12.7009618943234504
 21
24.9987113059644592
 31
-0.0000000000000018
  0
LINE
  5
23DC
  8
0
  6
CONTINUOUS
 62
     3
 10
15.2990381056767095
 20
23.4987113059644699
 30
0.0
 11
12.7009618943234504
 21
24.9987113059644699
 31
-0.0000000000000006
  0
LINE
  5
23DD
  8
0
  6
CONTINUOUS
 62
     3
 10
15.2990381056767095
 20
23.4987113059644699
 30
0.0
 11
22.2990381056767113
 21
35.6230669589465094
 31
0.0000000000000018
  0
LINE
  5
23DE
  8
0
  6
CONTINUOUS
 62
     3
 10
22.2990381056767113
 20
35.6230669589464526
 30
0.0
 11
19.7009618943234486
 21
37.1230669589464526
 31
-0.0000000000000006
  0
LINE
  5
23DF
  8
0
  6
CONTINUOUS
 62
     3
 10
12.7009618943234504
 20
24.9987113059644805
 30
0.0
 11
9.2009618943234557
 21
18.936533479473411
 31
-0.0000000000000008
  0
LINE
  5
23E0
  8
0
  6
CONTINUOUS
 62
     3
 10
11.7990381056767095
 20
17.436533479473411
 30
0.0
 11
9.2009618943234557
 21
18.936533479473411
 31
-0.0000000000000006
  0
LINE
  5
23E1
  8
0
  6
CONTINUOUS
 62
     3
 10
11.7990381056767095
 20
17.436533479473411
 30
0.0
 11
15.2990381056767095
 21
23.4987113059644912
 31
0.0000000000000008
  0
LINE
  5
23E2
  8
0
  6
CONTINUOUS
 62
     3
 10
23.1894796118169992
 20
43.1653568887496633
 30
0.0
 11
19.7009618943233384
 21
37.1230669589464526
 31
-0.0000000000000008
  0
LINE
  5
23E3
  8
0
  6
CONTINUOUS
 62
     3
 10
22.2990381056767113
 20
35.6230669589464526
 30
0.0
 11
25.7875558231703792
 21
41.6653568887496419
 31
0.0000000000000008
  0
ARC
  5
23E4
  8
0
  6
CONTINUOUS
 62
     3
 10
0.0000000000001141
 20
-0.0000000000000411
 30
0.0
 40
24.3818495990036617
 50
63.5271309306108307
 51
180.0
  0
ARC
  5
23E5
  8
0
  6
CONTINUOUS
 62
     3
 10
0.0000000000001141
 20
0.0000000000000122
 30
0.0
 40
24.3818495990034698
 50
303.5271309306098146
 51
56.4728690693901783
  0
ARC
  5
23E6
  8
0
  6
CONTINUOUS
 62
     3
 10
0.0000000000000004
 20
-0.0000000000000198
 30
0.0
 40
24.3818495990035302
 50
179.999999999999801
 51
296.4728690693899011
  0
ARC
  5
23E7
  8
0
  6
CONTINUOUS
 62
     3
 10
0.000000000000125
 20
-0.0000000000000523
 30
0.0
 40
25.0000000000003411
 50
63.4398127675154697
 51
179.999999999999801
  0
ARC
  5
23E8
  8
0
  6
CONTINUOUS
 62
     3
 10
0.0000000000000113
 20
0.0000000000000187
 30
0.0
 40
25.0000000000002309
 50
303.4398127675149794
 51
56.5601872324849992
  0
ARC
  5
23E9
  8
0
  6
CONTINUOUS
 62
     3
 10
0.000000000000125
 20
0.0000000000000809
 30
0.0
 40
25.0000000000002309
 50
180.000000000000199
 51
296.560187232484509
  0
ARC
  5
23EA
  8
0
  6
CONTINUOUS
 62
     3
 10
0.000000000000016
 20
-0.0000000000000048
 30
0.0
 40
37.8356902976495419
 50
62.2720927772251471
 51
179.9999999999998863
  0
ARC
  5
23EB
  8
0
  6
CONTINUOUS
 62
     3
 10
0.000000000000016
 20
0.0000000000000254
 30
0.0
 40
37.8356902976495206
 50
302.2720927772252253
 51
57.7279072227749168
  0
ARC
  5
23EC
  8
0
  6
CONTINUOUS
 62
     3
 10
0.000000000000016
 20
0.00000000000002
 30
0.0
 40
37.8356902976495277
 50
180.0
 51
297.7279072227748884
  0
ARC
  5
23ED
  8
0
  6
CONTINUOUS
 62
     3
 10
0.0000000000001294
 20
-0.0000000000000902
 30
0.0
 40
38.406366701028162
 50
62.2383146604250825
 51
179.999999999999801
  0
ARC
  5
23EE
  8
0
  6
CONTINUOUS
 62
     3
 10
0.0000000000001294
 20
-0.0000000000000085
 30
0.0
 40
38.4063667010280128
 50
302.2383146604246917
 51
57.7616853395754504
  0
ARC
  5
23EF
  8
0
  6
CONTINUOUS
 62
     3
 10
0.0000000000000157
 20
0.0000000000000306
 30
0.0
 40
38.4063667010280625
 50
180.0
 51
297.7616853395753083
  0
LINE
  5
23F0
  8
0
  6
CONTINUOUS
 62
     3
 10
46.999999999999801
 20
-13.8564064605510602
 30
0.0
 11
46.999999999999801
 21
13.8564064605504207
 31
0.0
  0
LINE
  5
23F1
  8
0
  6
CONTINUOUS
 62
     3
 10
-35.500000000000199
 20
-33.7749907475934918
 30
0.0
 11
-11.5000000000002007
 21
-47.6313972081444774
 31
0.0000000000000053
  0
LINE
  5
23F2
  8
0
  6
CONTINUOUS
 62
     3
 10
-47.0000000000001918
 20
13.8564064605508506
 30
0.0
 11
-47.0000000000001918
 21
-13.8564064605514794
 31
0.0
  0
LINE
  5
23F3
  8
0
  6
CONTINUOUS
 62
     3
 10
-11.5000000000003109
 20
47.6313972081437811
 30
0.0
 11
-35.5000000000000924
 21
33.7749907475929092
 31
-0.0000000000000053
  0
CIRCLE
  5
23F4
  8
0
  6
CONTINUOUS
 62
     3
 10
0.0000000000000311
 20
0.0000000000000246
 30
0.0
 40
50.6000000000000014
  0
CIRCLE
  5
23F5
  8
0
  6
CONTINUOUS
 62
     3
 10
0.0000000000000311
 20
0.0000000000000206
 30
0.0
 40
49.0
  0
ARC
  5
23F6
  8
0
  6
CONTINUOUS
 62
     3
 10
0.0000000000000217
 20
0.0000000000000181
 30
0.0
 40
43.3999999999999773
 50
180.0
 51
298.0193366568641977
  0
ARC
  5
23F7
  8
0
  6
CONTINUOUS
 62
     3
 10
0.0000000000000217
 20
0.0000000000000216
 30
0.0
 40
43.3999999999999702
 50
301.9806633431358023
 51
58.0193366568642332
  0
ARC
  5
23F8
  8
0
  6
CONTINUOUS
 62
     3
 10
0.0000000000000217
 20
0.0000000000000181
 30
0.0
 40
43.3999999999999702
 50
61.9806633431357596
 51
180.0
  0
LINE
  5
23F9
  8
0
  6
VERDECKT
 62
     1
 10
22.2009618943233384
 20
-41.4531939778685512
 30
0.0
 11
24.7990381056767184
 21
-39.9531939778685512
 31
0.0000000000000006
  0
LINE
  5
23FA
  8
0
  6
VERDECKT
 62
     1
 10
23.2009618943233384
 20
-43.1852447854374475
 30
0.0
 11
25.7990381056767113
 21
-41.6852447854374404
 31
0.0000000000000006
  0
LINE
  5
23FB
  8
0
  6
VERDECKT
 62
     1
 10
25.7990381056767113
 20
-41.685244785437412
 30
0.0
 11
25.7875558231703792
 21
-41.665356888749578
 31
0.0
  0
LINE
  5
23FC
  8
0
  6
VERDECKT
 62
     1
 10
23.1894796118169992
 20
-43.1653568887495922
 30
0.0
 11
23.2009618943233384
 21
-43.185244785437412
 31
0.0
  0
LINE
  5
23FD
  8
0
  6
VERDECKT
 62
     1
 10
24.7990381056767184
 20
39.953193977868672
 30
0.0
 11
22.2009618943234592
 21
41.4531939778686578
 31
-0.0000000000000006
  0
LINE
  5
23FE
  8
0
  6
VERDECKT
 62
     1
 10
25.7990381056767113
 20
41.6852447854374972
 30
0.0
 11
23.2009618943234592
 21
43.1852447854374972
 31
-0.0000000000000006
  0
LINE
  5
23FF
  8
0
  6
VERDECKT
 62
     1
 10
23.2009618943233384
 20
43.1852447854375185
 30
0.0
 11
23.1894796118169992
 21
43.1653568887496633
 31
0.0
  0
LINE
  5
2400
  8
0
  6
VERDECKT
 62
     1
 10
25.7875558231703792
 20
41.6653568887496419
 30
0.0
 11
25.7990381056767113
 21
41.6852447854375114
 31
0.0
  0
ARC
  5
2401
  8
0
  6
VERDECKT
 62
     1
 10
-0.0000000000057976
 20
-0.0000000000098359
 30
0.0
 40
24.3818495990149486
 50
56.4728690693914004
 51
63.5271309306085286
  0
ARC
  5
2402
  8
0
  6
VERDECKT
 62
     1
 10
0.0000000000020468
 20
-0.0000000000035156
 30
0.0
 40
24.3818495989994695
 50
296.4728690693892759
 51
303.5271309306106104
  0
ARC
  5
2403
  8
0
  6
VERDECKT
 62
     1
 10
0.0000000000052409
 20
0.0000000000090817
 30
0.0
 40
24.9999999999897895
 50
56.5601872324835568
 51
63.4398127675166066
  0
ARC
  5
2404
  8
0
  6
VERDECKT
 62
     1
 10
0.0000000000064914
 20
-0.0000000000112824
 30
0.0
 40
24.9999999999872315
 50
296.5601872324830879
 51
303.4398127675169121
  0
ARC
  5
2405
  8
0
  6
VERDECKT
 62
     1
 10
0.0000000000067235
 20
0.0000000000117262
 30
0.0
 40
37.835690297636063
 50
57.7279072227740571
 51
62.2720927772258577
  0
ARC
  5
2406
  8
0
  6
VERDECKT
 62
     1
 10
-0.000000000013399
 20
0.0000000000234715
 30
0.0
 40
37.8356902976765426
 50
297.7279072227763095
 51
302.27209277722352
  0
ARC
  5
2407
  8
0
  6
VERDECKT
 62
     1
 10
-0.000000000000098
 20
0.0000000000001159
 30
0.0
 40
38.4063667010280128
 50
57.7616853395750596
 51
62.238314660424642
  0
ARC
  5
2408
  8
0
  6
VERDECKT
 62
     1
 10
0.000000000005359
 20
-0.0000000000092207
 30
0.0
 40
38.4063667010173972
 50
297.761685339574683
 51
302.2383146604254875
  0
CIRCLE
  5
2409
  8
0
  6
VERDECKT
 62
     1
 10
0.0000000000000113
 20
0.0000000000000152
 30
0.0
 40
26.5000000000001101
  0
CIRCLE
  5
240A
  8
0
  6
VERDECKT
 62
     1
 10
0.0000000000000004
 20
0.0000000000000122
 30
0.0
 40
25.8875793553185112
  0
LINE
  5
240B
  8
0
  6
VERDECKT
 62
     1
 10
-24.4999999999999716
 20
-42.4352447854374617
 30
0.0
 11
-13.5674797050267806
 21
-48.7471383206612714
 31
0.0000000000000024
  0
LINE
  5
240C
  8
0
  6
VERDECKT
 62
     1
 10
-35.432520294973159
 20
-36.123351250213652
 30
0.0
 11
-24.4999999999999716
 21
-42.4352447854374617
 31
0.0000000000000024
  0
LINE
  5
240D
  8
0
  6
VERDECKT
 62
     1
 10
-24.4999999999999716
 20
42.4352447854375114
 30
0.0
 11
-35.432520294973159
 21
36.1233512502137017
 31
-0.0000000000000024
  0
LINE
  5
240E
  8
0
  6
VERDECKT
 62
     1
 10
-13.5674797050267806
 20
48.7471383206613282
 30
0.0
 11
-24.4999999999999716
 21
42.4352447854375114
 31
-0.0000000000000024
  0
LINE
  5
240F
  8
0
  6
VERDECKT
 62
     1
 10
49.0000000000001421
 20
0.0000000000000202
 30
0.0
 11
49.0000000000001421
 21
12.6237870704471806
 31
0.0
  0
LINE
  5
2410
  8
0
  6
VERDECKT
 62
     1
 10
49.0000000000001421
 20
-12.6237870704471309
 30
0.0
 11
49.0000000000001421
 21
0.0000000000000195
 31
0.0
  0
LINE
  5
2411
  8
0
  6
VERDECKT
 62
     1
 10
-48.9999999999999716
 20
12.62378707044763
 30
0.0
 11
-48.9999999999999716
 21
0.0000000000000195
 31
0.0
  0
LINE
  5
2412
  8
0
  6
VERDECKT
 62
     1
 10
-48.9999999999999716
 20
0.0000000000000202
 30
0.0
 11
-48.9999999999999716
 21
-12.6237870704475803
 31
0.0
  0
CIRCLE
  5
2413
  8
0
  6
VERDECKT
 62
     1
 10
0.0
 20
0.0000000000000121
 30
0.0
 40
45.1538342168696474
  0
CIRCLE
  5
2414
  8
0
  6
VERDECKT
 62
     1
 10
0.0000000000000157
 20
0.0000000000000164
 30
0.0
 40
40.0
  0
CIRCLE
  5
2415
  8
0
  6
VERDECKT
 62
     1
 10
0.0000000000000217
 20
0.0000000000000181
 30
0.0
 40
45.0
  0
ARC
  5
2416
  8
0
  6
VERDECKT
 62
     1
 10
0.0000000000256013
 20
-0.0000000000442416
 30
0.0
 40
43.3999999999488821
 50
298.019336656861924
 51
301.980663343138076
  0
ARC
  5
2417
  8
0
  6
VERDECKT
 62
     1
 10
0.0000000000256013
 20
0.0000000000442849
 30
0.0
 40
43.3999999999488679
 50
58.0193366568619524
 51
61.98066334313814
  0
CIRCLE
  5
2418
  8
0
  6
VERDECKT
 62
     1
 10
0.0000000000000156
 20
0.0000000000000164
 30
0.0
 40
38.4000000000000909
  0
CIRCLE
  5
2419
  8
0
  6
VERDECKT
 62
     1
 10
0.0
 20
0.0000000000000121
 30
0.0
 40
43.5000000000001066
  0
ENDBLK
  5
241B
  8
0
  0
BLOCK
  8
0
  2
A$C73061C47
 70
     0
 10
0.0
 20
0.0
 30
0.0
  3
A$C73061C47
  1

  0
LINE
  5
241F
  8
0
  6
CONTINUOUS
 62
     3
 10
-13.5674797050268001
 20
124.9999999999997016
 30
-0.0000000000000278
 11
-35.4325202949731874
 21
124.9999999999997016
 31
-0.0000000000000278
210
0.0
220
1.0
230
-0.0000000000000002
  0
LINE
  5
2420
  8
0
  6
CONTINUOUS
 62
     3
 10
-35.4325202949731874
 20
131.9999999999996874
 30
-0.0000000000000293
 11
-35.4325202949731874
 21
124.9999999999997016
 31
-0.0000000000000278
210
0.0
220
1.0
230
-0.0000000000000002
  0
LINE
  5
2421
  8
0
  6
CONTINUOUS
 62
     3
 10
-13.5674797050268108
 20
124.9999999999997016
 30
-0.0000000000000278
 11
-13.5674797050268108
 21
131.9999999999996874
 31
-0.0000000000000293
210
0.0
220
1.0
230
-0.0000000000000002
  0
LINE
  5
2422
  8
0
  6
CONTINUOUS
 62
     3
 10
50.6000000000000227
 20
124.9999999999997016
 30
-0.0000000000000278
 11
49.0000000000001066
 21
124.9999999999997016
 31
-0.0000000000000278
210
0.0
220
1.0
230
-0.0000000000000002
  0
LINE
  5
2423
  8
0
  6
CONTINUOUS
 62
     3
 10
49.0000000000001066
 20
131.9999999999996874
 30
-0.0000000000000293
 11
49.0000000000001066
 21
124.9999999999997016
 31
-0.0000000000000278
210
0.0
220
1.0
230
-0.0000000000000002
  0
LINE
  5
2424
  8
0
  6
CONTINUOUS
 62
     3
 10
-50.6000000000000227
 20
131.9999999999996874
 30
-0.0000000000000293
 11
-49.0
 21
131.9999999999996874
 31
-0.0000000000000293
210
0.0
220
1.0
230
-0.0000000000000002
  0
LINE
  5
2425
  8
0
  6
CONTINUOUS
 62
     3
 10
-49.0
 20
124.9999999999997016
 30
-0.0000000000000278
 11
-49.0
 21
131.9999999999996874
 31
-0.0000000000000293
210
0.0
220
1.0
230
-0.0000000000000002
  0
LINE
  5
2426
  8
0
  6
CONTINUOUS
 62
     3
 10
-35.4325202949732088
 20
131.9999999999996874
 30
-0.0000000000000293
 11
-13.5674797050268108
 21
131.9999999999996874
 31
-0.0000000000000293
210
0.0
220
1.0
230
-0.0000000000000002
  0
LINE
  5
2427
  8
0
  6
CONTINUOUS
 62
     3
 10
49.0000000000001066
 20
131.9999999999996874
 30
-0.0000000000000293
 11
50.6000000000000227
 21
131.9999999999996874
 31
-0.0000000000000293
210
0.0
220
1.0
230
-0.0000000000000002
  0
LINE
  5
2428
  8
0
  6
CONTINUOUS
 62
     3
 10
-48.9999999999999929
 20
124.9999999999997016
 30
-0.0000000000000278
 11
-50.6000000000000227
 21
124.9999999999997016
 31
-0.0000000000000278
210
0.0
220
1.0
230
-0.0000000000000002
  0
LINE
  5
2429
  8
0
  6
CONTINUOUS
 62
     3
 10
50.6000000000000227
 20
139.999999999999801
 30
-0.0000000000000311
 11
-50.6000000000000227
 21
139.999999999999801
 31
-0.0000000000000311
210
0.0
220
1.0
230
-0.0000000000000002
  0
LINE
  5
242A
  8
0
  6
CONTINUOUS
 62
     3
 10
45.1538342168696474
 20
0.0
 30
0.0
 11
-45.1538342168696474
 21
0.0
 31
0.0
210
0.0
220
1.0
230
-0.0000000000000002
  0
LINE
  5
242B
  8
0
  6
CONTINUOUS
 62
     3
 10
40.2480656548268598
 20
19.227980864183511
 30
-0.0000000000000043
 11
45.1538342168696474
 21
0.0
 31
0.0
210
0.0
220
1.0
230
-0.0000000000000002
  0
LINE
  5
242C
  8
0
  6
CONTINUOUS
 62
     3
 10
-40.2480656548268598
 20
19.227980864183511
 30
-0.0000000000000043
 11
-45.1538342168696474
 21
0.0
 31
0.0
210
0.0
220
1.0
230
-0.0000000000000002
  0
ARC
  5
242D
  8
0
  6
CONTINUOUS
 62
     3
 10
-47.9918107374199607
 20
21.2036964344765089
 30
0.0
 40
7.9918108034964792
210
0.0
220
-0.0000000000000002
230
-1.0
 50
345.6870803401250214
 51
0.0073678132500289
  0
ARC
  5
242E
  8
0
  6
CONTINUOUS
 62
     3
 10
47.9918107374199607
 20
21.2036964344765195
 30
0.0
 40
7.9918108034964792
210
0.0
220
-0.0000000000000002
230
-1.0
 50
179.9926321867498871
 51
194.312919659875007
  0
LINE
  5
242F
  8
0
  6
CONTINUOUS
 62
     3
 10
-40.0
 20
21.2047241222026912
 30
-0.0000000000000047
 11
-40.0
 21
70.5145787565056139
 31
-0.0000000000000157
210
0.0
220
1.0
230
-0.0000000000000002
  0
LINE
  5
2430
  8
0
  6
CONTINUOUS
 62
     3
 10
40.0
 20
21.2047241222026912
 30
-0.0000000000000047
 11
40.0
 21
70.5145787565056139
 31
-0.0000000000000157
210
0.0
220
1.0
230
-0.0000000000000002
  0
ARC
  5
2431
  8
0
  6
CONTINUOUS
 62
     3
 10
-48.0000000000000711
 20
70.5145787565056708
 30
0.0
 40
8.0000000000000782
210
0.0
220
-0.0000000000000002
230
-1.0
 50
359.9999999999997158
 51
21.0375110254224502
  0
ARC
  5
2432
  8
0
  6
CONTINUOUS
 62
     3
 10
48.0000000000000711
 20
70.5145787565056708
 30
0.0
 40
8.0000000000000782
210
0.0
220
-0.0000000000000002
230
-1.0
 50
158.9624889745774965
 51
180.000000000000199
  0
LINE
  5
2433
  8
0
  6
CONTINUOUS
 62
     3
 10
-40.533235150375539
 20
73.3864113909767326
 30
-0.0000000000000163
 11
-44.360117819549238
 21
83.3363063308282364
 31
-0.0000000000000185
210
0.0
220
1.0
230
-0.0000000000000002
  0
LINE
  5
2434
  8
0
  6
CONTINUOUS
 62
     3
 10
40.533235150375539
 20
73.3864113909767326
 30
-0.0000000000000163
 11
44.360117819549238
 21
83.3363063308282364
 31
-0.0000000000000185
210
0.0
220
1.0
230
-0.0000000000000002
  0
ARC
  5
2435
  8
0
  6
CONTINUOUS
 62
     3
 10
-35.3999999999986485
 20
86.7825054921939056
 30
0.0
 40
9.6000000000013515
210
0.0
220
-0.0000000000000002
230
-1.0
 50
180.000000000003098
 51
201.0375110254221056
  0
ARC
  5
2436
  8
0
  6
CONTINUOUS
 62
     3
 10
35.3999999999986485
 20
86.7825054921939056
 30
0.0
 40
9.6000000000013515
210
0.0
220
-0.0000000000000002
230
-1.0
 50
338.9624889745778091
 51
359.9999999999968168
  0
LINE
  5
2437
  8
0
  6
CONTINUOUS
 62
     3
 10
-45.0
 20
86.7825054921933798
 30
-0.0000000000000193
 11
-45.0
 21
97.912515677834989
 31
-0.0000000000000217
210
0.0
220
1.0
230
-0.0000000000000002
  0
LINE
  5
2438
  8
0
  6
CONTINUOUS
 62
     3
 10
45.0
 20
86.7825054921933798
 30
-0.0000000000000193
 11
45.0
 21
97.912515677834989
 31
-0.0000000000000217
210
0.0
220
1.0
230
-0.0000000000000002
  0
ARC
  5
2439
  8
0
  6
CONTINUOUS
 62
     3
 10
-52.9999999999990123
 20
97.9125156778351737
 30
0.0
 40
7.9999999999990052
210
0.0
220
-0.0000000000000002
230
-1.0
 50
359.9999999999986926
 51
29.2488263365501098
  0
ARC
  5
243A
  8
0
  6
CONTINUOUS
 62
     3
 10
52.9999999999988489
 20
97.9125156778352164
 30
0.0
 40
7.9999999999988498
210
0.0
220
-0.0000000000000002
230
-1.0
 50
150.751173663449606
 51
180.0000000000015916
  0
LINE
  5
243B
  8
0
  6
CONTINUOUS
 62
     3
 10
-46.0199518724023307
 20
101.8213426292898021
 30
-0.0000000000000226
 11
-49.3760577531174931
 21
107.8143888448523029
 31
-0.0000000000000239
210
0.0
220
1.0
230
-0.0000000000000002
  0
LINE
  5
243C
  8
0
  6
CONTINUOUS
 62
     3
 10
46.0199518724023307
 20
101.8213426292898021
 30
-0.0000000000000226
 11
49.3760577531174931
 21
107.8143888448523029
 31
-0.0000000000000239
210
0.0
220
1.0
230
-0.0000000000000002
  0
ARC
  5
243D
  8
0
  6
CONTINUOUS
 62
     3
 10
-41.0000000000011582
 20
112.5049811865978029
 30
0.0
 40
9.5999999999990422
210
0.0
220
-0.0000000000000002
230
-1.0
 50
179.9999999999992042
 51
209.2488263365488024
  0
ARC
  5
243E
  8
0
  6
CONTINUOUS
 62
     3
 10
41.0000000000011582
 20
112.5049811865978029
 30
0.0
 40
9.5999999999990457
210
0.0
220
-0.0000000000000002
230
-1.0
 50
330.7511736634510839
 51
0.0000000000007633
  0
LINE
  5
243F
  8
0
  6
CONTINUOUS
 62
     3
 10
-50.6000000000002501
 20
112.5049811865979024
 30
-0.000000000000025
 11
-50.6000000000002501
 21
124.9999999999997016
 31
-0.0000000000000278
210
0.0
220
1.0
230
-0.0000000000000002
  0
LINE
  5
2440
  8
0
  6
CONTINUOUS
 62
     3
 10
-50.6000000000002501
 20
131.9999999999996874
 30
-0.0000000000000293
 11
-50.6000000000002501
 21
139.999999999999801
 31
-0.0000000000000311
210
0.0
220
1.0
230
-0.0000000000000002
  0
LINE
  5
2441
  8
0
  6
CONTINUOUS
 62
     3
 10
50.6000000000002501
 20
112.5049811865979024
 30
-0.000000000000025
 11
50.6000000000002501
 21
124.9999999999997016
 31
-0.0000000000000278
210
0.0
220
1.0
230
-0.0000000000000002
  0
LINE
  5
2442
  8
0
  6
CONTINUOUS
 62
     3
 10
50.6000000000002501
 20
131.9999999999996874
 30
-0.0000000000000293
 11
50.6000000000002501
 21
139.999999999999801
 31
-0.0000000000000311
210
0.0
220
1.0
230
-0.0000000000000002
  0
LINE
  5
2443
  8
0
  6
VERDECKT
 62
     1
 10
22.2990381056765692
 20
131.9999999999996021
 30
-0.0000000000000293
 11
15.2990381056766793
 21
126.9999999999996021
 31
-0.0000000000000282
210
0.0
220
1.0
230
-0.0000000000000002
  0
LINE
  5
2444
  8
0
  6
VERDECKT
 62
     1
 10
12.7009618943234308
 20
126.9999999999996021
 30
-0.0000000000000282
 11
15.2990381056768001
 21
126.9999999999996021
 31
-0.0000000000000282
210
0.0
220
1.0
230
-0.0000000000000002
  0
LINE
  5
2445
  8
0
  6
VERDECKT
 62
     1
 10
12.7009618943234308
 20
126.9999999999996021
 30
-0.0000000000000282
 11
19.70096189432331
 21
131.9999999999996021
 31
-0.0000000000000293
210
0.0
220
1.0
230
-0.0000000000000002
  0
LINE
  5
2446
  8
0
  6
VERDECKT
 62
     1
 10
9.2009618943234273
 20
126.9999999999997016
 30
-0.0000000000000282
 11
12.7009618943234308
 21
126.9999999999996021
 31
-0.0000000000000282
210
0.0
220
1.0
230
-0.0000000000000002
  0
LINE
  5
2447
  8
0
  6
VERDECKT
 62
     1
 10
11.7990381056768001
 20
126.9999999999997016
 30
-0.0000000000000282
 11
11.7990381056766793
 21
119.7999999999997982
 31
-0.0000000000000266
210
0.0
220
1.0
230
-0.0000000000000002
  0
LINE
  5
2448
  8
0
  6
VERDECKT
 62
     1
 10
9.2009618943233136
 20
119.7999999999997982
 30
-0.0000000000000266
 11
9.2009618943234273
 21
126.9999999999997016
 31
-0.0000000000000282
210
0.0
220
1.0
230
-0.0000000000000002
  0
LINE
  5
2449
  8
0
  6
VERDECKT
 62
     1
 10
12.7009618943234308
 20
119.7999999999997982
 30
-0.0000000000000266
 11
15.2990381056768001
 21
119.7999999999997982
 31
-0.0000000000000266
210
0.0
220
1.0
230
-0.0000000000000002
  0
LINE
  5
244A
  8
0
  6
VERDECKT
 62
     1
 10
12.7009618943234308
 20
119.7999999999997982
 30
-0.0000000000000266
 11
9.2009618943234273
 21
119.7999999999997982
 31
-0.0000000000000266
210
0.0
220
1.0
230
-0.0000000000000002
  0
LINE
  5
244B
  8
0
  6
VERDECKT
 62
     1
 10
15.2990381056768001
 20
119.7999999999997982
 30
-0.0000000000000266
 11
22.29903810567669
 21
114.7999999999997982
 31
-0.0000000000000255
210
0.0
220
1.0
230
-0.0000000000000002
  0
LINE
  5
244C
  8
0
  6
VERDECKT
 62
     1
 10
19.70096189432331
 20
114.7999999999997982
 30
-0.0000000000000255
 11
12.7009618943234308
 21
119.7999999999997982
 31
-0.0000000000000266
210
0.0
220
1.0
230
-0.0000000000000002
  0
LINE
  5
244D
  8
0
  6
VERDECKT
 62
     1
 10
23.20096189432331
 20
114.7999999999996987
 30
-0.0000000000000255
 11
25.79903810567669
 21
114.7999999999996987
 31
-0.0000000000000255
210
0.0
220
1.0
230
-0.0000000000000002
  0
LINE
  5
244E
  8
0
  6
VERDECKT
 62
     1
 10
23.20096189432331
 20
114.7999999999996987
 30
-0.0000000000000255
 11
19.70096189432331
 21
114.7999999999997982
 31
-0.0000000000000255
210
0.0
220
1.0
230
-0.0000000000000002
  0
LINE
  5
244F
  8
0
  6
VERDECKT
 62
     1
 10
25.79903810567669
 20
114.7999999999996987
 30
-0.0000000000000255
 11
25.79903810567669
 21
117.2999999999996987
 31
-0.000000000000026
210
0.0
220
1.0
230
-0.0000000000000002
  0
LINE
  5
2450
  8
0
  6
VERDECKT
 62
     1
 10
23.20096189432331
 20
117.2999999999996987
 30
-0.000000000000026
 11
25.79903810567669
 21
117.2999999999996987
 31
-0.000000000000026
210
0.0
220
1.0
230
-0.0000000000000002
  0
LINE
  5
2451
  8
0
  6
VERDECKT
 62
     1
 10
23.20096189432331
 20
117.2999999999996987
 30
-0.000000000000026
 11
23.20096189432331
 21
114.7999999999996987
 31
-0.0000000000000255
210
0.0
220
1.0
230
-0.0000000000000002
  0
LINE
  5
2452
  8
0
  6
VERDECKT
 62
     1
 10
25.79903810567669
 20
117.2999999999996987
 30
-0.000000000000026
 11
24.79903810567669
 21
118.4547005383790008
 31
-0.0000000000000263
210
0.0
220
1.0
230
-0.0000000000000002
  0
LINE
  5
2453
  8
0
  6
VERDECKT
 62
     1
 10
22.20096189432331
 20
118.4547005383790008
 30
-0.0000000000000263
 11
24.79903810567669
 21
118.4547005383790008
 31
-0.0000000000000263
210
0.0
220
1.0
230
-0.0000000000000002
  0
LINE
  5
2454
  8
0
  6
VERDECKT
 62
     1
 10
22.20096189432331
 20
118.4547005383790008
 30
-0.0000000000000263
 11
23.20096189432331
 21
117.2999999999996987
 31
-0.000000000000026
210
0.0
220
1.0
230
-0.0000000000000002
  0
LINE
  5
2455
  8
0
  6
VERDECKT
 62
     1
 10
24.79903810567669
 20
118.4547005383790008
 30
-0.0000000000000263
 11
24.79903810567669
 21
128.3452994616204137
 31
-0.0000000000000285
210
0.0
220
1.0
230
-0.0000000000000002
  0
LINE
  5
2456
  8
0
  6
VERDECKT
 62
     1
 10
22.20096189432331
 20
128.3452994616204137
 30
-0.0000000000000285
 11
24.79903810567669
 21
128.3452994616204137
 31
-0.0000000000000285
210
0.0
220
1.0
230
-0.0000000000000002
  0
LINE
  5
2457
  8
0
  6
VERDECKT
 62
     1
 10
22.20096189432331
 20
128.3452994616204137
 30
-0.0000000000000285
 11
22.20096189432331
 21
118.4547005383790008
 31
-0.0000000000000263
210
0.0
220
1.0
230
-0.0000000000000002
  0
LINE
  5
2458
  8
0
  6
VERDECKT
 62
     1
 10
24.79903810567669
 20
128.3452994616204137
 30
-0.0000000000000285
 11
25.79903810567669
 21
129.4999999999996874
 31
-0.0000000000000288
210
0.0
220
1.0
230
-0.0000000000000002
  0
LINE
  5
2459
  8
0
  6
VERDECKT
 62
     1
 10
23.20096189432331
 20
129.4999999999996874
 30
-0.0000000000000288
 11
25.79903810567669
 21
129.4999999999996874
 31
-0.0000000000000288
210
0.0
220
1.0
230
-0.0000000000000002
  0
LINE
  5
245A
  8
0
  6
VERDECKT
 62
     1
 10
23.20096189432331
 20
129.4999999999996874
 30
-0.0000000000000288
 11
22.20096189432331
 21
128.3452994616204137
 31
-0.0000000000000285
210
0.0
220
1.0
230
-0.0000000000000002
  0
LINE
  5
245B
  8
0
  6
VERDECKT
 62
     1
 10
25.79903810567669
 20
129.4999999999996874
 30
-0.0000000000000288
 11
25.79903810567669
 21
131.9999999999996874
 31
-0.0000000000000293
210
0.0
220
1.0
230
-0.0000000000000002
  0
LINE
  5
245C
  8
0
  6
VERDECKT
 62
     1
 10
23.20096189432331
 20
131.9999999999996874
 30
-0.0000000000000293
 11
25.79903810567669
 21
131.9999999999996874
 31
-0.0000000000000293
210
0.0
220
1.0
230
-0.0000000000000002
  0
LINE
  5
245D
  8
0
  6
VERDECKT
 62
     1
 10
23.20096189432331
 20
131.9999999999996874
 30
-0.0000000000000293
 11
23.20096189432331
 21
129.4999999999996874
 31
-0.0000000000000288
210
0.0
220
1.0
230
-0.0000000000000002
  0
LINE
  5
245E
  8
0
  6
VERDECKT
 62
     1
 10
19.70096189432331
 20
131.9999999999996021
 30
-0.0000000000000293
 11
23.20096189432331
 21
131.9999999999996874
 31
-0.0000000000000293
210
0.0
220
1.0
230
-0.0000000000000002
  0
LINE
  5
245F
  8
0
  6
VERDECKT
 62
     1
 10
-37.8356902976495419
 20
72.0504073814837085
 30
-0.000000000000016
 11
37.8356902976495419
 21
72.0504073814837085
 31
-0.000000000000016
210
0.0
220
1.0
230
-0.0000000000000002
  0
LINE
  5
2460
  8
0
  6
VERDECKT
 62
     1
 10
-38.406366701028098
 20
70.5855823354031173
 30
-0.0000000000000157
 11
38.406366701028098
 21
70.5855823354031173
 31
-0.0000000000000157
210
0.0
220
1.0
230
-0.0000000000000002
  0
LINE
  5
2461
  8
0
  6
VERDECKT
 62
     1
 10
-25.8875793553185112
 20
2.0
 30
-0.0000000000000004
 11
25.8875793553185112
 21
2.0
 31
-0.0000000000000004
210
0.0
220
1.0
230
-0.0000000000000002
  0
LINE
  5
2462
  8
0
  6
VERDECKT
 62
     1
 10
-24.3818495990036013
 20
1.9999999999999949
 30
-0.0000000000000004
 11
-25.0000000000001705
 21
9.0654914143626932
 31
-0.000000000000002
210
0.0
220
1.0
230
-0.0000000000000002
  0
LINE
  5
2463
  8
0
  6
VERDECKT
 62
     1
 10
24.3818495990036013
 20
1.9999999999999949
 30
-0.0000000000000004
 11
25.0000000000001705
 21
9.0654914143626932
 31
-0.000000000000002
210
0.0
220
1.0
230
-0.0000000000000002
  0
LINE
  5
2464
  8
0
  6
VERDECKT
 62
     1
 10
25.0000000000001101
 20
50.8258493095720709
 30
-0.0000000000000113
 11
25.0000000000001101
 21
9.0654914143626986
 31
-0.000000000000002
210
0.0
220
1.0
230
-0.0000000000000002
  0
LINE
  5
2465
  8
0
  6
VERDECKT
 62
     1
 10
-25.0000000000001101
 20
50.8258493095720709
 30
-0.0000000000000113
 11
-25.0000000000001101
 21
9.0654914143626986
 31
-0.000000000000002
210
0.0
220
1.0
230
-0.0000000000000002
  0
ARC
  5
2466
  8
0
  6
VERDECKT
 62
     1
 10
34.4999999999975628
 20
50.8258493095732007
 30
0.0
 40
9.4999999999973284
210
0.0
220
-0.0000000000000002
230
-1.0
 50
163.300755766008507
 51
180.0000000000069065
  0
ARC
  5
2467
  8
0
  6
VERDECKT
 62
     1
 10
-34.4999999999972431
 20
50.8258493095732433
 30
0.0
 40
9.4999999999969997
210
0.0
220
-0.0000000000000002
230
-1.0
 50
359.9999999999928946
 51
16.699244233991859
  0
LINE
  5
2468
  8
0
  6
VERDECKT
 62
     1
 10
-25.4006502903990885
 20
53.5556542224523895
 30
-0.0000000000000119
 11
-27.9908517430632209
 21
62.1896590646658325
 31
-0.0000000000000138
210
0.0
220
1.0
230
-0.0000000000000002
  0
LINE
  5
2469
  8
0
  6
VERDECKT
 62
     1
 10
25.4006502903990885
 20
53.5556542224523895
 30
-0.0000000000000119
 11
27.9908517430632209
 21
62.1896590646658325
 31
-0.0000000000000138
210
0.0
220
1.0
230
-0.0000000000000002
  0
ARC
  5
246A
  8
0
  6
VERDECKT
 62
     1
 10
37.1859840811858433
 20
59.4311193632290014
 30
0.0
 40
9.5999999999995698
210
0.0
220
-0.0000000000000002
230
-1.0
 50
127.6119684579445988
 51
163.3007557660060911
  0
ARC
  5
246B
  8
0
  6
VERDECKT
 62
     1
 10
-37.1859840811858433
 20
59.4311193632290014
 30
0.0
 40
9.5999999999995715
210
0.0
220
-0.0000000000000002
230
-1.0
 50
16.6992442339939089
 51
52.3880315420554226
  0
LINE
  5
246C
  8
0
  6
VERDECKT
 62
     1
 10
-31.3270018298803201
 20
67.0358762284337359
 30
-0.0000000000000149
 11
-37.8356902976495419
 21
72.0504073814837085
 31
-0.000000000000016
210
0.0
220
1.0
230
-0.0000000000000002
  0
LINE
  5
246D
  8
0
  6
VERDECKT
 62
     1
 10
31.3270018298803201
 20
67.0358762284337359
 30
-0.0000000000000149
 11
37.8356902976495419
 21
72.0504073814837085
 31
-0.000000000000016
210
0.0
220
1.0
230
-0.0000000000000002
  0
LINE
  5
246E
  8
0
  6
VERDECKT
 62
     1
 10
37.8356902976495135
 20
72.0504073814836943
 30
-0.000000000000016
 11
38.406366701028027
 21
70.5855823354031031
 31
-0.0000000000000157
210
0.0
220
1.0
230
-0.0000000000000002
  0
LINE
  5
246F
  8
0
  6
VERDECKT
 62
     1
 10
-37.8356902976495135
 20
72.0504073814836943
 30
-0.000000000000016
 11
-38.406366701028027
 21
70.5855823354031031
 31
-0.0000000000000157
210
0.0
220
1.0
230
-0.0000000000000002
  0
LINE
  5
2470
  8
0
  6
VERDECKT
 62
     1
 10
-32.2310530965337279
 20
65.8388137528872619
 30
-0.0000000000000146
 11
-38.4063667010280412
 21
70.5855823354031315
 31
-0.0000000000000157
210
0.0
220
1.0
230
-0.0000000000000002
  0
LINE
  5
2471
  8
0
  6
VERDECKT
 62
     1
 10
32.2310530965337279
 20
65.8388137528872619
 30
-0.0000000000000146
 11
38.4063667010280412
 21
70.5855823354031315
 31
-0.0000000000000157
210
0.0
220
1.0
230
-0.0000000000000002
  0
ARC
  5
2472
  8
0
  6
VERDECKT
 62
     1
 10
37.0994517492968114
 20
59.4906884738960571
 30
0.0
 40
7.9999999999995248
210
0.0
220
-0.0000000000000002
230
-1.0
 50
127.4847200510376979
 51
163.300755766008109
  0
ARC
  5
2473
  8
0
  6
VERDECKT
 62
     1
 10
-37.099451749296847
 20
59.4906884738960429
 30
0.0
 40
7.9999999999995657
210
0.0
220
-0.0000000000000002
230
-1.0
 50
16.6992442339919407
 51
52.5152799489620818
  0
LINE
  5
2474
  8
0
  6
VERDECKT
 62
     1
 10
-26.8373897182308916
 20
53.1246323941024912
 30
-0.0000000000000118
 11
-29.4368414675280405
 21
61.7894715584264418
 31
-0.0000000000000137
210
0.0
220
1.0
230
-0.0000000000000002
  0
LINE
  5
2475
  8
0
  6
VERDECKT
 62
     1
 10
26.8373897182308916
 20
53.1246323941024912
 30
-0.0000000000000118
 11
29.4368414675280405
 21
61.7894715584264418
 31
-0.0000000000000137
210
0.0
220
1.0
230
-0.0000000000000002
  0
ARC
  5
2476
  8
0
  6
VERDECKT
 62
     1
 10
34.5000000000021529
 20
50.8258493095716588
 30
0.0
 40
8.0000000000020322
210
0.0
220
-0.0000000000000002
230
-1.0
 50
163.3007557660100986
 51
179.9999999999990905
  0
ARC
  5
2477
  8
0
  6
VERDECKT
 62
     1
 10
-34.5000000000023519
 20
50.8258493095716091
 30
0.0
 40
8.0000000000022382
210
0.0
220
-0.0000000000000002
230
-1.0
 50
0.0000000000011704
 51
16.6992442339896989
  0
LINE
  5
2478
  8
0
  6
VERDECKT
 62
     1
 10
26.5000000000001101
 20
50.8258493095717796
 30
-0.0000000000000113
 11
26.5000000000001101
 21
9.0000000000000302
 31
-0.000000000000002
210
0.0
220
1.0
230
-0.0000000000000002
  0
LINE
  5
2479
  8
0
  6
VERDECKT
 62
     1
 10
-26.5000000000001101
 20
50.8258493095717796
 30
-0.0000000000000113
 11
-26.5000000000001101
 21
9.0000000000000302
 31
-0.000000000000002
210
0.0
220
1.0
230
-0.0000000000000002
  0
LINE
  5
247A
  8
0
  6
VERDECKT
 62
     1
 10
-25.8875793553185112
 20
2.0
 30
-0.0000000000000004
 11
-26.5000000000001101
 21
9.0000000000000302
 31
-0.000000000000002
210
0.0
220
1.0
230
-0.0000000000000002
  0
LINE
  5
247B
  8
0
  6
VERDECKT
 62
     1
 10
25.8875793553185112
 20
2.0
 30
-0.0000000000000004
 11
26.5000000000001101
 21
9.0000000000000302
 31
-0.000000000000002
210
0.0
220
1.0
230
-0.0000000000000002
  0
LINE
  5
247C
  8
0
  6
VERDECKT
 62
     1
 10
46.9999999999997726
 20
132.0
 30
-0.0000000000000293
 11
46.9999999999997726
 21
125.0
 31
-0.0000000000000278
210
0.0
220
1.0
230
-0.0000000000000002
  0
LINE
  5
247D
  8
0
  6
VERDECKT
 62
     1
 10
49.0
 20
125.0
 30
-0.0000000000000278
 11
47.0
 21
125.0
 31
-0.0000000000000278
210
0.0
220
1.0
230
-0.0000000000000002
  0
LINE
  5
247E
  8
0
  6
VERDECKT
 62
     1
 10
47.0
 20
132.0
 30
-0.0000000000000293
 11
49.0
 21
132.0
 31
-0.0000000000000293
210
0.0
220
1.0
230
-0.0000000000000002
  0
LINE
  5
247F
  8
0
  6
VERDECKT
 62
     1
 10
-11.5000000000015898
 20
125.0
 30
-0.0000000000000278
 11
-11.5000000000015898
 21
132.0
 31
-0.0000000000000293
210
0.0
220
1.0
230
-0.0000000000000002
  0
LINE
  5
2480
  8
0
  6
VERDECKT
 62
     1
 10
-35.4999999999988702
 20
132.0
 30
-0.0000000000000293
 11
-35.4999999999988702
 21
125.0
 31
-0.0000000000000278
210
0.0
220
1.0
230
-0.0000000000000002
  0
LINE
  5
2481
  8
0
  6
VERDECKT
 62
     1
 10
-13.5674797050268108
 20
132.0
 30
-0.0000000000000293
 11
-11.5000000000001101
 21
132.0
 31
-0.0000000000000293
210
0.0
220
1.0
230
-0.0000000000000002
  0
LINE
  5
2482
  8
0
  6
VERDECKT
 62
     1
 10
-35.4999999999998934
 20
132.0
 30
-0.0000000000000293
 11
-35.4325202949731874
 21
132.0
 31
-0.0000000000000293
210
0.0
220
1.0
230
-0.0000000000000002
  0
LINE
  5
2483
  8
0
  6
VERDECKT
 62
     1
 10
-11.5000000000001101
 20
125.0
 30
-0.0000000000000278
 11
-13.5674797050268108
 21
125.0
 31
-0.0000000000000278
210
0.0
220
1.0
230
-0.0000000000000002
  0
LINE
  5
2484
  8
0
  6
VERDECKT
 62
     1
 10
-35.4325202949731874
 20
125.0
 30
-0.0000000000000278
 11
-35.4999999999998934
 21
125.0
 31
-0.0000000000000278
210
0.0
220
1.0
230
-0.0000000000000002
  0
LINE
  5
2485
  8
0
  6
VERDECKT
 62
     1
 10
-47.0000000000002274
 20
125.0
 30
-0.0000000000000278
 11
-47.0000000000002274
 21
132.0
 31
-0.0000000000000293
210
0.0
220
1.0
230
-0.0000000000000002
  0
LINE
  5
2486
  8
0
  6
VERDECKT
 62
     1
 10
-46.9999999999998792
 20
125.0
 30
-0.0000000000000278
 11
-49.0
 21
125.0
 31
-0.0000000000000278
210
0.0
220
1.0
230
-0.0000000000000002
  0
LINE
  5
2487
  8
0
  6
VERDECKT
 62
     1
 10
-48.9999999999999929
 20
132.0
 30
-0.0000000000000293
 11
-46.9999999999998792
 21
132.0
 31
-0.0000000000000293
210
0.0
220
1.0
230
-0.0000000000000002
  0
LINE
  5
2488
  8
0
  6
VERDECKT
 62
     1
 10
-49.0
 20
112.5049811865978029
 30
-0.000000000000025
 11
-49.0
 21
125.0
 31
-0.0000000000000278
210
0.0
220
1.0
230
-0.0000000000000002
  0
LINE
  5
2489
  8
0
  6
VERDECKT
 62
     1
 10
-49.0
 20
132.0
 30
-0.0000000000000293
 11
-49.0
 21
139.9999999999998863
 31
-0.0000000000000311
210
0.0
220
1.0
230
-0.0000000000000002
  0
LINE
  5
248A
  8
0
  6
VERDECKT
 62
     1
 10
49.0
 20
112.5049811865978029
 30
-0.000000000000025
 11
49.0
 21
125.0
 31
-0.0000000000000278
210
0.0
220
1.0
230
-0.0000000000000002
  0
LINE
  5
248B
  8
0
  6
VERDECKT
 62
     1
 10
49.0
 20
132.0
 30
-0.0000000000000293
 11
49.0
 21
139.9999999999998863
 31
-0.0000000000000311
210
0.0
220
1.0
230
-0.0000000000000002
  0
ARC
  5
248C
  8
0
  6
VERDECKT
 62
     1
 10
-40.9999999999995808
 20
112.5049811865980018
 30
0.0
 40
8.0000000000004121
210
0.0
220
-0.0000000000000002
230
-1.0
 50
180.0000000000013074
 51
209.248826336547296
  0
ARC
  5
248D
  8
0
  6
VERDECKT
 62
     1
 10
40.9999999999995808
 20
112.5049811865980018
 30
0.0
 40
8.0000000000004086
210
0.0
220
-0.0000000000000002
230
-1.0
 50
330.7511736634526756
 51
359.9999999999985789
  0
LINE
  5
248E
  8
0
  6
VERDECKT
 62
     1
 10
-44.6239422468827271
 20
102.6031080195806027
 30
-0.0000000000000228
 11
-47.9800481275976765
 21
108.5961542351431035
 31
-0.0000000000000241
210
0.0
220
1.0
230
-0.0000000000000002
  0
LINE
  5
248F
  8
0
  6
VERDECKT
 62
     1
 10
44.6239422468827271
 20
102.6031080195806027
 30
-0.0000000000000228
 11
47.9800481275976765
 21
108.5961542351431035
 31
-0.0000000000000241
210
0.0
220
1.0
230
-0.0000000000000002
  0
ARC
  5
2490
  8
0
  6
VERDECKT
 62
     1
 10
-53.0000000000008313
 20
97.9125156778346053
 30
0.0
 40
9.6000000000008399
210
0.0
220
-0.0000000000000002
230
-1.0
 50
0.0
 51
29.2488263365454095
  0
ARC
  5
2491
  8
0
  6
VERDECKT
 62
     1
 10
53.0000000000008313
 20
97.9125156778346053
 30
0.0
 40
9.6000000000008399
210
0.0
220
-0.0000000000000002
230
-1.0
 50
150.7511736634536135
 51
179.9999999999990905
  0
LINE
  5
2492
  8
0
  6
VERDECKT
 62
     1
 10
-43.400000000000027
 20
86.5039377266500793
 30
-0.0000000000000192
 11
-43.400000000000027
 21
97.9125156778347616
 31
-0.0000000000000217
210
0.0
220
1.0
230
-0.0000000000000002
  0
LINE
  5
2493
  8
0
  6
VERDECKT
 62
     1
 10
43.400000000000027
 20
86.5039377266500793
 30
-0.0000000000000192
 11
43.400000000000027
 21
97.9125156778347616
 31
-0.0000000000000217
210
0.0
220
1.0
230
-0.0000000000000002
  0
ARC
  5
2494
  8
0
  6
VERDECKT
 62
     1
 10
-35.4000000000001194
 20
86.5039377266499656
 30
0.0
 40
7.9999999999999778
210
0.0
220
-0.0000000000000002
230
-1.0
 50
179.9999999999992042
 51
201.0375110254225035
  0
ARC
  5
2495
  8
0
  6
VERDECKT
 62
     1
 10
35.4000000000001194
 20
86.5039377266499656
 30
0.0
 40
7.9999999999999796
210
0.0
220
-0.0000000000000002
230
-1.0
 50
338.9624889745772975
 51
0.0000000000008142
  0
LINE
  5
2496
  8
0
  6
VERDECKT
 62
     1
 10
-39.0398821804508671
 20
73.6822101523272863
 30
-0.0000000000000164
 11
-42.866764849624559
 21
83.6321050921789038
 31
-0.0000000000000186
210
0.0
220
1.0
230
-0.0000000000000002
  0
LINE
  5
2497
  8
0
  6
VERDECKT
 62
     1
 10
39.0398821804508671
 20
73.6822101523272863
 30
-0.0000000000000164
 11
42.866764849624559
 21
83.6321050921789038
 31
-0.0000000000000186
210
0.0
220
1.0
230
-0.0000000000000002
  0
ARC
  5
2498
  8
0
  6
VERDECKT
 62
     1
 10
-48.0000000000014424
 20
70.236010990961617
 30
0.0
 40
9.6000000000013515
210
0.0
220
-0.0000000000000002
230
-1.0
 50
0.0000000000032314
 51
21.0375110254221909
  0
ARC
  5
2499
  8
0
  6
VERDECKT
 62
     1
 10
48.0000000000014424
 20
70.236010990961617
 30
0.0
 40
9.6000000000013515
210
0.0
220
-0.0000000000000002
230
-1.0
 50
158.9624889745778091
 51
179.9999999999967883
  0
LINE
  5
249A
  8
0
  6
VERDECKT
 62
     1
 10
-38.4000000000000909
 20
21.2047241222032916
 30
-0.0000000000000047
 11
-38.4000000000000909
 21
70.2360109909621571
 31
-0.0000000000000156
210
0.0
220
1.0
230
-0.0000000000000002
  0
LINE
  5
249B
  8
0
  6
VERDECKT
 62
     1
 10
38.4000000000000909
 20
21.2047241222032916
 30
-0.0000000000000047
 11
38.4000000000000909
 21
70.2360109909621571
 31
-0.0000000000000156
210
0.0
220
1.0
230
-0.0000000000000002
  0
ARC
  5
249C
  8
0
  6
VERDECKT
 62
     1
 10
-47.9999999999975699
 20
21.2047241222030109
 30
0.0
 40
9.5999999999974772
210
0.0
220
-0.0000000000000002
230
-1.0
 50
345.6944481533756743
 51
0.0000000000016412
  0
ARC
  5
249D
  8
0
  6
VERDECKT
 62
     1
 10
47.9999999999976481
 20
21.2047241222030287
 30
0.0
 40
9.5999999999975643
210
0.0
220
-0.0000000000000002
230
-1.0
 50
179.9999999999984084
 51
194.305551846624212
  0
LINE
  5
249E
  8
0
  6
VERDECKT
 62
     1
 10
38.6976787857922773
 20
18.8326322125802506
 30
-0.0000000000000042
 11
43.5000000000001066
 21
0.0000000000000568
 31
0.0
210
0.0
220
1.0
230
-0.0000000000000002
  0
LINE
  5
249F
  8
0
  6
VERDECKT
 62
     1
 10
-38.6976787857922773
 20
18.8326322125802506
 30
-0.0000000000000042
 11
-43.5000000000001066
 21
0.0000000000000568
 31
0.0
210
0.0
220
1.0
230
-0.0000000000000002
  0
ENDBLK
  5
24A1
  8
0
  0
ENDSEC
  0
SECTION
  2
ENTITIES
  0
TEXT
  5
8E
  8
VOLL
 10
78.076754716981128
 20
31.025947764705851
 30
0.0
 40
1.8
  1

  7
GREEKS
  0
INSERT
  5
241C
  8
STEMPEL
  2
A$C5C987431
 10
0.0
 20
-100.5999999999999943
 30
0.0
  0
INSERT
  5
24A2
  8
STEMPEL
  2
A$C73061C47
 10
0.0
 20
0.0
 30
0.0
  0
VIEWPORT
  5
2083
 67
     1
  8
0
 10
8.6712480046532701
 20
12.25781618279286
 30
0.0
 40
43.7823278737705621
 41
24.8565008845111812
 68
     1
 69
     1
1001
ACAD
1000
MVIEW
1002
{
1070
    16
1010
0.0
1020
0.0
1030
0.0
1010
0.0
1020
0.0
1030
1.0
1040
0.0
1040
24.8565008845111812
1040
8.6712480046532701
1040
12.25781618279286
1040
50.0
1040
0.0
1040
0.0
1070
     0
1070
  1500
1070
     1
1070
     1
1070
     0
1070
     0
1070
     0
1070
     0
1040
0.0
1040
0.0
1040
0.0
1040
10.0
1040
10.0
1040
10.0
1040
10.0
1070
     0
1002
{
1002
}
1002
}
  0
VIEWPORT
  5
2087
 67
     1
  8
DEFPOINTS
 10
8.6706808631331533
 20
12.2579716422593599
 30
0.0
 40
17.5748369110370994
 41
24.6809246299459417
 68
     2
 69
     2
1001
ACAD
1000
MVIEW
1002
{
1070
    16
1010
713.6768878891925851
1020
295.53637986998109
1030
-91.6448096154608152
1010
0.0
1020
0.0
1030
1.0
1040
0.0
1040
430.2826125775810056
1040
-562.7330008671268615
1040
-83.1096979971050871
1040
50.0
1040
0.0
1040
0.0
1070
     0
1070
  1500
1070
     1
1070
     0
1070
     0
1070
     0
1070
     0
1070
     0
1040
0.0
1040
0.0
1040
0.0
1040
1.0
1040
1.0
1040
10.0
1040
10.0
1070
     0
1002
{
1002
}
1002
}
  0
VIEWPORT
  5
208B
 67
     1
  8
DEFPOINTS
 10
13.80465824635343
 20
5.7229430950860163
 30
0.0
 40
4.5899427943825648
 41
6.416867633862366
 68
     3
 69
     3
1001
ACAD
1000
MVIEW
1002
{
1070
    16
1010
520.7374774218932316
1020
235.3871695872107921
1030
-72.6456473014068109
1010
86.1634837069685773
1020
133.8129780099608865
1030
301.9777061779432756
1040
2.5167315273828832
1040
175.2176006262803014
1040
0.0
1040
0.0
1040
50.0
1040
0.0
1040
0.0
1070
     0
1070
  1500
1070
     1
1070
     0
1070
     0
1070
     0
1070
     0
1070
     0
1040
0.0
1040
0.0
1040
0.0
1040
1.0
1040
1.0
1040
10.0
1040
10.0
1070
     0
1002
{
1002
}
1002
}
  0
ENDSEC
  0
EOF
