  0
SECTION
  2
HEADER
  9
$ACADVER
  1
AC1009
  9
$INSBASE
 10
0.0
 20
0.0
 30
0.0
  9
$EXTMIN
 10
-72.5
 20
-195.0
 30
-0.0000000000000266
  9
$EXTMAX
 10
72.5000000000001137
 20
120.0
 30
0.000000000000015
  9
$LIMMIN
 10
0.0
 20
0.0
  9
$LIMMAX
 10
296.9999999999998863
 20
420.0000000000001137
  9
$ORTHOMODE
 70
     1
  9
$REGENMODE
 70
     1
  9
$FILLMODE
 70
     1
  9
$QTEXTMODE
 70
     0
  9
$MIRRTEXT
 70
     1
  9
$DRAGMODE
 70
     2
  9
$LTSCALE
 40
10.0
  9
$OSMODE
 70
  2559
  9
$ATTMODE
 70
     1
  9
$TEXTSIZE
 40
3.5
  9
$TRACEWID
 40
0.5
  9
$TEXTSTYLE
  7
STANDARD
  9
$CLAYER
  8
DEFPOINTS
  9
$CELTYPE
  6
BYLAYER
  9
$CECOLOR
 62
   256
  9
$DIMSCALE
 40
1.0
  9
$DIMASZ
 40
3.5
  9
$DIMEXO
 40
1.0
  9
$DIMDLI
 40
7.0
  9
$DIMRND
 40
0.0
  9
$DIMDLE
 40
0.0
  9
$DIMEXE
 40
1.0
  9
$DIMTP
 40
0.0
  9
$DIMTM
 40
0.0
  9
$DIMTXT
 40
3.5
  9
$DIMCEN
 40
1.5
  9
$DIMTSZ
 40
0.0
  9
$DIMTOL
 70
     0
  9
$DIMLIM
 70
     0
  9
$DIMTIH
 70
     0
  9
$DIMTOH
 70
     0
  9
$DIMSE1
 70
     0
  9
$DIMSE2
 70
     0
  9
$DIMTAD
 70
     1
  9
$DIMZIN
 70
     8
  9
$DIMBLK
  1

  9
$DIMASO
 70
     1
  9
$DIMSHO
 70
     0
  9
$DIMPOST
  1

  9
$DIMAPOST
  1

  9
$DIMALT
 70
     0
  9
$DIMALTD
 70
     2
  9
$DIMALTF
 40
25.3999999999999986
  9
$DIMLFAC
 40
1.0
  9
$DIMTOFL
 70
     1
  9
$DIMTVP
 40
0.0
  9
$DIMTIX
 70
     0
  9
$DIMSOXD
 70
     0
  9
$DIMSAH
 70
     0
  9
$DIMBLK1
  1

  9
$DIMBLK2
  1

  9
$DIMSTYLE
  2
STANDARD
  9
$DIMCLRD
 70
     0
  9
$DIMCLRE
 70
     0
  9
$DIMCLRT
 70
     1
  9
$DIMTFAC
 40
0.5142857142857143
  9
$DIMGAP
 40
1.5
  9
$LUNITS
 70
     2
  9
$LUPREC
 70
     2
  9
$SKETCHINC
 40
1.0
  9
$FILLETRAD
 40
0.0
  9
$AUNITS
 70
     0
  9
$AUPREC
 70
     0
  9
$MENU
  1
ACAD
  9
$ELEVATION
 40
0.0
  9
$PELEVATION
 40
0.0
  9
$THICKNESS
 40
0.0
  9
$LIMCHECK
 70
     0
  9
$BLIPMODE
 70
     0
  9
$CHAMFERA
 40
0.0
  9
$CHAMFERB
 40
0.0
  9
$SKPOLY
 70
     0
  9
$TDCREATE
 40
2451337.6017592591233552
  9
$TDUPDATE
 40
2458387.563194443937391
  9
$TDINDWG
 40
0.128166713
  9
$TDUSRTIMER
 40
0.128166713
  9
$USRTIMER
 70
     1
  9
$ANGBASE
 50
0.0
  9
$ANGDIR
 70
     0
  9
$PDMODE
 70
     0
  9
$PDSIZE
 40
0.0
  9
$PLINEWID
 40
0.0
  9
$COORDS
 70
     1
  9
$SPLFRAME
 70
     0
  9
$SPLINETYPE
 70
     6
  9
$SPLINESEGS
 70
     8
  9
$ATTDIA
 70
     1
  9
$ATTREQ
 70
     1
  9
$HANDLING
 70
     1
  9
$HANDSEED
  5
176F
  9
$SURFTAB1
 70
     6
  9
$SURFTAB2
 70
     6
  9
$SURFTYPE
 70
     6
  9
$SURFU
 70
     6
  9
$SURFV
 70
     6
  9
$UCSNAME
  2

  9
$UCSORG
 10
0.0
 20
0.0
 30
0.0
  9
$UCSXDIR
 10
1.0
 20
0.0
 30
0.0
  9
$UCSYDIR
 10
0.0
 20
1.0
 30
0.0
  9
$PUCSNAME
  2

  9
$PUCSORG
 10
0.0
 20
0.0
 30
0.0
  9
$PUCSXDIR
 10
1.0
 20
0.0
 30
0.0
  9
$PUCSYDIR
 10
0.0
 20
1.0
 30
0.0
  9
$USERI1
 70
     0
  9
$USERI2
 70
     0
  9
$USERI3
 70
     0
  9
$USERI4
 70
     0
  9
$USERI5
 70
     0
  9
$USERR1
 40
0.0
  9
$USERR2
 40
0.0
  9
$USERR3
 40
0.0
  9
$USERR4
 40
0.0
  9
$USERR5
 40
0.0
  9
$WORLDVIEW
 70
     1
  9
$SHADEDGE
 70
     3
  9
$SHADEDIF
 70
    70
  9
$TILEMODE
 70
     1
  9
$MAXACTVP
 70
    16
  9
$PLIMCHECK
 70
     0
  9
$PEXTMIN
 10
-0.1697695034531428
 20
-0.1249041488229352
 30
-0.0000000349181948
  9
$PEXTMAX
 10
10.2770076114421194
 20
14.3122192504642705
 30
0.0000000814935746
  9
$PLIMMIN
 10
-0.2500002402958907
 20
-0.2499999962453767
  9
$PLIMMAX
 10
10.7499995194082203
 20
8.2499997634587334
  9
$UNITMODE
 70
     0
  9
$VISRETAIN
 70
     0
  9
$PLINEGEN
 70
     0
  9
$PSLTSCALE
 70
     0
  0
ENDSEC
  0
SECTION
  2
TABLES
  0
TABLE
  2
VPORT
 70
     1
  0
VPORT
  2
*ACTIVE
 70
     0
 10
0.0
 20
0.0
 11
1.0
 21
1.0
 12
0.0000000000000568
 22
-61.2525291442871094
 13
0.0
 23
0.0
 14
1.0
 24
1.0
 15
10.0
 25
10.0
 16
-0.0000000000001376
 26
0.0
 36
619.7690537335230374
 17
0.0
 27
23.7525291442871094
 37
-0.0000000000000058
 40
316.6057774001699272
 41
1.868197278911564
 42
50.0
 43
0.0
 44
0.0
 50
0.0
 51
0.0
 71
     0
 72
  1500
 73
     1
 74
     0
 75
     0
 76
     0
 77
     0
 78
     0
  0
ENDTAB
  0
TABLE
  2
LTYPE
 70
     4
  0
LTYPE
  2
CONTINUOUS
 70
     0
  3
Solid line
 72
    65
 73
     0
 40
0.0
  0
LTYPE
  2
VERDECKT
 70
     0
  3
_ _ _ _ _ _ _ _ _ _ _ _ _ _ _ _ _ _ _ _ _ _ _
 72
    65
 73
     2
 40
0.375
 49
0.25
 49
-0.125
  0
ENDTAB
  0
TABLE
  2
LAYER
 70
    11
  0
LAYER
  2
0
 70
     0
 62
     7
  6
CONTINUOUS
  0
LAYER
  2
VOLL
 70
     0
 62
     1
  6
CONTINUOUS
  0
LAYER
  2
DEFPOINTS
 70
     0
 62
     7
  6
CONTINUOUS
  0
ENDTAB
  0
TABLE
  2
STYLE
 70
     2
  0
STYLE
  2
STANDARD
 70
     0
 40
0.0
 41
0.8
 50
0.0
 71
     0
 42
3.5
  3
simplex.shx
  4

  0
STYLE
  2
GREEKS
 70
     0
 40
0.0
 41
0.8
 50
0.0
 71
     0
 42
2.5
  3
SIMPLEX.shx
  4

  0
ENDTAB
  0
TABLE
  2
VIEW
 70
     1
  0
ENDTAB
  0
TABLE
  2
UCS
 70
     0
  0
ENDTAB
  0
TABLE
  2
APPID
 70
    13
  0
APPID
  2
ACAD
 70
     0
  0
APPID
  2
ACAD_NAV_VCDISPLAY
 70
     0
  0
APPID
  2
ACAECLAYERSTANDARD
 70
     0
  0
APPID
  2
ACCMTRANSPARENCY
 70
     0
  0
APPID
  2
ACAD_PSEXT
 70
     0
  0
APPID
  2
ACAD_EXEMPT_FROM_CAD_STANDARDS
 70
     0
  0
APPID
  2
ACAD_MLEADERVER
 70
     0
  0
APPID
  2
ACAD_OBJECT_CHANGE_GUID
 70
     0
  0
APPID
  2
ACAD_STEPID
 70
     0
  0
APPID
  2
ACADANNOMONITORALERTICONDI
 70
     0
  0
APPID
  2
ACAUTHENVIRON
 70
     0
  0
APPID
  2
ACDBDYNAMICBLOCKTRUENAME
 70
     0
  0
APPID
  2
ACDBDYNAMICBLOCKGUID
 70
     0
  0
ENDTAB
  0
TABLE
  2
DIMSTYLE
 70
     2
  0
DIMSTYLE
  2
STANDARD
 70
     0
  3

  4

  5

  6

  7

 40
1.0
 41
0.18
 42
0.0625
 43
0.38
 44
0.18
 45
0.0
 46
0.0
 47
0.0
 48
0.0
140
0.18
141
0.09
142
0.0
143
25.3999999999999986
144
1.0
145
0.0
146
1.0
147
0.09
 71
     0
 72
     0
 73
     1
 74
     1
 75
     0
 76
     0
 77
     0
 78
     0
170
     0
171
     2
172
     0
173
     0
174
     0
175
     0
176
     0
177
     0
178
     0
  0
ENDTAB
  0
ENDSEC
  0
SECTION
  2
BLOCKS
  0
BLOCK
  8
0
  2
$MODEL_SPACE
 70
     0
 10
0.0
 20
0.0
 30
0.0
  3
$MODEL_SPACE
  1

  0
ENDBLK
  5
36
  8
0
  0
BLOCK
 67
     1
  8
0
  2
$PAPER_SPACE
 70
     0
 10
0.0
 20
0.0
 30
0.0
  3
$PAPER_SPACE
  1

  0
ENDBLK
  5
34
 67
     1
  8
0
  0
BLOCK
  8
0
  2
A$C278D0D25
 70
     0
 10
0.0
 20
0.0
 30
0.0
  3
A$C278D0D25
  1

  0
LINE
  5
16D0
  8
0
  6
CONTINUOUS
 62
     3
 10
30.2009618943235694
 20
55.3096004384196576
 30
0.0
 11
23.2009618943235694
 21
43.1852447854376109
 31
-0.0000000000000018
  0
LINE
  5
16D1
  8
0
  6
VERDECKT
 62
     3
 10
25.7990381056769387
 20
41.6852447854376109
 30
0.0
 11
23.2009618943236795
 21
43.1852447854376109
 31
-0.0000000000000006
  0
LINE
  5
16D2
  8
0
  6
CONTINUOUS
 62
     3
 10
25.7990381056769387
 20
41.6852447854376109
 30
0.0
 11
32.7990381056769422
 21
53.8096004384196576
 31
0.0000000000000018
  0
LINE
  5
16D3
  8
0
  6
CONTINUOUS
 62
     3
 10
32.7990381056767077
 20
53.809600438419487
 30
0.0000000000000142
 11
30.2009618943234486
 21
55.309600438419487
 31
0.0000000000000136
  0
LINE
  5
16D4
  8
0
  6
CONTINUOUS
 62
     3
 10
23.2009618943235694
 20
43.1852447854376322
 30
0.0
 11
19.7009618943235587
 21
37.1230669589465734
 31
-0.0000000000000008
  0
LINE
  5
16D5
  8
0
  6
CONTINUOUS
 62
     3
 10
22.2990381056767113
 20
35.6230669589465734
 30
0.0
 11
19.7009618943234486
 21
37.1230669589465734
 31
-0.0000000000000006
  0
LINE
  5
16D6
  8
0
  6
CONTINUOUS
 62
     3
 10
22.2990381056767113
 20
35.6230669589465734
 30
0.0
 11
25.7990381056767113
 21
41.6852447854376322
 31
0.0000000000000008
  0
LINE
  5
16D7
  8
0
  6
CONTINUOUS
 62
     3
 10
33.6929252573586595
 20
61.3578584013658102
 30
0.0000000000000142
 11
30.2009618943233313
 21
55.309600438419487
 31
0.0000000000000134
  0
LINE
  5
16D8
  8
0
  6
CONTINUOUS
 62
     3
 10
32.7990381056767077
 20
53.809600438419487
 30
0.0000000000000142
 11
36.2910014687120324
 21
59.8578584013657604
 31
0.000000000000015
  0
ARC
  5
16D9
  8
0
  6
CONTINUOUS
 62
     3
 10
0.0000000000000169
 20
-0.0000000000000424
 30
0.0
 40
59.5479390074607409
 50
61.4434212536334883
 51
179.9999999999998863
  0
ARC
  5
16DA
  8
0
  6
CONTINUOUS
 62
     3
 10
0.0000000000001306
 20
0.0000000000000287
 30
0.0
 40
59.5479390074606769
 50
301.4434212536335735
 51
58.5565787463664194
  0
ARC
  5
16DB
  8
0
  6
CONTINUOUS
 62
     3
 10
0.0000000000000169
 20
0.0000000000001104
 30
0.0
 40
59.5479390074608119
 50
180.0000000000001137
 51
298.5565787463664833
  0
LINE
  5
16DC
  8
0
  6
CONTINUOUS
 62
     3
 10
-67.4999999999999716
 20
18.5404962177389692
 30
-0.0000000000000142
 11
-67.4999999999999716
 21
-18.540496217739431
 31
-0.0000000000000142
  0
LINE
  5
16DD
  8
0
  6
CONTINUOUS
 62
     3
 10
-49.8065407233313806
 20
-49.1864666465802998
 30
-0.0000000000000142
 11
-17.6934592766684489
 21
-67.7269628643194324
 31
-0.0000000000000071
  0
LINE
  5
16DE
  8
0
  6
CONTINUOUS
 62
     3
 10
67.5000000000001421
 20
-18.5404962177387986
 30
0.0000000000000142
 11
67.5000000000001421
 21
18.5404962177387311
 31
0.0000000000000142
  0
LINE
  5
16DF
  8
0
  6
CONTINUOUS
 62
     3
 10
-17.6934592766682215
 20
67.7269628643190487
 30
0.0
 11
-49.8065407233313806
 21
49.1864666465797882
 31
-0.0000000000000071
  0
CIRCLE
  5
16E0
  8
0
  6
CONTINUOUS
 62
     3
 10
0.0000000000001403
 20
0.0000000000000314
 30
0.0
 40
72.5
  0
CIRCLE
  5
16E1
  8
0
  6
CONTINUOUS
 62
     3
 10
0.0000000000001403
 20
0.0000000000000314
 30
0.0
 40
70.0
  0
LINE
  5
16E2
  8
0
  6
CONTINUOUS
 62
     3
 10
30.2009618943235694
 20
-55.3096004384196007
 30
0.0
 11
23.2009618943235694
 21
-43.1852447854375612
 31
-0.0000000000000018
  0
LINE
  5
16E3
  8
0
  6
CONTINUOUS
 62
     3
 10
32.7990381056767077
 20
-53.8096004384194373
 30
0.0000000000000142
 11
30.2009618943234486
 21
-55.3096004384194302
 31
0.0000000000000136
  0
LINE
  5
16E4
  8
0
  6
CONTINUOUS
 62
     3
 10
25.7990381056769387
 20
-41.6852447854375612
 30
0.0
 11
32.7990381056769422
 21
-53.8096004384196007
 31
0.0000000000000018
  0
LINE
  5
16E5
  8
0
  6
VERDECKT
 62
     3
 10
25.7990381056769387
 20
-41.6852447854375612
 30
0.0
 11
23.2009618943236795
 21
-43.1852447854375612
 31
-0.0000000000000006
  0
LINE
  5
16E6
  8
0
  6
CONTINUOUS
 62
     3
 10
23.2009618943235694
 20
-43.1852447854375683
 30
0.0
 11
19.7009618943235587
 21
-37.1230669589465094
 31
-0.0000000000000008
  0
LINE
  5
16E7
  8
0
  6
CONTINUOUS
 62
     3
 10
22.2990381056767113
 20
-35.6230669589465094
 30
0.0
 11
25.7990381056767113
 21
-41.6852447854375825
 31
0.0000000000000008
  0
LINE
  5
16E8
  8
0
  6
CONTINUOUS
 62
     3
 10
22.2990381056767113
 20
-35.6230669589465094
 30
0.0
 11
19.7009618943234486
 21
-37.1230669589465094
 31
-0.0000000000000006
  0
LINE
  5
16E9
  8
0
  6
CONTINUOUS
 62
     3
 10
33.6929252573586595
 20
-61.3578584013657391
 30
0.0000000000000142
 11
30.2009618943233313
 21
-55.3096004384194302
 31
0.0000000000000134
  0
LINE
  5
16EA
  8
0
  6
CONTINUOUS
 62
     3
 10
32.7990381056767077
 20
-53.8096004384194373
 30
0.0000000000000142
 11
36.2910014687120324
 21
-59.8578584013656965
 31
0.000000000000015
  0
ARC
  5
16EB
  8
0
  6
CONTINUOUS
 62
     3
 10
0.0000000000000004
 20
0.0000000000000197
 30
0.0
 40
48.3799396802317005
 50
61.7767166553239022
 51
180.0
  0
ARC
  5
16EC
  8
0
  6
CONTINUOUS
 62
     3
 10
-0.0000000000001132
 20
0.0000000000000126
 30
0.0
 40
48.3799396802317716
 50
301.7767166553240941
 51
58.2232833446758704
  0
ARC
  5
16ED
  8
0
  6
CONTINUOUS
 62
     3
 10
0.0000000000000004
 20
0.0000000000000019
 30
0.0
 40
48.3799396802316934
 50
180.0
 51
298.2232833446760765
  0
ARC
  5
16EE
  8
0
  6
CONTINUOUS
 62
     3
 10
0.000000000000012
 20
0.0000000000000158
 30
0.0
 40
48.9999999999999929
 50
61.7542264905847489
 51
180.0
  0
ARC
  5
16EF
  8
0
  6
CONTINUOUS
 62
     3
 10
0.000000000000012
 20
-0.000000000000002
 30
0.0
 40
49.0000000000000071
 50
301.7542264905849834
 51
58.2457735094151872
  0
ARC
  5
16F0
  8
0
  6
CONTINUOUS
 62
     3
 10
0.000000000000012
 20
0.0000000000000087
 30
0.0
 40
48.9999999999999787
 50
179.9999999999998863
 51
298.2457735094151872
  0
LINE
  5
16F1
  8
0
  6
VERDECKT
 62
     1
 10
35.2990381056767077
 20
58.1397274573416993
 30
0.0000000000000142
 11
32.7009618943234486
 21
59.6397274573417135
 31
0.0000000000000136
  0
LINE
  5
16F2
  8
0
  6
VERDECKT
 62
     1
 10
36.2990381056771696
 20
59.871778264910553
 30
0.0000000000000142
 11
33.7009618943239033
 21
61.3717782649105388
 31
0.0000000000000136
  0
LINE
  5
16F3
  8
0
  6
CONTINUOUS
 62
     1
 10
33.700961894323342
 20
61.3717782649105601
 30
0.0000000000000142
 11
33.6929252573586595
 21
61.3578584013658102
 31
0.0000000000000142
  0
LINE
  5
16F4
  8
0
  6
CONTINUOUS
 62
     1
 10
36.2910014687120324
 20
59.8578584013657604
 30
0.0000000000000142
 11
36.2990381056767077
 21
59.8717782649105601
 31
0.0000000000000142
  0
ARC
  5
16F5
  8
0
  6
VERDECKT
 62
     1
 10
-0.0000000000361355
 20
-0.0000000000627762
 30
0.0
 40
59.5479390075331807
 50
58.5565787463681673
 51
61.4434212536318185
  0
ARC
  5
16F6
  8
0
  6
VERDECKT
 62
     1
 10
-0.0000000000361355
 20
0.0000000000628407
 30
0.0
 40
59.5479390075331807
 50
298.5565787463681886
 51
301.4434212536318114
  0
CIRCLE
  5
16F7
  8
0
  6
VERDECKT
 62
     1
 10
0.0000000000000167
 20
0.0000000000000286
 30
0.0
 40
61.7499999999998934
  0
LINE
  5
16F8
  8
0
  6
VERDECKT
 62
     1
 10
-18.6541289617217387
 20
70.0590713090001742
 30
0.0
 11
-35.000000000000199
 21
60.6217782649111783
 31
-0.0000000000000036
  0
LINE
  5
16F9
  8
0
  6
VERDECKT
 62
     1
 10
-35.0000000000002132
 20
60.6217782649111783
 30
-0.0000000000000142
 11
-51.3458710382766199
 21
51.1844852208233689
 31
-0.0000000000000178
  0
LINE
  5
16FA
  8
0
  6
VERDECKT
 62
     1
 10
70.0000000000008242
 20
-18.8745860881761303
 30
0.0000000000000142
 11
70.0000000000008242
 21
0.000000000000032
 31
0.0000000000000142
  0
LINE
  5
16FB
  8
0
  6
VERDECKT
 62
     1
 10
70.0000000000008242
 20
0.0000000000000308
 30
0.0000000000000142
 11
70.0000000000008242
 21
18.8745860881782193
 31
0.0000000000000142
  0
LINE
  5
16FC
  8
0
  6
VERDECKT
 62
     1
 10
-51.3458710382766199
 20
-51.1844852208212373
 30
-0.0000000000000142
 11
-34.9999999999991829
 21
-60.6217782649096222
 31
-0.0000000000000106
  0
LINE
  5
16FD
  8
0
  6
VERDECKT
 62
     1
 10
-34.9999999999991829
 20
-60.6217782649096222
 30
-0.0000000000000142
 11
-18.6541289617215185
 21
-70.0590713089981421
 31
-0.0000000000000106
  0
LINE
  5
16FE
  8
0
  6
VERDECKT
 62
     1
 10
-69.9999999999991758
 20
18.8745860881778
 30
-0.0000000000000142
 11
-69.9999999999991758
 21
0.000000000000032
 31
-0.0000000000000142
  0
LINE
  5
16FF
  8
0
  6
VERDECKT
 62
     1
 10
-69.9999999999991758
 20
0.0000000000000308
 30
-0.0000000000000142
 11
-69.9999999999991758
 21
-18.8745860881756684
 31
-0.0000000000000142
  0
LINE
  5
1700
  8
0
  6
VERDECKT
 62
     1
 10
35.2990381056767077
 20
-58.1397274573416496
 30
0.0000000000000142
 11
32.7009618943234486
 21
-59.6397274573416496
 31
0.0000000000000136
  0
LINE
  5
1701
  8
0
  6
VERDECKT
 62
     1
 10
36.2990381056771696
 20
-59.8717782649104819
 30
0.0000000000000142
 11
33.7009618943239033
 21
-61.371778264910489
 31
0.0000000000000136
  0
LINE
  5
1702
  8
0
  6
CONTINUOUS
 62
     1
 10
33.700961894323342
 20
-61.3717782649105104
 30
0.0000000000000142
 11
33.6929252573586595
 21
-61.3578584013657391
 31
0.0000000000000142
  0
LINE
  5
1703
  8
0
  6
CONTINUOUS
 62
     1
 10
36.2910014687120324
 20
-59.8578584013656965
 30
0.0000000000000142
 11
36.2990381056767077
 21
-59.8717782649105033
 31
0.0000000000000142
  0
ARC
  5
1704
  8
0
  6
VERDECKT
 62
     1
 10
-0.0000000000219411
 20
-0.0000000000378877
 30
0.0
 40
48.3799396802754629
 50
58.2232833446775118
 51
61.7767166553222395
  0
ARC
  5
1705
  8
0
  6
VERDECKT
 62
     1
 10
-0.0000000000250107
 20
0.0000000000434694
 30
0.0
 40
48.3799396802818222
 50
298.2232833446777818
 51
301.7767166553221045
  0
ARC
  5
1706
  8
0
  6
VERDECKT
 62
     1
 10
-0.0000000000143126
 20
-0.0000000000247893
 30
0.0
 40
49.0000000000286207
 50
58.2457735094162032
 51
61.7542264905837328
  0
ARC
  5
1707
  8
0
  6
VERDECKT
 62
     1
 10
0.0000000000245683
 20
-0.0000000000424107
 30
0.0
 40
48.999999999951001
 50
298.245773509413425
 51
301.754226490586575
  0
CIRCLE
  5
1708
  8
0
  6
VERDECKT
 62
     1
 10
0.0000000000000169
 20
0.0000000000000171
 30
0.0
 40
59.9883512059686907
  0
CIRCLE
  5
1709
  8
0
  6
VERDECKT
 62
     1
 10
0.0000000000000167
 20
0.0000000000000171
 30
0.0
 40
61.7499999999990266
  0
CIRCLE
  5
170A
  8
0
  6
VERDECKT
 62
     1
 10
0.000000000000012
 20
0.0000000000000158
 30
0.0
 40
51.0
  0
CIRCLE
  5
170B
  8
0
  6
VERDECKT
 62
     1
 10
0.0000000000000004
 20
0.0000000000000126
 30
0.0
 40
50.38757935531833
  0
CIRCLE
  5
170C
  8
0
  6
VERDECKT
 62
     1
 10
0.0000000000000061
 20
0.0000000000000142
 30
0.0
 40
66.5
  0
CIRCLE
  5
170D
  8
0
  6
VERDECKT
 62
     1
 10
0.0000000000000122
 20
0.0000000000000158
 30
0.0
 40
53.2088316273708415
  0
CIRCLE
  5
170E
  8
0
  6
VERDECKT
 62
     1
 10
0.0000000000000119
 20
0.0000000000000158
 30
0.0
 40
51.0026612228659815
  0
CIRCLE
  5
170F
  8
0
  6
VERDECKT
 62
     1
 10
0.0000000000000061
 20
0.0000000000000142
 30
0.0
 40
64.0
  0
CIRCLE
  5
1710
  8
0
  6
VERDECKT
 62
     1
 10
0.0000000000001257
 20
0.0000000000000158
 30
0.0
 40
51.0
  0
CIRCLE
  5
1711
  8
0
  6
VERDECKT
 62
     1
 10
0.0000000000001264
 20
0.000000000000016
 30
0.0
 40
52.2661935401615665
  0
CIRCLE
  5
1712
  8
0
  6
VERDECKT
 62
     1
 10
0.0000000000001253
 20
0.0000000000000157
 30
0.0
 40
54.5272966604436604
  0
CIRCLE
  5
1713
  8
0
  6
VERDECKT
 62
     1
 10
0.0000000000001259
 20
0.0000000000000158
 30
0.0
 40
53.2088316273708415
  0
CIRCLE
  5
1714
  8
0
  6
VERDECKT
 62
     1
 10
0.0000000000001256
 20
0.0000000000000158
 30
0.0
 40
54.7602582506926083
  0
CIRCLE
  5
1715
  8
0
  6
VERDECKT
 62
     1
 10
0.0000000000001298
 20
0.0000000000000169
 30
0.0
 40
60.3296706598122228
  0
CIRCLE
  5
1716
  8
0
  6
VERDECKT
 62
     1
 10
0.0000000000001309
 20
0.0000000000000172
 30
0.0
 40
63.1703293401876635
  0
CIRCLE
  5
1717
  8
0
  6
VERDECKT
 62
     1
 10
0.0000000000001305
 20
0.0000000000000171
 30
0.0
 40
63.6793245563805073
  0
ENDBLK
  5
15AA
  8
0
  0
BLOCK
  8
0
  2
A$C37D832F8
 70
     0
 10
0.0
 20
0.0
 30
0.0
  3
A$C37D832F8
  1

  0
LINE
  5
163D
  8
0
  6
CONTINUOUS
 62
     3
 10
70.0000000000007958
 20
102.999999999999801
 30
-0.0000000000000229
 11
70.0000000000007958
 21
109.9999999999999005
 31
-0.0000000000000244
210
0.0
220
1.0
230
-0.0000000000000002
  0
LINE
  5
163E
  8
0
  6
CONTINUOUS
 62
     3
 10
70.0000000000003411
 20
102.999999999999801
 30
-0.0000000000000229
 11
72.5000000000001137
 21
102.999999999999801
 31
-0.0000000000000229
210
0.0
220
1.0
230
-0.0000000000000002
  0
LINE
  5
163F
  8
0
  6
CONTINUOUS
 62
     3
 10
72.5000000000000853
 20
109.9999999999999005
 30
-0.0000000000000244
 11
70.0000000000003268
 21
109.9999999999999005
 31
-0.0000000000000244
210
0.0
220
1.0
230
-0.0000000000000002
  0
LINE
  5
1640
  8
0
  6
CONTINUOUS
 62
     3
 10
-51.3458710382808476
 20
102.9999999999999005
 30
-0.0000000000000229
 11
-51.3458710382808476
 21
109.9999999999999005
 31
-0.0000000000000244
210
0.0
220
1.0
230
-0.0000000000000002
  0
LINE
  5
1641
  8
0
  6
CONTINUOUS
 62
     3
 10
-18.6541289617175607
 20
109.9999999999999005
 30
-0.0000000000000244
 11
-18.6541289617175607
 21
102.9999999999999005
 31
-0.0000000000000229
210
0.0
220
1.0
230
-0.0000000000000002
  0
LINE
  5
1642
  8
0
  6
CONTINUOUS
 62
     3
 10
-51.3458710382775507
 20
102.9999999999999005
 30
-0.0000000000000229
 11
-18.6541289617218808
 21
102.9999999999999005
 31
-0.0000000000000229
210
0.0
220
1.0
230
-0.0000000000000002
  0
LINE
  5
1643
  8
0
  6
CONTINUOUS
 62
     3
 10
-18.6541289617218702
 20
109.9999999999999005
 30
-0.0000000000000244
 11
-51.3458710382775507
 21
109.9999999999999005
 31
-0.0000000000000244
210
0.0
220
1.0
230
-0.0000000000000002
  0
LINE
  5
1644
  8
0
  6
CONTINUOUS
 62
     3
 10
-69.9999999999992042
 20
109.9999999999999005
 30
-0.0000000000000244
 11
-69.9999999999992042
 21
102.999999999999801
 31
-0.0000000000000229
210
0.0
220
1.0
230
-0.0000000000000002
  0
LINE
  5
1645
  8
0
  6
CONTINUOUS
 62
     3
 10
-72.4999999999998863
 20
102.999999999999801
 30
-0.0000000000000229
 11
-70.0000000000001137
 21
102.999999999999801
 31
-0.0000000000000229
210
0.0
220
1.0
230
-0.0000000000000002
  0
LINE
  5
1646
  8
0
  6
CONTINUOUS
 62
     3
 10
-70.0000000000001279
 20
109.9999999999999005
 30
-0.0000000000000244
 11
-72.4999999999998863
 21
109.9999999999999005
 31
-0.0000000000000244
210
0.0
220
1.0
230
-0.0000000000000002
  0
LINE
  5
1647
  8
0
  6
CONTINUOUS
 62
     3
 10
-72.4999999999998863
 20
119.9999999999999005
 30
-0.0000000000000266
 11
72.5000000000001137
 21
119.9999999999999005
 31
-0.0000000000000266
210
0.0
220
1.0
230
-0.0000000000000002
  0
ARC
  5
1648
  8
0
  6
CONTINUOUS
 62
     3
 10
64.5000000000001705
 20
97.0137684906560622
 30
0.0
 40
7.9999999999998339
210
0.0
220
-0.0000000000000002
230
-1.0
 50
331.7419703852917792
 51
359.9999999999997158
  0
ARC
  5
1649
  8
0
  6
CONTINUOUS
 62
     3
 10
-64.5000000000001847
 20
97.0137684906560622
 30
0.0
 40
7.9999999999998153
210
0.0
220
-0.0000000000000002
230
-1.0
 50
180.000000000000199
 51
208.2580296147081924
  0
LINE
  5
164A
  8
0
  6
CONTINUOUS
 62
     3
 10
-63.1703293401875499
 20
77.6424731910467614
 30
-0.0000000000000172
 11
-71.5465951761251517
 21
93.2262235834886752
 31
-0.0000000000000207
210
0.0
220
1.0
230
-0.0000000000000002
  0
LINE
  5
164B
  8
0
  6
CONTINUOUS
 62
     3
 10
63.1703293401876493
 20
77.6424731910469461
 30
-0.0000000000000172
 11
71.5465951761251517
 21
93.2262235834886752
 31
-0.0000000000000207
210
0.0
220
1.0
230
-0.0000000000000002
  0
LINE
  5
164C
  8
0
  6
CONTINUOUS
 62
     3
 10
72.5000000000001137
 20
119.9999999999999005
 30
-0.0000000000000266
 11
72.5000000000001137
 21
109.9999999999999005
 31
-0.0000000000000244
210
0.0
220
1.0
230
-0.0000000000000002
  0
LINE
  5
164D
  8
0
  6
CONTINUOUS
 62
     3
 10
72.5000000000001137
 20
102.999999999999801
 30
-0.0000000000000229
 11
72.5000000000001137
 21
97.0137684906560338
 31
-0.0000000000000215
210
0.0
220
1.0
230
-0.0000000000000002
  0
LINE
  5
164E
  8
0
  6
CONTINUOUS
 62
     3
 10
-72.4999999999998863
 20
119.9999999999999005
 30
-0.0000000000000266
 11
-72.4999999999998863
 21
109.9999999999999005
 31
-0.0000000000000244
210
0.0
220
1.0
230
-0.0000000000000002
  0
LINE
  5
164F
  8
0
  6
CONTINUOUS
 62
     3
 10
-72.4999999999998863
 20
102.999999999999801
 30
-0.0000000000000229
 11
-72.4999999999998863
 21
97.0137684906560338
 31
-0.0000000000000215
210
0.0
220
1.0
230
-0.0000000000000002
  0
LINE
  5
1650
  8
0
  6
CONTINUOUS
 62
     3
 10
-52.2661935401614883
 20
57.3557089119285095
 30
-0.0000000000000127
 11
-60.3296706598111712
 21
72.3575268089528834
 31
-0.0000000000000161
210
0.0
220
1.0
230
-0.0000000000000002
  0
LINE
  5
1651
  8
0
  6
CONTINUOUS
 62
     3
 10
52.2661935401615168
 20
57.3557089119285735
 30
-0.0000000000000127
 11
60.3296706598111712
 21
72.3575268089528834
 31
-0.0000000000000161
210
0.0
220
1.0
230
-0.0000000000000002
  0
LINE
  5
1652
  8
0
  6
CONTINUOUS
 62
     3
 10
66.4999999999999432
 20
0.0
 30
0.0
 11
-66.4999999999999432
 21
0.0
 31
0.0
210
0.0
220
1.0
230
-0.0000000000000002
  0
LINE
  5
1653
  8
0
  6
CONTINUOUS
 62
     3
 10
-66.5
 20
0.0
 30
0.0
 11
-66.5
 21
27.5487828927858587
 31
-0.0000000000000061
210
0.0
220
1.0
230
-0.0000000000000002
  0
LINE
  5
1654
  8
0
  6
CONTINUOUS
 62
     3
 10
66.5
 20
0.0
 30
0.0
 11
66.5
 21
27.5487828927858587
 31
-0.0000000000000061
210
0.0
220
1.0
230
-0.0000000000000002
  0
ARC
  5
1655
  8
0
  6
CONTINUOUS
 62
     3
 10
-56.4999999999999503
 20
27.5487828927858303
 30
0.0
 40
10.0000000000000409
210
0.0
220
-0.0000000000000002
230
-1.0
 50
151.9445179055807955
 51
179.999999999999801
  0
ARC
  5
1656
  8
0
  6
CONTINUOUS
 62
     3
 10
56.4999999999999503
 20
27.5487828927858303
 30
0.0
 40
10.0000000000000409
210
0.0
220
-0.0000000000000002
230
-1.0
 50
0.0000000000001908
 51
28.0554820944191583
  0
LINE
  5
1657
  8
0
  6
CONTINUOUS
 62
     3
 10
54.5272966604436604
 20
52.5120796990271614
 30
-0.0000000000000117
 11
65.3249256841794761
 21
32.2520462990505621
 31
-0.0000000000000072
210
0.0
220
1.0
230
-0.0000000000000002
  0
LINE
  5
1658
  8
0
  6
CONTINUOUS
 62
     3
 10
-54.5272966604435112
 20
52.5120796990274172
 30
-0.0000000000000117
 11
-65.3249256841794761
 21
32.2520462990505621
 31
-0.0000000000000072
210
0.0
220
1.0
230
-0.0000000000000002
  0
LINE
  5
1659
  8
0
  6
CONTINUOUS
 62
     3
 10
-52.2661935401614528
 20
57.3557089119285166
 30
-0.0000000000000127
 11
52.2661935401616802
 21
57.3557089119285166
 31
-0.0000000000000127
210
0.0
220
1.0
230
-0.0000000000000002
  0
LINE
  5
165A
  8
0
  6
CONTINUOUS
 62
     3
 10
-54.5272966604435396
 20
52.5120796990274314
 30
-0.0000000000000117
 11
54.5272966604437599
 21
52.5120796990274314
 31
-0.0000000000000117
210
0.0
220
1.0
230
-0.0000000000000002
  0
ARC
  5
165B
  8
0
  6
CONTINUOUS
 62
     3
 10
51.0000000000000995
 20
53.8150456928756427
 30
0.0
 40
3.7602582506923992
210
0.0
220
-0.0000000000000002
230
-1.0
 50
339.7260186864174898
 51
70.3221984681006376
  0
ARC
  5
165C
  8
0
  6
CONTINUOUS
 62
     3
 10
-51.0000000000003268
 20
53.8150456928756427
 30
0.0
 40
3.7602582506923969
210
0.0
220
-0.0000000000000002
230
-1.0
 50
109.6778015318993056
 51
200.2739813135823965
  0
LINE
  5
165D
  8
0
  6
CONTINUOUS
 62
     3
 10
-60.329670659812102
 20
72.357526808952926
 30
-0.0000000000000161
 11
60.3296706598123365
 21
72.357526808952926
 31
-0.0000000000000161
210
0.0
220
1.0
230
-0.0000000000000002
  0
LINE
  5
165E
  8
0
  6
CONTINUOUS
 62
     3
 10
-63.1703293401875428
 20
77.6424731910467614
 30
-0.0000000000000172
 11
63.1703293401877772
 21
77.6424731910467614
 31
-0.0000000000000172
210
0.0
220
1.0
230
-0.0000000000000002
  0
ARC
  5
165F
  8
0
  6
CONTINUOUS
 62
     3
 10
60.2030709606336671
 20
75.8314743586591504
 30
0.0
 40
3.4762535957467131
210
0.0
220
-0.0000000000000002
230
-1.0
 50
272.0870838750727785
 51
31.3968568955134408
  0
ARC
  5
1660
  8
0
  6
CONTINUOUS
 62
     3
 10
-60.2030709606339016
 20
75.8314743586591504
 30
0.0
 40
3.4762535957467171
210
0.0
220
-0.0000000000000002
230
-1.0
 50
148.6031431044866054
 51
267.9129161249272215
  0
LINE
  5
1661
  8
0
  6
VERDECKT
 62
     1
 10
-59.5479390074607409
 20
76.183607783489677
 30
-0.0000000000000169
 11
59.5479390074607409
 21
76.183607783489677
 31
-0.0000000000000169
210
0.0
220
1.0
230
-0.0000000000000002
  0
LINE
  5
1662
  8
0
  6
VERDECKT
 62
     1
 10
-61.7499999999998934
 20
74.9999999999999574
 30
-0.0000000000000167
 11
61.7499999999998934
 21
74.9999999999999574
 31
-0.0000000000000167
210
0.0
220
1.0
230
-0.0000000000000002
  0
LINE
  5
1663
  8
0
  6
VERDECKT
 62
     1
 10
-67.5
 20
103.0
 30
-0.0000000000000229
 11
-67.5
 21
110.0
 31
-0.0000000000000244
210
0.0
220
1.0
230
-0.0000000000000002
  0
LINE
  5
1664
  8
0
  6
VERDECKT
 62
     1
 10
-67.4999999999997868
 20
103.0
 30
-0.0000000000000229
 11
-69.9999999999998863
 21
103.0
 31
-0.0000000000000229
210
0.0
220
1.0
230
-0.0000000000000002
  0
LINE
  5
1665
  8
0
  6
VERDECKT
 62
     1
 10
-69.9999999999998863
 20
110.0
 30
-0.0000000000000244
 11
-67.4999999999997726
 21
110.0
 31
-0.0000000000000244
210
0.0
220
1.0
230
-0.0000000000000002
  0
LINE
  5
1666
  8
0
  6
VERDECKT
 62
     1
 10
-17.6934592766692695
 20
103.0
 30
-0.0000000000000229
 11
-17.6934592766692695
 21
110.0
 31
-0.0000000000000244
210
0.0
220
1.0
230
-0.0000000000000002
  0
LINE
  5
1667
  8
0
  6
VERDECKT
 62
     1
 10
-49.8065407233304995
 20
110.0
 30
-0.0000000000000244
 11
-49.8065407233304995
 21
103.0
 31
-0.0000000000000229
210
0.0
220
1.0
230
-0.0000000000000002
  0
LINE
  5
1668
  8
0
  6
VERDECKT
 62
     1
 10
-17.6934592766683707
 20
103.0
 30
-0.0000000000000229
 11
-18.6541289617215398
 21
103.0
 31
-0.0000000000000229
210
0.0
220
1.0
230
-0.0000000000000002
  0
LINE
  5
1669
  8
0
  6
VERDECKT
 62
     1
 10
-18.6541289617215398
 20
110.0
 30
-0.0000000000000244
 11
-17.69345927666836
 21
110.0
 31
-0.0000000000000244
210
0.0
220
1.0
230
-0.0000000000000002
  0
LINE
  5
166A
  8
0
  6
VERDECKT
 62
     1
 10
67.5000000000001137
 20
110.0
 30
-0.0000000000000244
 11
67.5000000000001137
 21
103.0
 31
-0.0000000000000229
210
0.0
220
1.0
230
-0.0000000000000002
  0
LINE
  5
166B
  8
0
  6
VERDECKT
 62
     1
 10
70.0000000000001137
 20
103.0
 30
-0.0000000000000229
 11
67.5000000000002274
 21
103.0
 31
-0.0000000000000229
210
0.0
220
1.0
230
-0.0000000000000002
  0
LINE
  5
166C
  8
0
  6
VERDECKT
 62
     1
 10
67.5000000000002274
 20
110.0
 30
-0.0000000000000244
 11
70.0000000000001137
 21
110.0
 31
-0.0000000000000244
210
0.0
220
1.0
230
-0.0000000000000002
  0
LINE
  5
166D
  8
0
  6
VERDECKT
 62
     1
 10
-59.5479390074607409
 20
76.183607783489677
 30
-0.0000000000000169
 11
-69.2849463820939491
 21
94.2989703409466102
 31
-0.0000000000000209
210
0.0
220
1.0
230
-0.0000000000000002
  0
LINE
  5
166E
  8
0
  6
VERDECKT
 62
     1
 10
59.5479390074607409
 20
76.183607783489677
 30
-0.0000000000000169
 11
69.2849463820939491
 21
94.2989703409466102
 31
-0.0000000000000209
210
0.0
220
1.0
230
-0.0000000000000002
  0
ARC
  5
166F
  8
0
  6
VERDECKT
 62
     1
 10
63.9999999999990266
 20
97.13962902132225
 30
0.0
 40
6.0000000000009601
210
0.0
220
-0.0000000000000002
230
-1.0
 50
331.7419703852963835
 51
359.999999999998181
  0
ARC
  5
1670
  8
0
  6
VERDECKT
 62
     1
 10
-63.9999999999990266
 20
97.13962902132225
 30
0.0
 40
6.0000000000009663
210
0.0
220
-0.0000000000000002
230
-1.0
 50
180.0000000000015916
 51
208.2580296147035028
  0
LINE
  5
1671
  8
0
  6
VERDECKT
 62
     1
 10
-61.7499999999998934
 20
74.9999999999999574
 30
-0.0000000000000167
 11
-63.1703293401875499
 21
77.6424731910467614
 31
-0.0000000000000172
210
0.0
220
1.0
230
-0.0000000000000002
  0
LINE
  5
1672
  8
0
  6
VERDECKT
 62
     1
 10
61.7499999999998934
 20
74.9999999999999574
 30
-0.0000000000000167
 11
63.1703293401876493
 21
77.6424731910469461
 31
-0.0000000000000172
210
0.0
220
1.0
230
-0.0000000000000002
  0
LINE
  5
1673
  8
0
  6
VERDECKT
 62
     1
 10
59.5479390074607409
 20
76.183607783489677
 30
-0.0000000000000169
 11
61.7499999999998934
 21
74.9999999999999574
 31
-0.0000000000000167
210
0.0
220
1.0
230
-0.0000000000000002
  0
LINE
  5
1674
  8
0
  6
VERDECKT
 62
     1
 10
-59.5479390074607409
 20
76.183607783489677
 30
-0.0000000000000169
 11
-61.7499999999998934
 21
74.9999999999999574
 31
-0.0000000000000167
210
0.0
220
1.0
230
-0.0000000000000002
  0
LINE
  5
1675
  8
0
  6
VERDECKT
 62
     1
 10
70.0000000000001137
 20
120.0
 30
-0.0000000000000266
 11
70.0000000000001137
 21
110.0
 31
-0.0000000000000244
210
0.0
220
1.0
230
-0.0000000000000002
  0
LINE
  5
1676
  8
0
  6
VERDECKT
 62
     1
 10
70.0000000000001137
 20
103.0
 30
-0.0000000000000229
 11
70.0000000000001137
 21
97.1396290213220652
 31
-0.0000000000000216
210
0.0
220
1.0
230
-0.0000000000000002
  0
LINE
  5
1677
  8
0
  6
VERDECKT
 62
     1
 10
-69.9999999999998863
 20
120.0
 30
-0.0000000000000266
 11
-69.9999999999998863
 21
109.9999999999999005
 31
-0.0000000000000244
210
0.0
220
1.0
230
-0.0000000000000002
  0
LINE
  5
1678
  8
0
  6
VERDECKT
 62
     1
 10
-69.9999999999998863
 20
103.0
 30
-0.0000000000000229
 11
-69.9999999999998863
 21
97.1396290213220652
 31
-0.0000000000000216
210
0.0
220
1.0
230
-0.0000000000000002
  0
LINE
  5
1679
  8
0
  6
VERDECKT
 62
     1
 10
30.2009618943235409
 20
110.0
 30
-0.0000000000000244
 11
23.2009618943235409
 21
105.0
 31
-0.0000000000000233
210
0.0
220
1.0
230
-0.0000000000000002
  0
LINE
  5
167A
  8
0
  6
VERDECKT
 62
     1
 10
25.7990381056769102
 20
105.0
 30
-0.0000000000000233
 11
32.7990381056769209
 21
110.0
 31
-0.0000000000000244
210
0.0
220
1.0
230
-0.0000000000000002
  0
LINE
  5
167B
  8
0
  6
VERDECKT
 62
     1
 10
25.7990381056769102
 20
105.0
 30
-0.0000000000000233
 11
23.2009618943236617
 21
105.0
 31
-0.0000000000000233
210
0.0
220
1.0
230
-0.0000000000000002
  0
LINE
  5
167C
  8
0
  6
VERDECKT
 62
     1
 10
23.2009618943235409
 20
105.0
 30
-0.0000000000000233
 11
19.7009618943235409
 21
105.0000000000000995
 31
-0.0000000000000233
210
0.0
220
1.0
230
-0.0000000000000002
  0
LINE
  5
167D
  8
0
  6
VERDECKT
 62
     1
 10
19.7009618943230791
 20
105.0000000000000995
 30
-0.0000000000000233
 11
19.7009618943230791
 21
97.8000000000002245
 31
-0.0000000000000217
210
0.0
220
1.0
230
-0.0000000000000002
  0
LINE
  5
167E
  8
0
  6
VERDECKT
 62
     1
 10
22.29903810567669
 20
97.8000000000002245
 30
-0.0000000000000217
 11
22.29903810567669
 21
105.0000000000000995
 31
-0.0000000000000233
210
0.0
220
1.0
230
-0.0000000000000002
  0
LINE
  5
167F
  8
0
  6
VERDECKT
 62
     1
 10
19.7009618943234308
 20
97.8000000000002245
 30
-0.0000000000000217
 11
23.2009618943235409
 21
97.8000000000002245
 31
-0.0000000000000217
210
0.0
220
1.0
230
-0.0000000000000002
  0
LINE
  5
1680
  8
0
  6
VERDECKT
 62
     1
 10
25.7990381056769102
 20
97.8000000000002245
 30
-0.0000000000000217
 11
23.2009618943236617
 21
97.8000000000002245
 31
-0.0000000000000217
210
0.0
220
1.0
230
-0.0000000000000002
  0
LINE
  5
1681
  8
0
  6
VERDECKT
 62
     1
 10
23.20096189432331
 20
97.8000000000002245
 30
-0.0000000000000217
 11
30.2009618943233207
 21
92.8000000000001961
 31
-0.0000000000000206
210
0.0
220
1.0
230
-0.0000000000000002
  0
LINE
  5
1682
  8
0
  6
VERDECKT
 62
     1
 10
32.7990381056766935
 20
92.8000000000001961
 30
-0.0000000000000206
 11
25.79903810567669
 21
97.8000000000002245
 31
-0.0000000000000217
210
0.0
220
1.0
230
-0.0000000000000002
  0
LINE
  5
1683
  8
0
  6
VERDECKT
 62
     1
 10
30.2009618943230898
 20
92.8000000000001961
 30
-0.0000000000000206
 11
33.7009618943230933
 21
92.8000000000000824
 31
-0.0000000000000206
210
0.0
220
1.0
230
-0.0000000000000002
  0
LINE
  5
1684
  8
0
  6
VERDECKT
 62
     1
 10
36.2990381056771412
 20
92.8000000000000824
 30
-0.0000000000000206
 11
33.700961894323882
 21
92.8000000000000824
 31
-0.0000000000000206
210
0.0
220
1.0
230
-0.0000000000000002
  0
LINE
  5
1685
  8
0
  6
VERDECKT
 62
     1
 10
33.7009618943230933
 20
92.8000000000000824
 30
-0.0000000000000206
 11
33.7009618943230933
 21
95.3000000000000824
 31
-0.0000000000000212
210
0.0
220
1.0
230
-0.0000000000000002
  0
LINE
  5
1686
  8
0
  6
VERDECKT
 62
     1
 10
36.2990381056771412
 20
95.3000000000000824
 30
-0.0000000000000212
 11
36.2990381056771412
 21
92.8000000000000824
 31
-0.0000000000000206
210
0.0
220
1.0
230
-0.0000000000000002
  0
LINE
  5
1687
  8
0
  6
VERDECKT
 62
     1
 10
36.2990381056771412
 20
95.3000000000000824
 30
-0.0000000000000212
 11
33.700961894323882
 21
95.3000000000000824
 31
-0.0000000000000212
210
0.0
220
1.0
230
-0.0000000000000002
  0
LINE
  5
1688
  8
0
  6
VERDECKT
 62
     1
 10
33.7009618943230933
 20
95.3000000000000824
 30
-0.0000000000000212
 11
32.7009618943230933
 21
96.4547005383793845
 31
-0.0000000000000214
210
0.0
220
1.0
230
-0.0000000000000002
  0
LINE
  5
1689
  8
0
  6
VERDECKT
 62
     1
 10
35.2990381056766935
 20
96.4547005383793845
 30
-0.0000000000000214
 11
36.2990381056766935
 21
95.3000000000000824
 31
-0.0000000000000212
210
0.0
220
1.0
230
-0.0000000000000002
  0
LINE
  5
168A
  8
0
  6
VERDECKT
 62
     1
 10
35.2990381056766935
 20
96.4547005383793845
 30
-0.0000000000000214
 11
32.7009618943234273
 21
96.4547005383793845
 31
-0.0000000000000214
210
0.0
220
1.0
230
-0.0000000000000002
  0
LINE
  5
168B
  8
0
  6
VERDECKT
 62
     1
 10
32.7009618943230933
 20
96.4547005383793845
 30
-0.0000000000000214
 11
32.7009618943230933
 21
106.3452994616207974
 31
-0.0000000000000236
210
0.0
220
1.0
230
-0.0000000000000002
  0
LINE
  5
168C
  8
0
  6
VERDECKT
 62
     1
 10
35.2990381056766935
 20
106.3452994616207974
 30
-0.0000000000000236
 11
35.2990381056766935
 21
96.4547005383793845
 31
-0.0000000000000214
210
0.0
220
1.0
230
-0.0000000000000002
  0
LINE
  5
168D
  8
0
  6
VERDECKT
 62
     1
 10
35.2990381056766935
 20
106.3452994616207974
 30
-0.0000000000000236
 11
32.7009618943234273
 21
106.3452994616207974
 31
-0.0000000000000236
210
0.0
220
1.0
230
-0.0000000000000002
  0
LINE
  5
168E
  8
0
  6
VERDECKT
 62
     1
 10
32.7009618943230933
 20
106.3452994616207974
 30
-0.0000000000000236
 11
33.7009618943230933
 21
107.5000000000000995
 31
-0.0000000000000239
210
0.0
220
1.0
230
-0.0000000000000002
  0
LINE
  5
168F
  8
0
  6
VERDECKT
 62
     1
 10
36.2990381056771412
 20
107.5000000000000995
 30
-0.0000000000000239
 11
35.2990381056771412
 21
106.3452994616207974
 31
-0.0000000000000236
210
0.0
220
1.0
230
-0.0000000000000002
  0
LINE
  5
1690
  8
0
  6
VERDECKT
 62
     1
 10
36.2990381056771412
 20
107.5000000000000995
 30
-0.0000000000000239
 11
33.700961894323882
 21
107.5000000000000995
 31
-0.0000000000000239
210
0.0
220
1.0
230
-0.0000000000000002
  0
LINE
  5
1691
  8
0
  6
VERDECKT
 62
     1
 10
33.7009618943230933
 20
107.5000000000000995
 30
-0.0000000000000239
 11
33.7009618943230933
 21
110.0000000000000995
 31
-0.0000000000000244
210
0.0
220
1.0
230
-0.0000000000000002
  0
LINE
  5
1692
  8
0
  6
VERDECKT
 62
     1
 10
36.2990381056771412
 20
110.0000000000000995
 30
-0.0000000000000244
 11
36.2990381056771412
 21
107.5000000000000995
 31
-0.0000000000000239
210
0.0
220
1.0
230
-0.0000000000000002
  0
LINE
  5
1693
  8
0
  6
VERDECKT
 62
     1
 10
36.2990381056771412
 20
110.0000000000000995
 30
-0.0000000000000244
 11
33.700961894323882
 21
110.0000000000000995
 31
-0.0000000000000244
210
0.0
220
1.0
230
-0.0000000000000002
  0
LINE
  5
1694
  8
0
  6
VERDECKT
 62
     1
 10
33.7009618943233065
 20
110.0000000000000995
 30
-0.0000000000000244
 11
30.2009618943233207
 21
110.0
 31
-0.0000000000000244
210
0.0
220
1.0
230
-0.0000000000000002
  0
LINE
  5
1695
  8
0
  6
VERDECKT
 62
     1
 10
-59.9883512059686765
 20
75.9468862267917331
 30
-0.0000000000000169
 11
59.9883512059686765
 21
75.9468862267917331
 31
-0.0000000000000169
210
0.0
220
1.0
230
-0.0000000000000002
  0
LINE
  5
1696
  8
0
  6
VERDECKT
 62
     1
 10
-61.7499999999990905
 20
75.0000000000004121
 30
-0.0000000000000167
 11
61.7499999999990905
 21
75.0000000000004121
 31
-0.0000000000000167
210
0.0
220
1.0
230
-0.0000000000000002
  0
LINE
  5
1697
  8
0
  6
VERDECKT
 62
     1
 10
-50.3875793553183868
 20
2.0
 30
-0.0000000000000004
 11
50.3875793553183868
 21
2.0
 31
-0.0000000000000004
210
0.0
220
1.0
230
-0.0000000000000002
  0
LINE
  5
1698
  8
0
  6
VERDECKT
 62
     1
 10
-48.3799396802317005
 20
2.0
 30
-0.0000000000000004
 11
-49.0
 21
9.0873218858169782
 31
-0.000000000000002
210
0.0
220
1.0
230
-0.0000000000000002
  0
LINE
  5
1699
  8
0
  6
VERDECKT
 62
     1
 10
48.3799396802317005
 20
2.0
 30
-0.0000000000000004
 11
49.0
 21
9.0873218858169782
 31
-0.000000000000002
210
0.0
220
1.0
230
-0.0000000000000002
  0
LINE
  5
169A
  8
0
  6
VERDECKT
 62
     1
 10
49.0
 20
53.9931157546719334
 30
-0.000000000000012
 11
49.0
 21
9.0873218858169782
 31
-0.000000000000002
210
0.0
220
1.0
230
-0.0000000000000002
  0
LINE
  5
169B
  8
0
  6
VERDECKT
 62
     1
 10
-49.0
 20
53.9931157546719334
 30
-0.000000000000012
 11
-49.0
 21
9.0873218858169782
 31
-0.000000000000002
210
0.0
220
1.0
230
-0.0000000000000002
  0
ARC
  5
169C
  8
0
  6
VERDECKT
 62
     1
 10
54.9999999999990408
 20
53.9931157546722389
 30
0.0
 40
5.9999999999990248
210
0.0
220
-0.0000000000000002
230
-1.0
 50
151.7419703852918076
 51
180.000000000002899
  0
ARC
  5
169D
  8
0
  6
VERDECKT
 62
     1
 10
-54.9999999999990479
 20
53.9931157546722318
 30
0.0
 40
5.999999999999047
210
0.0
220
-0.0000000000000002
230
-1.0
 50
359.999999999997101
 51
28.2580296147081818
  0
LINE
  5
169E
  8
0
  6
VERDECKT
 62
     1
 10
-49.7150536179060509
 20
56.833774435047367
 30
-0.0000000000000126
 11
-59.9883512059686907
 21
75.9468862267917331
 31
-0.0000000000000169
210
0.0
220
1.0
230
-0.0000000000000002
  0
LINE
  5
169F
  8
0
  6
VERDECKT
 62
     1
 10
49.7150536179060509
 20
56.833774435047367
 30
-0.0000000000000126
 11
59.9883512059686907
 21
75.9468862267917331
 31
-0.0000000000000169
210
0.0
220
1.0
230
-0.0000000000000002
  0
LINE
  5
16A0
  8
0
  6
VERDECKT
 62
     1
 10
59.9883512059686907
 20
75.9468862267917473
 30
-0.0000000000000169
 11
61.7499999999990408
 21
75.0000000000004263
 31
-0.0000000000000167
210
0.0
220
1.0
230
-0.0000000000000002
  0
LINE
  5
16A1
  8
0
  6
VERDECKT
 62
     1
 10
-59.9883512059686907
 20
75.9468862267917473
 30
-0.0000000000000169
 11
-61.7499999999990408
 21
75.0000000000004263
 31
-0.0000000000000167
210
0.0
220
1.0
230
-0.0000000000000002
  0
LINE
  5
16A2
  8
0
  6
VERDECKT
 62
     1
 10
-51.4767024119373673
 20
55.88688820825557
 30
-0.0000000000000124
 11
-52.2661935401614883
 21
57.3557089119285095
 31
-0.0000000000000127
210
0.0
220
1.0
230
-0.0000000000000002
  0
LINE
  5
16A3
  8
0
  6
VERDECKT
 62
     1
 10
-60.3296706598111712
 20
72.3575268089528834
 30
-0.0000000000000161
 11
-61.7499999999990479
 21
75.0000000000003837
 31
-0.0000000000000167
210
0.0
220
1.0
230
-0.0000000000000002
  0
LINE
  5
16A4
  8
0
  6
VERDECKT
 62
     1
 10
51.4767024119373673
 20
55.88688820825557
 30
-0.0000000000000124
 11
52.2661935401615168
 21
57.3557089119285735
 31
-0.0000000000000127
210
0.0
220
1.0
230
-0.0000000000000002
  0
LINE
  5
16A5
  8
0
  6
VERDECKT
 62
     1
 10
60.3296706598111712
 20
72.3575268089528834
 30
-0.0000000000000161
 11
61.7499999999990479
 21
75.0000000000003837
 31
-0.0000000000000167
210
0.0
220
1.0
230
-0.0000000000000002
  0
ARC
  5
16A6
  8
0
  6
VERDECKT
 62
     1
 10
55.0000000000005613
 20
53.9931157546718694
 30
0.0
 40
4.0000000000005587
210
0.0
220
-0.0000000000000002
230
-1.0
 50
151.7419703852964972
 51
179.9999999999992042
  0
ARC
  5
16A7
  8
0
  6
VERDECKT
 62
     1
 10
-55.0000000000006324
 20
53.9931157546718623
 30
0.0
 40
4.0000000000006253
210
0.0
220
-0.0000000000000002
230
-1.0
 50
0.0000000000010178
 51
28.2580296147031405
  0
LINE
  5
16A8
  8
0
  6
VERDECKT
 62
     1
 10
51.0
 20
53.9931157546719334
 30
-0.000000000000012
 11
51.0
 21
8.9999999999999734
 31
-0.000000000000002
210
0.0
220
1.0
230
-0.0000000000000002
  0
LINE
  5
16A9
  8
0
  6
VERDECKT
 62
     1
 10
-51.0
 20
53.9931157546719334
 30
-0.000000000000012
 11
-51.0
 21
8.9999999999999734
 31
-0.000000000000002
210
0.0
220
1.0
230
-0.0000000000000002
  0
LINE
  5
16AA
  8
0
  6
VERDECKT
 62
     1
 10
-50.3875793553183726
 20
1.999999999999998
 30
-0.0000000000000004
 11
-51.0000000000000284
 21
8.9999999999999716
 31
-0.000000000000002
210
0.0
220
1.0
230
-0.0000000000000002
  0
LINE
  5
16AB
  8
0
  6
VERDECKT
 62
     1
 10
50.3875793553183726
 20
1.999999999999998
 30
-0.0000000000000004
 11
51.0000000000000284
 21
8.9999999999999716
 31
-0.000000000000002
210
0.0
220
1.0
230
-0.0000000000000002
  0
LINE
  5
16AC
  8
0
  6
VERDECKT
 62
     1
 10
53.2088316273708415
 20
54.9859696194937015
 30
-0.0000000000000122
 11
-53.2088316273708415
 21
54.9859696194937015
 31
-0.0000000000000122
210
0.0
220
1.0
230
-0.0000000000000002
  0
LINE
  5
16AD
  8
0
  6
VERDECKT
 62
     1
 10
51.0026612228659815
 20
53.8100528978768722
 30
-0.0000000000000119
 11
-51.0026612228659815
 21
53.8100528978768722
 31
-0.0000000000000119
210
0.0
220
1.0
230
-0.0000000000000002
  0
LINE
  5
16AE
  8
0
  6
VERDECKT
 62
     1
 10
53.2088316273708202
 20
54.9859696194936873
 30
-0.0000000000000122
 11
54.5272966604436604
 21
52.5120796990271614
 31
-0.0000000000000117
210
0.0
220
1.0
230
-0.0000000000000002
  0
LINE
  5
16AF
  8
0
  6
VERDECKT
 62
     1
 10
-53.2088316273708202
 20
54.9859696194936873
 30
-0.0000000000000122
 11
-54.5272966604435112
 21
52.5120796990274172
 31
-0.0000000000000117
210
0.0
220
1.0
230
-0.0000000000000002
  0
LINE
  5
16B0
  8
0
  6
VERDECKT
 62
     1
 10
-51.0026612228659886
 20
53.8100528978768509
 30
-0.0000000000000119
 11
-53.2088316273708628
 21
54.9859696194936802
 31
-0.0000000000000122
210
0.0
220
1.0
230
-0.0000000000000002
  0
LINE
  5
16B1
  8
0
  6
VERDECKT
 62
     1
 10
51.0026612228659886
 20
53.8100528978768509
 30
-0.0000000000000119
 11
53.2088316273708628
 21
54.9859696194936802
 31
-0.0000000000000122
210
0.0
220
1.0
230
-0.0000000000000002
  0
LINE
  5
16B2
  8
0
  6
VERDECKT
 62
     1
 10
51.0026612228660099
 20
53.8100528978768793
 30
-0.0000000000000119
 11
63.0597633731421965
 21
31.1893847510229882
 31
-0.0000000000000069
210
0.0
220
1.0
230
-0.0000000000000002
  0
LINE
  5
16B3
  8
0
  6
VERDECKT
 62
     1
 10
-51.0026612228660099
 20
53.8100528978768793
 30
-0.0000000000000119
 11
-63.0597633731421965
 21
31.1893847510229882
 31
-0.0000000000000069
210
0.0
220
1.0
230
-0.0000000000000002
  0
ARC
  5
16B4
  8
0
  6
VERDECKT
 62
     1
 10
-56.0000000000006324
 20
27.4264416056593809
 30
0.0
 40
7.9999999999993623
210
0.0
220
-0.0000000000000002
230
-1.0
 50
151.9418200751865129
 51
180.0000000000009948
  0
ARC
  5
16B5
  8
0
  6
VERDECKT
 62
     1
 10
56.0000000000006182
 20
27.4264416056593809
 30
0.0
 40
7.9999999999993667
210
0.0
220
-0.0000000000000002
230
-1.0
 50
0.0
 51
28.0581799248144605
  0
LINE
  5
16B6
  8
0
  6
VERDECKT
 62
     1
 10
-64.0
 20
0.0
 30
0.0
 11
-64.0
 21
27.4264416056592317
 31
-0.0000000000000061
210
0.0
220
1.0
230
-0.0000000000000002
  0
LINE
  5
16B7
  8
0
  6
VERDECKT
 62
     1
 10
64.0
 20
0.0
 30
0.0
 11
64.0
 21
27.4264416056592317
 31
-0.0000000000000061
210
0.0
220
1.0
230
-0.0000000000000002
  0
LINE
  5
16B8
  8
0
  6
VERDECKT
 62
     1
 10
-53.2088316273707207
 20
54.9859696194935879
 30
-0.0000000000000122
 11
53.2088316273709623
 21
54.9859696194935879
 31
-0.0000000000000122
210
0.0
220
1.0
230
-0.0000000000000002
  0
LINE
  5
16B9
  8
0
  6
VERDECKT
 62
     1
 10
-50.9999999999998792
 20
53.815045692875529
 30
-0.0000000000000119
 11
51.0000000000001208
 21
53.815045692875529
 31
-0.0000000000000119
210
0.0
220
1.0
230
-0.0000000000000002
  0
ARC
  5
16BA
  8
0
  6
VERDECKT
 62
     1
 10
55.0000000000003766
 20
53.993115754671777
 30
0.0
 40
4.0000000000004903
210
0.0
220
-0.0000000000000002
230
-1.0
 50
151.7419703852959003
 51
179.9999999999994884
  0
ARC
  5
16BB
  8
0
  6
VERDECKT
 62
     1
 10
-55.0000000000005613
 20
53.993115754671777
 30
0.0
 40
4.0000000000004539
210
0.0
220
-0.0000000000000002
230
-1.0
 50
0.0000000000005089
 51
28.2580296147042098
  0
LINE
  5
16BC
  8
0
  6
VERDECKT
 62
     1
 10
-51.4767024119372607
 20
55.8868882082554919
 30
-0.0000000000000124
 11
-52.2661935401614528
 21
57.3557089119285166
 31
-0.0000000000000127
210
0.0
220
1.0
230
-0.0000000000000002
  0
LINE
  5
16BD
  8
0
  6
VERDECKT
 62
     1
 10
51.476702411937481
 20
55.8868882082554919
 30
-0.0000000000000124
 11
52.2661935401616802
 21
57.3557089119285166
 31
-0.0000000000000127
210
0.0
220
1.0
230
-0.0000000000000002
  0
LINE
  5
16BE
  8
0
  6
VERDECKT
 62
     1
 10
53.2088316273709978
 20
54.9859696194936092
 30
-0.0000000000000122
 11
54.5272966604438096
 21
52.5120796990274599
 31
-0.0000000000000117
210
0.0
220
1.0
230
-0.0000000000000002
  0
LINE
  5
16BF
  8
0
  6
VERDECKT
 62
     1
 10
-53.2088316273707704
 20
54.9859696194936092
 30
-0.0000000000000122
 11
-54.5272966604435823
 21
52.5120796990274599
 31
-0.0000000000000117
210
0.0
220
1.0
230
-0.0000000000000002
  0
LINE
  5
16C0
  8
0
  6
VERDECKT
 62
     1
 10
-50.9999999999998792
 20
53.815045692875529
 30
-0.0000000000000119
 11
-53.2088316273707207
 21
54.9859696194935879
 31
-0.0000000000000122
210
0.0
220
1.0
230
-0.0000000000000002
  0
LINE
  5
16C1
  8
0
  6
VERDECKT
 62
     1
 10
51.0000000000001208
 20
53.815045692875529
 30
-0.0000000000000119
 11
53.2088316273709623
 21
54.9859696194935879
 31
-0.0000000000000122
210
0.0
220
1.0
230
-0.0000000000000002
  0
LINE
  5
16C2
  8
0
  6
VERDECKT
 62
     1
 10
51.0000000000001208
 20
53.9931157546718197
 30
-0.000000000000012
 11
51.0000000000001208
 21
53.815045692875529
 31
-0.0000000000000119
210
0.0
220
1.0
230
-0.0000000000000002
  0
LINE
  5
16C3
  8
0
  6
VERDECKT
 62
     1
 10
-50.9999999999998792
 20
53.9931157546718197
 30
-0.000000000000012
 11
-50.9999999999998792
 21
53.815045692875529
 31
-0.0000000000000119
210
0.0
220
1.0
230
-0.0000000000000002
  0
LINE
  5
16C4
  8
0
  6
VERDECKT
 62
     1
 10
-60.3296706598119599
 20
72.3575268089530113
 30
-0.0000000000000161
 11
-63.170329340187493
 21
77.6424731910467898
 31
-0.0000000000000172
210
0.0
220
1.0
230
-0.0000000000000002
  0
LINE
  5
16C5
  8
0
  6
VERDECKT
 62
     1
 10
60.3296706598121872
 20
72.3575268089530113
 30
-0.0000000000000161
 11
63.1703293401877204
 21
77.6424731910467898
 31
-0.0000000000000172
210
0.0
220
1.0
230
-0.0000000000000002
  0
ENDBLK
  5
1638
  8
0
  0
ENDSEC
  0
SECTION
  2
ENTITIES
  0
TEXT
  5
8E
  8
VOLL
 10
78.076754716981128
 20
31.025947764705851
 30
0.0
 40
1.8
  1

  7
GREEKS
  0
INSERT
  5
15AB
  8
DEFPOINTS
  2
A$C278D0D25
 10
-0.0000000000001448
 20
-122.5
 30
0.0
  0
INSERT
  5
1639
  8
DEFPOINTS
  2
A$C37D832F8
 10
0.0
 20
0.0
 30
0.0
  0
VIEWPORT
  5
1273
 67
     1
  8
0
 62
    24
 10
5.0536190539944901
 20
7.0933378322447238
 30
0.0
 40
25.6094362038432202
 41
14.5392217491938602
 68
     1
 69
     1
1001
ACAD
1000
MVIEW
1002
{
1070
    16
1010
0.0
1020
0.0
1030
0.0
1010
0.0
1020
0.0
1030
1.0
1040
0.0
1040
14.5392217491938602
1040
5.0536190539944901
1040
7.0933378322447238
1040
50.0
1040
0.0
1040
0.0
1070
     0
1070
  1500
1070
     1
1070
     1
1070
     0
1070
     0
1070
     0
1070
     0
1040
0.0
1040
0.0
1040
0.0
1040
10.0
1040
10.0
1040
10.0
1040
10.0
1070
     0
1002
{
1002
}
1002
}
  0
VIEWPORT
  5
1277
 67
     1
  8
DEFPOINTS
 10
5.0537201621500669
 20
7.0933378859745471
 30
0.0
 40
10.4460268971682595
 41
14.4357038435696303
 68
     2
 69
     2
1001
ACAD
1000
MVIEW
1002
{
1070
    16
1010
652.6009219987696497
1020
275.8345107280939033
1030
-73.0770030306981511
1010
0.0
1020
0.0
1030
1.0
1040
0.0
1040
432.7354926491117908
1040
-505.6808532282036026
1040
-65.0269065647132152
1040
50.0
1040
0.0
1040
0.0
1070
     0
1070
  1500
1070
     1
1070
     0
1070
     0
1070
     0
1070
     0
1070
     0
1040
0.0
1040
0.0
1040
0.0
1040
1.0
1040
1.0
1040
10.0
1040
10.0
1070
     0
1002
{
1002
}
1002
}
  0
VIEWPORT
  5
127B
 67
     1
  8
DEFPOINTS
 10
8.3045396299367908
 20
4.2808813547317319
 30
0.0
 40
2.9114437807733529
 41
3.453402277749646
 68
     3
 69
     3
1001
ACAD
1000
MVIEW
1002
{
1070
    16
1010
552.023987022934989
1020
233.6604513738797095
1030
-59.9061400166898324
1010
35.5270943408245401
1020
124.1781114286916932
1030
263.920351519159226
1040
2.8332315842534568
1040
188.704231245521612
1040
0.0
1040
0.0
1040
50.0
1040
0.0
1040
0.0
1070
     0
1070
  1500
1070
     1
1070
     0
1070
     0
1070
     0
1070
     0
1070
     0
1040
0.0
1040
0.0
1040
0.0
1040
1.0
1040
1.0
1040
10.0
1040
10.0
1070
     0
1002
{
1002
}
1002
}
  0
ENDSEC
  0
EOF
