  0
SECTION
  2
HEADER
  9
$ACADVER
  1
AC1009
  9
$INSBASE
 10
0.0
 20
0.0
 30
0.0
  9
$EXTMIN
 10
-72.5000000000000853
 20
-72.4999999999999858
 30
-0.0000000000000488
  9
$EXTMAX
 10
72.4999999999999858
 20
320.0000000000001137
 30
0.0
  9
$LIMMIN
 10
0.0
 20
0.0
  9
$LIMMAX
 10
296.9999999999998863
 20
420.0000000000001137
  9
$ORTHOMODE
 70
     1
  9
$REGENMODE
 70
     1
  9
$FILLMODE
 70
     1
  9
$QTEXTMODE
 70
     0
  9
$MIRRTEXT
 70
     1
  9
$DRAGMODE
 70
     2
  9
$LTSCALE
 40
10.0
  9
$OSMODE
 70
   511
  9
$ATTMODE
 70
     1
  9
$TEXTSIZE
 40
3.5
  9
$TRACEWID
 40
0.5
  9
$TEXTSTYLE
  7
STANDARD
  9
$CLAYER
  8
STEMPEL
  9
$CELTYPE
  6
BYLAYER
  9
$CECOLOR
 62
   256
  9
$DIMSCALE
 40
1.0
  9
$DIMASZ
 40
3.5
  9
$DIMEXO
 40
1.0
  9
$DIMDLI
 40
0.38
  9
$DIMRND
 40
0.0
  9
$DIMDLE
 40
0.0
  9
$DIMEXE
 40
1.0
  9
$DIMTP
 40
0.0
  9
$DIMTM
 40
0.000000001
  9
$DIMTXT
 40
3.5
  9
$DIMCEN
 40
0.09
  9
$DIMTSZ
 40
0.0
  9
$DIMTOL
 70
     0
  9
$DIMLIM
 70
     0
  9
$DIMTIH
 70
     0
  9
$DIMTOH
 70
     0
  9
$DIMSE1
 70
     0
  9
$DIMSE2
 70
     0
  9
$DIMTAD
 70
     1
  9
$DIMZIN
 70
     8
  9
$DIMBLK
  1

  9
$DIMASO
 70
     1
  9
$DIMSHO
 70
     0
  9
$DIMPOST
  1

  9
$DIMAPOST
  1

  9
$DIMALT
 70
     0
  9
$DIMALTD
 70
     2
  9
$DIMALTF
 40
25.3999999999999986
  9
$DIMLFAC
 40
1.0
  9
$DIMTOFL
 70
     1
  9
$DIMTVP
 40
0.0
  9
$DIMTIX
 70
     0
  9
$DIMSOXD
 70
     0
  9
$DIMSAH
 70
     0
  9
$DIMBLK1
  1

  9
$DIMBLK2
  1

  9
$DIMSTYLE
  2
LORO
  9
$DIMCLRD
 70
     0
  9
$DIMCLRE
 70
     0
  9
$DIMCLRT
 70
     1
  9
$DIMTFAC
 40
0.5
  9
$DIMGAP
 40
1.5
  9
$LUNITS
 70
     2
  9
$LUPREC
 70
     2
  9
$SKETCHINC
 40
1.0
  9
$FILLETRAD
 40
0.0
  9
$AUNITS
 70
     0
  9
$AUPREC
 70
     0
  9
$MENU
  1
ACAD
  9
$ELEVATION
 40
0.0
  9
$PELEVATION
 40
0.0
  9
$THICKNESS
 40
0.0
  9
$LIMCHECK
 70
     0
  9
$BLIPMODE
 70
     0
  9
$CHAMFERA
 40
0.0
  9
$CHAMFERB
 40
0.0
  9
$SKPOLY
 70
     0
  9
$TDCREATE
 40
2451337.6017592591233552
  9
$TDUPDATE
 40
2460104.5335532408207655
  9
$TDINDWG
 40
0.7725871759
  9
$TDUSRTIMER
 40
0.7725871759
  9
$USRTIMER
 70
     1
  9
$ANGBASE
 50
0.0
  9
$ANGDIR
 70
     0
  9
$PDMODE
 70
     0
  9
$PDSIZE
 40
0.0
  9
$PLINEWID
 40
0.0
  9
$COORDS
 70
     1
  9
$SPLFRAME
 70
     0
  9
$SPLINETYPE
 70
     6
  9
$SPLINESEGS
 70
     8
  9
$ATTDIA
 70
     1
  9
$ATTREQ
 70
     1
  9
$HANDLING
 70
     1
  9
$HANDSEED
  5
4A5F
  9
$SURFTAB1
 70
     6
  9
$SURFTAB2
 70
     6
  9
$SURFTYPE
 70
     6
  9
$SURFU
 70
     6
  9
$SURFV
 70
     6
  9
$UCSNAME
  2

  9
$UCSORG
 10
0.0
 20
0.0
 30
0.0
  9
$UCSXDIR
 10
1.0
 20
0.0
 30
0.0
  9
$UCSYDIR
 10
0.0
 20
1.0
 30
0.0
  9
$PUCSNAME
  2

  9
$PUCSORG
 10
0.0
 20
0.0
 30
0.0
  9
$PUCSXDIR
 10
1.0
 20
0.0
 30
0.0
  9
$PUCSYDIR
 10
0.0
 20
1.0
 30
0.0
  9
$USERI1
 70
     0
  9
$USERI2
 70
     0
  9
$USERI3
 70
     0
  9
$USERI4
 70
     0
  9
$USERI5
 70
     0
  9
$USERR1
 40
0.0
  9
$USERR2
 40
0.0
  9
$USERR3
 40
0.0
  9
$USERR4
 40
0.0
  9
$USERR5
 40
0.0
  9
$WORLDVIEW
 70
     1
  9
$SHADEDGE
 70
     3
  9
$SHADEDIF
 70
    70
  9
$TILEMODE
 70
     1
  9
$MAXACTVP
 70
    16
  9
$PLIMCHECK
 70
     0
  9
$PEXTMIN
 10
1.0000000000000000E+20
 20
1.0000000000000000E+20
 30
1.0000000000000000E+20
  9
$PEXTMAX
 10
-1.0000000000000000E+20
 20
-1.0000000000000000E+20
 30
-1.0000000000000000E+20
  9
$PLIMMIN
 10
-5.5229629765625239
 20
-5.2823200000000439
  9
$PLIMMAX
 10
291.4770370234375036
 20
414.7176799999999162
  9
$UNITMODE
 70
     0
  9
$VISRETAIN
 70
     0
  9
$PLINEGEN
 70
     0
  9
$PSLTSCALE
 70
     0
  0
ENDSEC
  0
SECTION
  2
TABLES
  0
TABLE
  2
VPORT
 70
     1
  0
VPORT
  2
*ACTIVE
 70
     0
 10
0.0
 20
0.0
 11
1.0
 21
1.0
 12
-0.0000000000000568
 22
49.9974708557129475
 13
0.0
 23
0.0
 14
1.0
 24
1.0
 15
10.0
 25
10.0
 16
-0.0000000000001936
 26
0.0
 36
871.9587798544224597
 17
0.0
 27
73.7525291442871094
 37
-0.0000000000000244
 40
394.5076726342712163
 41
1.8720136518771331
 42
50.0
 43
0.0
 44
0.0
 50
0.0
 51
0.0
 71
     0
 72
  1500
 73
     1
 74
     0
 75
     0
 76
     0
 77
     0
 78
     0
  0
ENDTAB
  0
TABLE
  2
LTYPE
 70
     3
  0
LTYPE
  2
CONTINUOUS
 70
     0
  3
Solid line
 72
    65
 73
     0
 40
0.0
  0
LTYPE
  2
STRICHPUNKT
 70
     0
  3
__ . __ . __ . __ . __ . __ . __ . __ . __ . __
 72
    65
 73
     4
 40
1.0
 49
0.5
 49
-0.25
 49
0.0
 49
-0.25
  0
LTYPE
  2
VERDECKT
 70
     0
  3
_ _ _ _ _ _ _ _ _ _ _ _ _ _ _ _ _ _ _ _ _ _ _
 72
    65
 73
     2
 40
0.375
 49
0.25
 49
-0.125
  0
ENDTAB
  0
TABLE
  2
LAYER
 70
     6
  0
LAYER
  2
0
 70
     0
 62
     7
  6
CONTINUOUS
  0
LAYER
  2
VOLL
 70
     0
 62
     1
  6
CONTINUOUS
  0
LAYER
  2
STEMPEL
 70
     0
 62
     3
  6
CONTINUOUS
  0
LAYER
  2
ADSK_ASSOC_ENTITY_BACKUPS
 70
     1
 62
    -7
  6
CONTINUOUS
  0
ENDTAB
  0
TABLE
  2
STYLE
 70
     3
  0
STYLE
  2
STANDARD
 70
     0
 40
0.0
 41
0.8
 50
0.0
 71
     0
 42
3.5
  3
simplex.shx
  4

  0
STYLE
  2
GREEKS
 70
     0
 40
0.0
 41
0.8
 50
0.0
 71
     0
 42
2.5
  3
SIMPLEX.shx
  4

  0
ENDTAB
  0
TABLE
  2
VIEW
 70
     0
  0
ENDTAB
  0
TABLE
  2
UCS
 70
     0
  0
ENDTAB
  0
TABLE
  2
APPID
 70
    24
  0
APPID
  2
ACAD
 70
     0
  0
APPID
  2
ACAD_EXEMPT_FROM_CAD_STANDARDS
 70
     0
  0
APPID
  2
ACAD_NAV_VCDISPLAY
 70
     0
  0
APPID
  2
ACAD_PSEXT
 70
     0
  0
APPID
  2
ACAECLAYERSTANDARD
 70
     0
  0
APPID
  2
ACCMTRANSPARENCY
 70
     0
  0
APPID
  2
ACAD_MLEADERVER
 70
     0
  0
APPID
  2
ACAD_OBJECT_CHANGE_GUID
 70
     0
  0
APPID
  2
ACDBDYNAMICBLOCKGUID
 70
     0
  0
APPID
  2
ACSYNERGY
 70
     0
  0
APPID
  2
SYNERGY_BODY_TBR_ID
 70
     0
  0
APPID
  2
ACAD_VIEW_EDGE_ID
 70
     0
  0
APPID
  2
ACAD_DSTYLE_DIMJAG
 70
     0
  0
APPID
  2
ACAD_DSTYLE_DIMBREAK
 70
     0
  0
APPID
  2
ACAD_DSTYLE_DIMTALN
 70
     0
  0
APPID
  2
ACAD_STEPID
 70
     0
  0
APPID
  2
ACSYNERGYSKETCH
 70
     0
  0
APPID
  2
ACAD_MODELDOC_XFORM
 70
     0
  0
APPID
  2
ACADANNOMONITORALERTICONDI
 70
     0
  0
APPID
  2
ACADANNOPO
 70
     0
  0
APPID
  2
ACAD_DIMASSOC_CALC_DIMLFAC
 70
     0
  0
APPID
  2
ACAD_DIMASSOC_DIMLFAC
 70
     0
  0
APPID
  2
ACAD_DIMASSOC_OVERRIDDEN_D
 70
     0
  0
APPID
  2
ACAD_DSTYLE_DIMRADIAL_EXTENSION
 70
     0
  0
ENDTAB
  0
TABLE
  2
DIMSTYLE
 70
     5
  0
DIMSTYLE
  2
LORO
 70
     0
  3

  4

  5

  6

  7

 40
1.0
 41
3.5
 42
1.0
 43
0.38
 44
1.0
 45
0.0
 46
0.0
 47
0.0
 48
0.000000001
140
3.5
141
0.09
142
0.0
143
25.3999999999999986
144
1.0
145
0.0
146
0.5
147
1.5
 71
     0
 72
     0
 73
     0
 74
     0
 75
     0
 76
     0
 77
     1
 78
     8
170
     0
171
     2
172
     1
173
     0
174
     0
175
     0
176
     0
177
     0
178
     1
  0
ENDTAB
  0
ENDSEC
  0
SECTION
  2
BLOCKS
  0
BLOCK
  8
0
  2
$MODEL_SPACE
 70
     0
 10
0.0
 20
0.0
 30
0.0
  3
$MODEL_SPACE
  1

  0
ENDBLK
  5
36
  8
0
  0
BLOCK
 67
     1
  8
0
  2
$PAPER_SPACE
 70
     0
 10
0.0
 20
0.0
 30
0.0
  3
$PAPER_SPACE
  1

  0
ENDBLK
  5
34
 67
     1
  8
0
  0
BLOCK
  8
0
  2
*S0
 70
     1
 10
0.0
 20
0.0
 30
0.0
  3
*S0
  1

  0
ENDBLK
  5
2548
  8
0
  0
BLOCK
  8
0
  2
A$C460CF53A
 70
     0
 10
0.0
 20
0.0
 30
0.0
  3
A$C460CF53A
  1

  0
CIRCLE
  5
49C0
  8
0
  6
CONTINUOUS
 62
     3
 10
-0.0000000000000185
 20
0.0000000000000135
 30
0.0
 40
70.0
  0
CIRCLE
  5
49C1
  8
0
  6
CONTINUOUS
 62
     3
 10
-0.0000000000000185
 20
0.0000000000000135
 30
0.0
 40
72.5
  0
CIRCLE
  5
49C2
  8
0
  6
CONTINUOUS
 62
     3
 10
-0.0000000000000091
 20
0.0000000000000002
 30
0.0
 40
48.0154442465726703
  0
CIRCLE
  5
49C3
  8
0
  6
CONTINUOUS
 62
     3
 10
-0.0000000000000207
 20
0.0000000000000101
 30
0.0
 40
48.9999999999999929
  0
CIRCLE
  5
49C4
  8
0
  6
CONTINUOUS
 62
     3
 10
-0.0000000000000221
 20
0.0000000000000113
 30
0.0
 40
63.5504885145647407
  0
CIRCLE
  5
49C5
  8
0
  6
CONTINUOUS
 62
     3
 10
-0.000000000000022
 20
0.0000000000000112
 30
0.0
 40
65.0
  0
CIRCLE
  5
49C6
  8
0
  6
VERDECKT
 62
     1
 10
-0.0000000000000147
 20
0.0000000000000107
 30
0.0
 40
64.0000000000000568
  0
CIRCLE
  5
49C7
  8
0
  6
VERDECKT
 62
     1
 10
-0.0000000000000147
 20
0.0000000000000107
 30
0.0
 40
66.5000000000000568
  0
CIRCLE
  5
49C8
  8
0
  6
VERDECKT
 62
     1
 10
-0.0000000000000091
 20
0.0000000000000002
 30
0.0
 40
50.0
  0
CIRCLE
  5
49C9
  8
0
  6
VERDECKT
 62
     1
 10
-0.0000000000000207
 20
0.0000000000000101
 30
0.0
 40
51.0000000000000071
  0
ENDBLK
  5
49CB
  8
0
  0
BLOCK
  8
0
  2
A$C763361EE
 70
     0
 10
0.0
 20
0.0
 30
0.0
  3
A$C763361EE
  1

  0
LINE
  5
49CF
  8
0
  6
CONTINUOUS
 62
     3
 10
-66.5
 20
-0.0000000000000239
 30
0.0
 11
66.5
 21
0.0000000000000168
 31
0.0
210
0.0
220
1.0
230
-0.0000000000000002
  0
LINE
  5
49D0
  8
0
  6
CONTINUOUS
 62
     3
 10
-72.5000000000000853
 20
220.0
 30
-0.0000000000000488
 11
72.4999999999999147
 21
220.0000000000001137
 31
-0.0000000000000488
210
0.0
220
1.0
230
-0.0000000000000002
  0
LINE
  5
49D1
  8
0
  6
CONTINUOUS
 62
     3
 10
72.4999999999999147
 20
220.0000000000001137
 30
-0.0000000000000488
 11
72.4999999999999147
 21
210.0
 31
-0.0000000000000466
210
0.0
220
1.0
230
-0.0000000000000002
  0
LINE
  5
49D2
  8
0
  6
CONTINUOUS
 62
     3
 10
-72.5000000000000568
 20
220.0
 30
-0.0000000000000488
 11
-72.5000000000000568
 21
210.0
 31
-0.0000000000000466
210
0.0
220
1.0
230
-0.0000000000000002
  0
ARC
  5
49D3
  8
0
  6
CONTINUOUS
 62
     3
 10
45.0000000000009166
 20
210.0
 30
0.0
 40
27.4999999999991296
210
0.0
220
-0.0000000000000002
230
-1.0
 50
348.3661021325622187
 51
0.0000000000001781
  0
ARC
  5
49D4
  8
0
  6
CONTINUOUS
 62
     3
 10
-44.9999999999980602
 20
210.0000000000003126
 30
0.0
 40
27.5000000000018794
210
0.0
220
-0.0000000000000002
230
-1.0
 50
180.0000000000003979
 51
191.6338978674372129
  0
LINE
  5
49D5
  8
0
  6
CONTINUOUS
 62
     3
 10
-67.116316563226107
 20
181.0497229430324921
 30
-0.0000000000000402
 11
-71.9350431503762309
 21
204.4544206355535891
 31
-0.0000000000000454
210
0.0
220
1.0
230
-0.0000000000000002
  0
LINE
  5
49D6
  8
0
  6
CONTINUOUS
 62
     3
 10
67.1163165632260075
 20
181.0497229430324921
 30
-0.0000000000000402
 11
71.935043150376103
 21
204.4544206355535891
 31
-0.0000000000000454
210
0.0
220
1.0
230
-0.0000000000000002
  0
ARC
  5
49D7
  8
0
  6
CONTINUOUS
 62
     3
 10
96.4999999999979963
 20
175.0000000000001137
 30
0.0
 40
29.9999999999978684
210
0.0
220
-0.0000000000000002
230
-1.0
 50
168.366102132561906
 51
180.000000000000199
  0
ARC
  5
49D8
  8
0
  6
CONTINUOUS
 62
     3
 10
-96.4999999999981526
 20
175.000000000000199
 30
0.0
 40
29.999999999998149
210
0.0
220
-0.0000000000000002
230
-1.0
 50
359.9999999999997158
 51
11.6338978674380105
  0
LINE
  5
49D9
  8
0
  6
CONTINUOUS
 62
     3
 10
66.4999999999999716
 20
175.0
 30
-0.0000000000000389
 11
66.5000000000000284
 21
0.0
 31
0.0
210
0.0
220
1.0
230
-0.0000000000000002
  0
LINE
  5
49DA
  8
0
  6
CONTINUOUS
 62
     3
 10
-66.5000000000000853
 20
175.0
 30
-0.0000000000000389
 11
-66.5000000000000284
 21
-0.0000000000000284
 31
0.0
210
0.0
220
1.0
230
-0.0000000000000002
  0
LINE
  5
49DB
  8
0
  6
VERDECKT
 62
     1
 10
63.9999999999999716
 20
175.0
 30
-0.0000000000000389
 11
64.0000000000000284
 21
0.0000000000000284
 31
0.0
210
0.0
220
1.0
230
-0.0000000000000002
  0
LINE
  5
49DC
  8
0
  6
VERDECKT
 62
     1
 10
-64.0000000000000853
 20
175.0
 30
-0.0000000000000389
 11
-64.0000000000000284
 21
-0.0000000000000284
 31
0.0
210
0.0
220
1.0
230
-0.0000000000000002
  0
ARC
  5
49DD
  8
0
  6
VERDECKT
 62
     1
 10
96.5000000000004121
 20
175.0
 30
0.0
 40
32.50000000000027
210
0.0
220
-0.0000000000000002
230
-1.0
 50
168.3661021325623892
 51
179.9999999999998863
  0
ARC
  5
49DE
  8
0
  6
VERDECKT
 62
     1
 10
-96.500000000003439
 20
174.9999999999996874
 30
0.0
 40
32.500000000003439
210
0.0
220
-0.0000000000000002
230
-1.0
 50
0.0000000000006107
 51
11.6338978674370104
  0
LINE
  5
49DF
  8
0
  6
VERDECKT
 62
     1
 10
-64.6676762768282885
 20
181.5538665216184882
 30
-0.0000000000000403
 11
-69.4864028639783555
 21
204.9585642141396136
 31
-0.0000000000000455
210
0.0
220
1.0
230
-0.0000000000000002
  0
LINE
  5
49E0
  8
0
  6
VERDECKT
 62
     1
 10
64.6676762768281748
 20
181.5538665216186018
 30
-0.0000000000000403
 11
69.4864028639782418
 21
204.9585642141396136
 31
-0.0000000000000455
210
0.0
220
1.0
230
-0.0000000000000002
  0
ARC
  5
49E1
  8
0
  6
VERDECKT
 62
     1
 10
45.0000000000008171
 20
210.0
 30
0.0
 40
24.9999999999992397
210
0.0
220
-0.0000000000000002
230
-1.0
 50
348.3661021325619913
 51
0.0000000000001272
  0
ARC
  5
49E2
  8
0
  6
VERDECKT
 62
     1
 10
-44.9999999999969091
 20
210.0000000000003979
 30
0.0
 40
25.0000000000030305
210
0.0
220
-0.0000000000000002
230
-1.0
 50
180.0000000000005969
 51
191.6338978674369002
  0
LINE
  5
49E3
  8
0
  6
VERDECKT
 62
     1
 10
69.9999999999999147
 20
220.0000000000001137
 30
-0.0000000000000488
 11
69.9999999999999147
 21
210.0
 31
-0.0000000000000466
210
0.0
220
1.0
230
-0.0000000000000002
  0
LINE
  5
49E4
  8
0
  6
VERDECKT
 62
     1
 10
-70.0000000000000568
 20
220.0
 30
-0.0000000000000488
 11
-70.0000000000000568
 21
210.0
 31
-0.0000000000000466
210
0.0
220
1.0
230
-0.0000000000000002
  0
LINE
  5
49E5
  8
0
  6
VERDECKT
 62
     1
 10
-50.0000000000000284
 20
3.0000000000000071
 30
-0.0000000000000007
 11
50.0
 21
3.000000000000036
 31
-0.0000000000000007
210
0.0
220
1.0
230
-0.0000000000000002
  0
LINE
  5
49E6
  8
0
  6
VERDECKT
 62
     1
 10
-48.0154442465726703
 20
3.2480694691784251
 30
-0.0000000000000007
 11
48.015444246572649
 21
3.248069469178454
 31
-0.0000000000000007
210
0.0
220
1.0
230
-0.0000000000000002
  0
LINE
  5
49E7
  8
0
  6
VERDECKT
 62
     1
 10
-63.5504885145647975
 20
185.0
 30
-0.0000000000000411
 11
63.5504885145646696
 21
185.0000000000001137
 31
-0.0000000000000411
210
0.0
220
1.0
230
-0.0000000000000002
  0
LINE
  5
49E8
  8
0
  6
VERDECKT
 62
     1
 10
-65.0000000000000568
 20
183.6219882244367909
 30
-0.0000000000000408
 11
64.9999999999999432
 21
183.6219882244367909
 31
-0.0000000000000408
210
0.0
220
1.0
230
-0.0000000000000002
  0
ARC
  5
49E9
  8
0
  6
VERDECKT
 62
     1
 10
50.0000000000016271
 20
11.0622577482984799
 30
0.0
 40
0.9999999999983868
210
0.0
220
-0.0000000000000002
230
-1.0
 50
352.8749836510912132
 51
0.000000000004566
  0
ARC
  5
49EA
  8
0
  6
VERDECKT
 62
     1
 10
-50.0000000000015987
 20
11.0622577482985101
 30
0.0
 40
0.999999999998387
210
0.0
220
-0.0000000000000002
230
-1.0
 50
179.9999999999953957
 51
187.1250163489087015
  0
LINE
  5
49EB
  8
0
  6
VERDECKT
 62
     1
 10
-50.0
 20
3.0000000000000071
 30
-0.0000000000000007
 11
-50.9922778767136791
 21
10.9382230137093508
 31
-0.0000000000000024
210
0.0
220
1.0
230
-0.0000000000000002
  0
LINE
  5
49EC
  8
0
  6
VERDECKT
 62
     1
 10
49.9999999999999929
 20
3.00000000000004
 30
-0.0000000000000007
 11
50.9922778767136577
 21
10.9382230137093792
 31
-0.0000000000000024
210
0.0
220
1.0
230
-0.0000000000000002
  0
LINE
  5
49ED
  8
0
  6
VERDECKT
 62
     1
 10
50.9999999999999503
 20
165.5000000000001137
 30
-0.0000000000000367
 11
50.9999999999999929
 21
11.0622577482985793
 31
-0.0000000000000025
210
0.0
220
1.0
230
-0.0000000000000002
  0
LINE
  5
49EE
  8
0
  6
VERDECKT
 62
     1
 10
-51.0000000000000568
 20
165.5000000000001137
 30
-0.0000000000000367
 11
-51.0000000000000213
 21
11.0622577482985491
 31
-0.0000000000000025
210
0.0
220
1.0
230
-0.0000000000000002
  0
ARC
  5
49EF
  8
0
  6
VERDECKT
 62
     1
 10
48.0000000000016485
 20
11.1867732448955408
 30
0.0
 40
0.9999999999983658
210
0.0
220
-0.0000000000000002
230
-1.0
 50
352.8749836510910995
 51
0.0000000000046818
  0
ARC
  5
49F0
  8
0
  6
VERDECKT
 62
     1
 10
-48.0000000000016698
 20
11.1867732448955604
 30
0.0
 40
0.9999999999983089
210
0.0
220
-0.0000000000000002
230
-1.0
 50
179.9999999999953104
 51
187.1250163489090994
  0
LINE
  5
49F1
  8
0
  6
VERDECKT
 62
     1
 10
-48.0154442465726703
 20
3.2480694691784251
 30
-0.0000000000000007
 11
-48.992277876713672
 21
11.06273851030641
 31
-0.0000000000000025
210
0.0
220
1.0
230
-0.0000000000000002
  0
LINE
  5
49F2
  8
0
  6
VERDECKT
 62
     1
 10
48.0154442465726419
 20
3.248069469178458
 30
-0.0000000000000007
 11
48.9922778767136506
 21
11.0627385103064402
 31
-0.0000000000000025
210
0.0
220
1.0
230
-0.0000000000000002
  0
LINE
  5
49F3
  8
0
  6
VERDECKT
 62
     1
 10
48.9999999999999503
 20
165.5000000000001137
 30
-0.0000000000000367
 11
48.9999999999999787
 21
11.1867732448956492
 31
-0.0000000000000025
210
0.0
220
1.0
230
-0.0000000000000002
  0
LINE
  5
49F4
  8
0
  6
VERDECKT
 62
     1
 10
-49.0000000000000497
 20
165.5000000000001137
 30
-0.0000000000000367
 11
-49.0000000000000213
 21
11.1867732448956207
 31
-0.0000000000000025
210
0.0
220
1.0
230
-0.0000000000000002
  0
LINE
  5
49F5
  8
0
  6
VERDECKT
 62
     1
 10
48.015444246572649
 20
3.248069469178454
 30
-0.0000000000000007
 11
50.0
 21
3.000000000000036
 31
-0.0000000000000007
210
0.0
220
1.0
230
-0.0000000000000002
  0
LINE
  5
49F6
  8
0
  6
VERDECKT
 62
     1
 10
-48.0154442465726774
 20
3.2480694691784251
 30
-0.0000000000000007
 11
-50.0000000000000071
 21
3.0000000000000071
 31
-0.0000000000000007
210
0.0
220
1.0
230
-0.0000000000000002
  0
ARC
  5
49F7
  8
0
  6
VERDECKT
 62
     1
 10
59.4999999999999716
 20
165.500000000000199
 30
0.0
 40
10.4999999999998899
210
0.0
220
-0.0000000000000002
230
-1.0
 50
136.448532299383487
 51
180.000000000000199
  0
ARC
  5
49F8
  8
0
  6
VERDECKT
 62
     1
 10
-59.4999999999999787
 20
165.500000000000199
 30
0.0
 40
10.5000000000000195
210
0.0
220
-0.0000000000000002
230
-1.0
 50
359.9999999999997726
 51
43.5514677006162501
  0
LINE
  5
49F9
  8
0
  6
VERDECKT
 62
     1
 10
-51.8900647014648868
 20
172.7345618217075867
 30
-0.0000000000000384
 11
-63.5504885145647691
 21
185.0000000000001137
 31
-0.0000000000000411
210
0.0
220
1.0
230
-0.0000000000000002
  0
LINE
  5
49FA
  8
0
  6
VERDECKT
 62
     1
 10
51.8900647014647589
 20
172.7345618217077003
 30
-0.0000000000000384
 11
63.5504885145646625
 21
185.0000000000001137
 31
-0.0000000000000411
210
0.0
220
1.0
230
-0.0000000000000002
  0
LINE
  5
49FB
  8
0
  6
VERDECKT
 62
     1
 10
63.5504885145646767
 20
185.0000000000001137
 30
-0.0000000000000411
 11
64.9999999999999574
 21
183.6219882244367909
 31
-0.0000000000000408
210
0.0
220
1.0
230
-0.0000000000000002
  0
LINE
  5
49FC
  8
0
  6
VERDECKT
 62
     1
 10
-63.5504885145648188
 20
185.0000000000001137
 30
-0.0000000000000411
 11
-65.0000000000000568
 21
183.6219882244367909
 31
-0.0000000000000408
210
0.0
220
1.0
230
-0.0000000000000002
  0
LINE
  5
49FD
  8
0
  6
VERDECKT
 62
     1
 10
-53.3395761869002314
 20
171.3565500461442923
 30
-0.000000000000038
 11
-65.0000000000000711
 21
183.6219882244367909
 31
-0.0000000000000408
210
0.0
220
1.0
230
-0.0000000000000002
  0
LINE
  5
49FE
  8
0
  6
VERDECKT
 62
     1
 10
53.3395761869000893
 20
171.356550046144406
 30
-0.000000000000038
 11
64.9999999999999147
 21
183.6219882244367909
 31
-0.0000000000000408
210
0.0
220
1.0
230
-0.0000000000000002
  0
ARC
  5
49FF
  8
0
  6
VERDECKT
 62
     1
 10
59.5000000000000213
 20
165.5000000000001137
 30
0.0
 40
8.4999999999999432
210
0.0
220
-0.0000000000000002
230
-1.0
 50
136.4485322993828049
 51
180.0000000000001137
  0
ARC
  5
4A00
  8
0
  6
VERDECKT
 62
     1
 10
-59.4999999999999503
 20
165.500000000000199
 30
0.0
 40
8.5
210
0.0
220
-0.0000000000000002
230
-1.0
 50
359.9999999999997726
 51
43.5514677006167474
  0
ENDBLK
  5
4A02
  8
0
  0
ENDSEC
  0
SECTION
  2
ENTITIES
  0
TEXT
  5
8E
  8
VOLL
 10
78.076754716981128
 20
31.025947764705851
 30
0.0
 40
1.8
  1

  7
GREEKS
  0
INSERT
  5
254A
  8
ADSK_ASSOC_ENTITY_BACKUPS
  2
*S0
 10
0.0
 20
0.0
 30
0.0
  0
INSERT
  5
49CC
  8
STEMPEL
  2
A$C460CF53A
 10
0.0
 20
0.0
 30
0.0
  0
INSERT
  5
4A03
  8
STEMPEL
  2
A$C763361EE
 10
0.0
 20
100.0
 30
0.0
  0
VIEWPORT
  5
228B
 67
     1
  8
0
 10
142.97703702343739
 20
204.7176799999998877
 30
0.0
 40
790.2674510967764263
 41
422.1483375959078899
 68
     1
 69
     1
1001
ACAD
1000
MVIEW
1002
{
1070
    16
1010
0.0
1020
0.0
1030
0.0
1010
0.0
1020
0.0
1030
1.0
1040
0.0
1040
422.1483375959078899
1040
142.97703702343739
1040
204.7176799999998877
1040
50.0
1040
0.0
1040
0.0
1070
     0
1070
  1500
1070
     1
1070
     1
1070
     0
1070
     0
1070
     0
1070
     0
1040
0.0
1040
0.0
1040
0.0
1040
10.0
1040
10.0
1040
10.0
1040
10.0
1070
     0
1002
{
1002
}
1002
}
  0
ENDSEC
  0
EOF
