  0
SECTION
  2
HEADER
  9
$ACADVER
  1
AC1009
  9
$INSBASE
 10
0.0
 20
0.0
 30
0.0
  9
$EXTMIN
 10
-61.9401499596764324
 20
-61.943903335408443
 30
-0.0015258207003583
  9
$EXTMAX
 10
61.9456291769789686
 20
195.0296040054170135
 30
0.0000000349246037
  9
$LIMMIN
 10
0.0
 20
0.0
  9
$LIMMAX
 10
296.9999999999998863
 20
420.0000000000001137
  9
$ORTHOMODE
 70
     1
  9
$REGENMODE
 70
     1
  9
$FILLMODE
 70
     1
  9
$QTEXTMODE
 70
     0
  9
$MIRRTEXT
 70
     1
  9
$DRAGMODE
 70
     2
  9
$LTSCALE
 40
10.0
  9
$OSMODE
 70
   511
  9
$ATTMODE
 70
     1
  9
$TEXTSIZE
 40
3.5
  9
$TRACEWID
 40
0.5
  9
$TEXTSTYLE
  7
STANDARD
  9
$CLAYER
  8
STEMPEL
  9
$CELTYPE
  6
BYLAYER
  9
$CECOLOR
 62
   256
  9
$DIMSCALE
 40
1.0
  9
$DIMASZ
 40
3.5
  9
$DIMEXO
 40
1.0
  9
$DIMDLI
 40
0.38
  9
$DIMRND
 40
0.0
  9
$DIMDLE
 40
0.0
  9
$DIMEXE
 40
1.0
  9
$DIMTP
 40
0.0
  9
$DIMTM
 40
0.000000001
  9
$DIMTXT
 40
3.5
  9
$DIMCEN
 40
0.09
  9
$DIMTSZ
 40
0.0
  9
$DIMTOL
 70
     0
  9
$DIMLIM
 70
     0
  9
$DIMTIH
 70
     0
  9
$DIMTOH
 70
     0
  9
$DIMSE1
 70
     0
  9
$DIMSE2
 70
     0
  9
$DIMTAD
 70
     1
  9
$DIMZIN
 70
     8
  9
$DIMBLK
  1

  9
$DIMASO
 70
     1
  9
$DIMSHO
 70
     0
  9
$DIMPOST
  1

  9
$DIMAPOST
  1

  9
$DIMALT
 70
     0
  9
$DIMALTD
 70
     2
  9
$DIMALTF
 40
25.3999999999999986
  9
$DIMLFAC
 40
1.0
  9
$DIMTOFL
 70
     1
  9
$DIMTVP
 40
0.0
  9
$DIMTIX
 70
     0
  9
$DIMSOXD
 70
     0
  9
$DIMSAH
 70
     0
  9
$DIMBLK1
  1

  9
$DIMBLK2
  1

  9
$DIMSTYLE
  2
LORO
  9
$DIMCLRD
 70
     0
  9
$DIMCLRE
 70
     0
  9
$DIMCLRT
 70
     1
  9
$DIMTFAC
 40
0.5
  9
$DIMGAP
 40
1.5
  9
$LUNITS
 70
     2
  9
$LUPREC
 70
     2
  9
$SKETCHINC
 40
1.0
  9
$FILLETRAD
 40
0.0
  9
$AUNITS
 70
     0
  9
$AUPREC
 70
     0
  9
$MENU
  1
ACAD
  9
$ELEVATION
 40
0.0
  9
$PELEVATION
 40
0.0
  9
$THICKNESS
 40
0.0
  9
$LIMCHECK
 70
     0
  9
$BLIPMODE
 70
     0
  9
$CHAMFERA
 40
0.0
  9
$CHAMFERB
 40
0.0
  9
$SKPOLY
 70
     0
  9
$TDCREATE
 40
2451337.6017592591233552
  9
$TDUPDATE
 40
2460104.5349421300925314
  9
$TDINDWG
 40
0.6749945833
  9
$TDUSRTIMER
 40
0.6749945833
  9
$USRTIMER
 70
     1
  9
$ANGBASE
 50
0.0
  9
$ANGDIR
 70
     0
  9
$PDMODE
 70
     0
  9
$PDSIZE
 40
0.0
  9
$PLINEWID
 40
0.0
  9
$COORDS
 70
     1
  9
$SPLFRAME
 70
     0
  9
$SPLINETYPE
 70
     6
  9
$SPLINESEGS
 70
     8
  9
$ATTDIA
 70
     1
  9
$ATTREQ
 70
     1
  9
$HANDLING
 70
     1
  9
$HANDSEED
  5
45B7
  9
$SURFTAB1
 70
     6
  9
$SURFTAB2
 70
     6
  9
$SURFTYPE
 70
     6
  9
$SURFU
 70
     6
  9
$SURFV
 70
     6
  9
$UCSNAME
  2

  9
$UCSORG
 10
0.0
 20
0.0
 30
0.0
  9
$UCSXDIR
 10
1.0
 20
0.0
 30
0.0
  9
$UCSYDIR
 10
0.0
 20
1.0
 30
0.0
  9
$PUCSNAME
  2

  9
$PUCSORG
 10
0.0
 20
0.0
 30
0.0
  9
$PUCSXDIR
 10
1.0
 20
0.0
 30
0.0
  9
$PUCSYDIR
 10
0.0
 20
1.0
 30
0.0
  9
$USERI1
 70
     0
  9
$USERI2
 70
     0
  9
$USERI3
 70
     0
  9
$USERI4
 70
     0
  9
$USERI5
 70
     0
  9
$USERR1
 40
0.0
  9
$USERR2
 40
0.0
  9
$USERR3
 40
0.0
  9
$USERR4
 40
0.0
  9
$USERR5
 40
0.0
  9
$WORLDVIEW
 70
     1
  9
$SHADEDGE
 70
     3
  9
$SHADEDIF
 70
    70
  9
$TILEMODE
 70
     1
  9
$MAXACTVP
 70
    16
  9
$PLIMCHECK
 70
     0
  9
$PEXTMIN
 10
1.0000000000000000E+20
 20
1.0000000000000000E+20
 30
1.0000000000000000E+20
  9
$PEXTMAX
 10
-1.0000000000000000E+20
 20
-1.0000000000000000E+20
 30
-1.0000000000000000E+20
  9
$PLIMMIN
 10
-5.5177132616180407
 20
-5.2652080567718249
  9
$PLIMMAX
 10
291.4822867383819016
 20
414.7347919432281742
  9
$UNITMODE
 70
     0
  9
$VISRETAIN
 70
     0
  9
$PLINEGEN
 70
     0
  9
$PSLTSCALE
 70
     0
  0
ENDSEC
  0
SECTION
  2
TABLES
  0
TABLE
  2
VPORT
 70
     1
  0
VPORT
  2
*ACTIVE
 70
     0
 10
0.0
 20
0.0
 11
1.0
 21
1.0
 12
0.0027396086512681
 22
50.0052889183783122
 13
0.0
 23
0.0
 14
1.0
 24
1.0
 15
10.0
 25
10.0
 16
-0.0000000000001143
 26
0.0
 36
514.9077819132107834
 17
0.0
 27
16.5375614166259695
 37
-0.0000000000000105
 40
258.2890281656161733
 41
1.8720136518771331
 42
50.0
 43
0.0
 44
0.0
 50
0.0
 51
0.0
 71
     0
 72
  1500
 73
     1
 74
     0
 75
     0
 76
     0
 77
     0
 78
     0
  0
ENDTAB
  0
TABLE
  2
LTYPE
 70
     3
  0
LTYPE
  2
CONTINUOUS
 70
     0
  3
Solid line
 72
    65
 73
     0
 40
0.0
  0
LTYPE
  2
STRICHPUNKT
 70
     0
  3
__ . __ . __ . __ . __ . __ . __ . __ . __ . __
 72
    65
 73
     4
 40
1.0
 49
0.5
 49
-0.25
 49
0.0
 49
-0.25
  0
LTYPE
  2
VERDECKT
 70
     0
  3
_ _ _ _ _ _ _ _ _ _ _ _ _ _ _ _ _ _ _ _ _ _ _
 72
    65
 73
     2
 40
0.375
 49
0.25
 49
-0.125
  0
ENDTAB
  0
TABLE
  2
LAYER
 70
     6
  0
LAYER
  2
0
 70
     0
 62
     7
  6
CONTINUOUS
  0
LAYER
  2
VOLL
 70
     0
 62
     1
  6
CONTINUOUS
  0
LAYER
  2
STEMPEL
 70
     0
 62
     3
  6
CONTINUOUS
  0
LAYER
  2
ADSK_ASSOC_ENTITY_BACKUPS
 70
     1
 62
    -7
  6
CONTINUOUS
  0
ENDTAB
  0
TABLE
  2
STYLE
 70
     2
  0
STYLE
  2
STANDARD
 70
     0
 40
0.0
 41
0.8
 50
0.0
 71
     0
 42
3.5
  3
simplex.shx
  4

  0
STYLE
  2
GREEKS
 70
     0
 40
0.0
 41
0.8
 50
0.0
 71
     0
 42
2.5
  3
SIMPLEX.shx
  4

  0
ENDTAB
  0
TABLE
  2
VIEW
 70
     0
  0
ENDTAB
  0
TABLE
  2
UCS
 70
     0
  0
ENDTAB
  0
TABLE
  2
APPID
 70
    24
  0
APPID
  2
ACAD
 70
     0
  0
APPID
  2
ACAD_EXEMPT_FROM_CAD_STANDARDS
 70
     0
  0
APPID
  2
ACAD_NAV_VCDISPLAY
 70
     0
  0
APPID
  2
ACAD_PSEXT
 70
     0
  0
APPID
  2
ACAECLAYERSTANDARD
 70
     0
  0
APPID
  2
ACCMTRANSPARENCY
 70
     0
  0
APPID
  2
ACAD_MLEADERVER
 70
     0
  0
APPID
  2
ACAD_OBJECT_CHANGE_GUID
 70
     0
  0
APPID
  2
ACDBDYNAMICBLOCKGUID
 70
     0
  0
APPID
  2
ACSYNERGY
 70
     0
  0
APPID
  2
SYNERGY_BODY_TBR_ID
 70
     0
  0
APPID
  2
ACAD_VIEW_EDGE_ID
 70
     0
  0
APPID
  2
ACAD_DSTYLE_DIMJAG
 70
     0
  0
APPID
  2
ACAD_DSTYLE_DIMBREAK
 70
     0
  0
APPID
  2
ACAD_DSTYLE_DIMTALN
 70
     0
  0
APPID
  2
ACAD_STEPID
 70
     0
  0
APPID
  2
ACSYNERGYSKETCH
 70
     0
  0
APPID
  2
ACAD_MODELDOC_XFORM
 70
     0
  0
APPID
  2
ACADANNOMONITORALERTICONDI
 70
     0
  0
APPID
  2
ACADANNOPO
 70
     0
  0
APPID
  2
ACAD_DIMASSOC_CALC_DIMLFAC
 70
     0
  0
APPID
  2
ACAD_DIMASSOC_DIMLFAC
 70
     0
  0
APPID
  2
ACAD_DIMASSOC_OVERRIDDEN_D
 70
     0
  0
APPID
  2
ACAD_DSTYLE_DIMRADIAL_EXTENSION
 70
     0
  0
ENDTAB
  0
TABLE
  2
DIMSTYLE
 70
     4
  0
DIMSTYLE
  2
LORO
 70
     0
  3

  4

  5

  6

  7

 40
1.0
 41
3.5
 42
1.0
 43
0.38
 44
1.0
 45
0.0
 46
0.0
 47
0.0
 48
0.000000001
140
3.5
141
0.09
142
0.0
143
25.3999999999999986
144
1.0
145
0.0
146
0.5
147
1.5
 71
     0
 72
     0
 73
     0
 74
     0
 75
     0
 76
     0
 77
     1
 78
     8
170
     0
171
     2
172
     1
173
     0
174
     0
175
     0
176
     0
177
     0
178
     1
  0
ENDTAB
  0
ENDSEC
  0
SECTION
  2
BLOCKS
  0
BLOCK
  8
0
  2
$MODEL_SPACE
 70
     0
 10
0.0
 20
0.0
 30
0.0
  3
$MODEL_SPACE
  1

  0
ENDBLK
  5
36
  8
0
  0
BLOCK
 67
     1
  8
0
  2
$PAPER_SPACE
 70
     0
 10
0.0
 20
0.0
 30
0.0
  3
$PAPER_SPACE
  1

  0
ENDBLK
  5
34
 67
     1
  8
0
  0
BLOCK
  8
0
  2
*S0
 70
     1
 10
0.0
 20
0.0
 30
0.0
  3
*S0
  1

  0
ENDBLK
  5
2548
  8
0
  0
BLOCK
  8
0
  2
A$C81D242A6
 70
     0
 10
0.0
 20
0.0
 30
0.0
  3
A$C81D242A6
  1

  0
CIRCLE
  5
4503
  8
0
  6
CONTINUOUS
 62
     3
 10
0.0000000000000004
 20
0.0000000000000001
 30
0.0
 40
34.1240150093808623
  0
CIRCLE
  5
4504
  8
0
  6
CONTINUOUS
 62
     3
 10
-0.0000000000000052
 20
0.0000000000000028
 30
0.0
 40
34.8999999999999915
  0
CIRCLE
  5
4505
  8
0
  6
CONTINUOUS
 62
     3
 10
-0.0000000000000078
 20
0.000000000000004
 30
0.0
 40
55.8481932212873176
  0
CIRCLE
  5
4506
  8
0
  6
CONTINUOUS
 62
     3
 10
-0.0000000000000076
 20
0.0000000000000039
 30
0.0
 40
56.7429018668405121
  0
CIRCLE
  5
4507
  8
0
  6
CONTINUOUS
 62
     3
 10
0.0000000000000171
 20
0.0000000000000047
 30
0.0
 40
56.9999999999999929
  0
CIRCLE
  5
4508
  8
0
  6
CONTINUOUS
 62
     3
 10
0.00000000000002
 20
0.0000000000000055
 30
0.0
 40
59.0
  0
CIRCLE
  5
4509
  8
0
  6
CONTINUOUS
 62
     3
 10
0.0000000000000211
 20
0.0000000000000058
 30
0.0
 40
60.0
  0
CIRCLE
  5
450A
  8
0
  6
CONTINUOUS
 62
     3
 10
0.000000000000021
 20
0.0000000000000058
 30
0.0
 40
61.9291971455455723
  0
CIRCLE
  5
450B
  8
0
  6
VERDECKT
 62
     1
 10
-0.0000000000000052
 20
0.0000000000000028
 30
0.0
 40
36.4999999999999929
  0
CIRCLE
  5
450C
  8
0
  6
VERDECKT
 62
     1
 10
0.0000000000000004
 20
0.0000000000000001
 30
0.0
 40
35.7000000000000028
  0
CIRCLE
  5
450D
  8
0
  6
VERDECKT
 62
     1
 10
0.0000000000000056
 20
0.0000000000000015
 30
0.0
 40
51.0000000000000071
  0
CIRCLE
  5
450E
  8
0
  6
VERDECKT
 62
     1
 10
0.0000000000000056
 20
0.0000000000000015
 30
0.0
 40
49.0
  0
CIRCLE
  5
450F
  8
0
  6
VERDECKT
 62
     1
 10
0.00000000000002
 20
0.0000000000000055
 30
0.0
 40
61.0
  0
ENDBLK
  5
4511
  8
0
  0
BLOCK
  8
0
  2
A$CF5A5A9D0
 70
     0
 10
0.0
 20
0.0
 30
0.0
  3
A$CF5A5A9D0
  1

  0
LINE
  5
4515
  8
0
  6
CONTINUOUS
 62
     3
 10
-51.0000000000000213
 20
-0.0000000000000027
 30
0.0
 11
51.0000000000000071
 21
-0.0000000000000027
 31
0.0
210
0.0
220
1.0
230
-0.0000000000000002
  0
LINE
  5
4516
  8
0
  6
CONTINUOUS
 62
     3
 10
-60.0
 20
95.0000000000000142
 30
-0.0000000000000211
 11
60.0
 21
95.0000000000000142
 31
-0.0000000000000211
210
0.0
220
1.0
230
-0.0000000000000002
  0
LINE
  5
4517
  8
0
  6
CONTINUOUS
 62
     3
 10
-61.9291971455455723
 20
94.4725548619820756
 30
-0.000000000000021
 11
61.9291971455455723
 21
94.4725548619820756
 31
-0.000000000000021
210
0.0
220
1.0
230
-0.0000000000000002
  0
LINE
  5
4518
  8
0
  6
CONTINUOUS
 62
     3
 10
51.0000000000000071
 20
25.0
 30
-0.0000000000000056
 11
51.0000000000000071
 21
0.0
 31
0.0
210
0.0
220
1.0
230
-0.0000000000000002
  0
LINE
  5
4519
  8
0
  6
CONTINUOUS
 62
     3
 10
-51.0000000000000071
 20
25.0
 30
-0.0000000000000056
 11
-51.0000000000000071
 21
0.0
 31
0.0
210
0.0
220
1.0
230
-0.0000000000000002
  0
LINE
  5
451A
  8
0
  6
CONTINUOUS
 62
     3
 10
60.0
 20
95.0
 30
-0.0000000000000211
 11
61.9291971455455723
 21
94.4725548619820472
 31
-0.000000000000021
210
0.0
220
1.0
230
-0.0000000000000002
  0
LINE
  5
451B
  8
0
  6
CONTINUOUS
 62
     3
 10
-60.0
 20
95.0
 30
-0.0000000000000211
 11
-61.9291971455455723
 21
94.4725548619820472
 31
-0.000000000000021
210
0.0
220
1.0
230
-0.0000000000000002
  0
LINE
  5
451C
  8
0
  6
CONTINUOUS
 62
     3
 10
-61.283211417817661
 20
92.1097805520717969
 30
-0.0000000000000205
 11
-61.9291971455455581
 21
94.4725548619820756
 31
-0.000000000000021
210
0.0
220
1.0
230
-0.0000000000000002
  0
LINE
  5
451D
  8
0
  6
CONTINUOUS
 62
     3
 10
61.283211417817661
 20
92.1097805520717969
 30
-0.0000000000000205
 11
61.9291971455455581
 21
94.4725548619820756
 31
-0.000000000000021
210
0.0
220
1.0
230
-0.0000000000000002
  0
ARC
  5
451E
  8
0
  6
CONTINUOUS
 62
     3
 10
69.0000000000001421
 20
89.9999999999999858
 30
0.0
 40
8.0000000000001439
210
0.0
220
-0.0000000000000002
230
-1.0
 50
164.7089385448564087
 51
179.9999999999996874
  0
ARC
  5
451F
  8
0
  6
CONTINUOUS
 62
     3
 10
-69.0000000000001421
 20
89.9999999999999858
 30
0.0
 40
8.0000000000001421
210
0.0
220
-0.0000000000000002
230
-1.0
 50
0.0000000000003053
 51
15.2910614551436108
  0
LINE
  5
4520
  8
0
  6
CONTINUOUS
 62
     3
 10
61.0
 20
90.0000000000000142
 30
-0.00000000000002
 11
61.0
 21
87.0000000000000426
 31
-0.0000000000000193
210
0.0
220
1.0
230
-0.0000000000000002
  0
LINE
  5
4521
  8
0
  6
CONTINUOUS
 62
     3
 10
-61.0
 20
90.0000000000000142
 30
-0.00000000000002
 11
-61.0
 21
87.0000000000000426
 31
-0.0000000000000193
210
0.0
220
1.0
230
-0.0000000000000002
  0
ARC
  5
4522
  8
0
  6
CONTINUOUS
 62
     3
 10
49.0000000000001208
 20
87.0000000000000426
 30
0.0
 40
11.9999999999998792
210
0.0
220
-0.0000000000000002
230
-1.0
 50
344.7089385448562098
 51
0.0
  0
ARC
  5
4523
  8
0
  6
CONTINUOUS
 62
     3
 10
-49.0000000000005116
 20
86.9999999999999432
 30
0.0
 40
11.9999999999994795
210
0.0
220
-0.0000000000000002
230
-1.0
 50
179.9999999999996021
 51
195.2910614551439039
  0
LINE
  5
4524
  8
0
  6
CONTINUOUS
 62
     3
 10
-59.283211417817661
 20
79.1097805520717969
 30
-0.0000000000000176
 11
-60.5751828732735191
 21
83.8353291718923543
 31
-0.0000000000000186
210
0.0
220
1.0
230
-0.0000000000000002
  0
LINE
  5
4525
  8
0
  6
CONTINUOUS
 62
     3
 10
59.283211417817661
 20
79.1097805520717969
 30
-0.0000000000000176
 11
60.5751828732735191
 21
83.8353291718923543
 31
-0.0000000000000186
210
0.0
220
1.0
230
-0.0000000000000002
  0
ARC
  5
4526
  8
0
  6
CONTINUOUS
 62
     3
 10
66.9999999999997442
 20
77.0000000000000568
 30
0.0
 40
7.9999999999997442
210
0.0
220
-0.0000000000000002
230
-1.0
 50
164.7089385448562098
 51
180.000000000000199
  0
ARC
  5
4527
  8
0
  6
CONTINUOUS
 62
     3
 10
-66.9999999999993605
 20
77.0000000000000853
 30
0.0
 40
7.9999999999993596
210
0.0
220
-0.0000000000000002
230
-1.0
 50
359.9999999999994884
 51
15.2910614551443
  0
LINE
  5
4528
  8
0
  6
CONTINUOUS
 62
     3
 10
59.0
 20
77.0000000000000142
 30
-0.0000000000000171
 11
59.0
 21
50.0
 31
-0.0000000000000111
210
0.0
220
1.0
230
-0.0000000000000002
  0
LINE
  5
4529
  8
0
  6
CONTINUOUS
 62
     3
 10
-59.0
 20
77.0000000000000142
 30
-0.0000000000000171
 11
-59.0
 21
50.0
 31
-0.0000000000000111
210
0.0
220
1.0
230
-0.0000000000000002
  0
ARC
  5
452A
  8
0
  6
CONTINUOUS
 62
     3
 10
37.0000000000000497
 20
49.9999999999999929
 30
0.0
 40
21.9999999999999716
210
0.0
220
-0.0000000000000002
230
-1.0
 50
329.2798888954511085
 51
0.0000000000000636
  0
ARC
  5
452B
  8
0
  6
CONTINUOUS
 62
     3
 10
-36.9999999999999432
 20
50.0000000000000284
 30
0.0
 40
22.0000000000000817
210
0.0
220
-0.0000000000000002
230
-1.0
 50
180.0
 51
210.7201111045488915
  0
LINE
  5
452C
  8
0
  6
CONTINUOUS
 62
     3
 10
-53.806539689607618
 20
35.2168939778663415
 30
-0.0000000000000078
 11
-55.9128063414316401
 21
38.7614166243470066
 31
-0.0000000000000086
210
0.0
220
1.0
230
-0.0000000000000002
  0
LINE
  5
452D
  8
0
  6
CONTINUOUS
 62
     3
 10
53.806539689607618
 20
35.2168939778663415
 30
-0.0000000000000078
 11
55.9128063414316401
 21
38.7614166243470066
 31
-0.0000000000000086
210
0.0
220
1.0
230
-0.0000000000000002
  0
ARC
  5
452E
  8
0
  6
CONTINUOUS
 62
     3
 10
70.9999999999999716
 20
25.0000000000000213
 30
0.0
 40
19.9999999999999716
210
0.0
220
-0.0000000000000002
230
-1.0
 50
149.2798888954509948
 51
180.0
  0
ARC
  5
452F
  8
0
  6
CONTINUOUS
 62
     3
 10
-71.0000000000000568
 20
24.9999999999999893
 30
0.0
 40
20.0000000000000604
210
0.0
220
-0.0000000000000002
230
-1.0
 50
0.0
 51
30.7201111045488418
  0
LINE
  5
4530
  8
0
  6
VERDECKT
 62
     1
 10
-35.7000000000000028
 20
1.9999999999999729
 30
-0.0000000000000004
 11
35.7000000000000028
 21
1.999999999999998
 31
-0.0000000000000004
210
0.0
220
1.0
230
-0.0000000000000002
  0
LINE
  5
4531
  8
0
  6
VERDECKT
 62
     1
 10
-34.1240150093808623
 20
2.2761726078798969
 30
-0.0000000000000005
 11
34.1240150093808623
 21
2.2761726078799209
 31
-0.0000000000000005
210
0.0
220
1.0
230
-0.0000000000000002
  0
LINE
  5
4532
  8
0
  6
VERDECKT
 62
     1
 10
-55.8481932212873318
 20
64.9999999999999574
 30
-0.0000000000000144
 11
55.8481932212872891
 21
65.0000000000000142
 31
-0.0000000000000144
210
0.0
220
1.0
230
-0.0000000000000002
  0
LINE
  5
4533
  8
0
  6
VERDECKT
 62
     1
 10
-56.7429018668405405
 20
63.6735398839119
 30
-0.0000000000000141
 11
56.7429018668404908
 21
63.6735398839119426
 31
-0.0000000000000141
210
0.0
220
1.0
230
-0.0000000000000002
  0
ARC
  5
4534
  8
0
  6
VERDECKT
 62
     1
 10
45.0000000000000711
 20
45.4999999999999574
 30
0.0
 40
8.5000000000000302
210
0.0
220
-0.0000000000000002
230
-1.0
 50
124.0000000000000995
 51
179.999999999999801
  0
ARC
  5
4535
  8
0
  6
VERDECKT
 62
     1
 10
-45.0
 20
45.5000000000000071
 30
0.0
 40
8.4999999999999911
210
0.0
220
-0.0000000000000002
230
-1.0
 50
0.0000000000001018
 51
55.9999999999998721
  0
LINE
  5
4536
  8
0
  6
VERDECKT
 62
     1
 10
36.4999999999999929
 20
45.5000000000000284
 30
-0.0000000000000101
 11
36.5
 21
6.9999999999999938
 31
-0.0000000000000016
210
0.0
220
1.0
230
-0.0000000000000002
  0
LINE
  5
4537
  8
0
  6
VERDECKT
 62
     1
 10
-36.5000000000000213
 20
45.4999999999999929
 30
-0.0000000000000101
 11
-36.5
 21
6.9999999999999734
 31
-0.0000000000000016
210
0.0
220
1.0
230
-0.0000000000000002
  0
ARC
  5
4538
  8
0
  6
VERDECKT
 62
     1
 10
31.5000000000000711
 20
6.9999999999999876
 30
0.0
 40
4.9999999999999574
210
0.0
220
-0.0000000000000002
230
-1.0
 50
350.0605185437790965
 51
359.9999999999997726
  0
ARC
  5
4539
  8
0
  6
VERDECKT
 62
     1
 10
-31.5000000000000995
 20
7.0000000000000071
 30
0.0
 40
4.9999999999999316
210
0.0
220
-0.0000000000000002
230
-1.0
 50
180.0000000000001137
 51
189.9394814562209035
  0
LINE
  5
453A
  8
0
  6
VERDECKT
 62
     1
 10
-35.7000000000000028
 20
1.999999999999974
 30
-0.0000000000000004
 11
-36.4249530956848133
 21
6.1369606003752066
 31
-0.0000000000000014
210
0.0
220
1.0
230
-0.0000000000000002
  0
LINE
  5
453B
  8
0
  6
VERDECKT
 62
     1
 10
35.7000000000000028
 20
1.9999999999999949
 30
-0.0000000000000004
 11
36.4249530956847991
 21
6.1369606003752288
 31
-0.0000000000000014
210
0.0
220
1.0
230
-0.0000000000000002
  0
LINE
  5
453C
  8
0
  6
VERDECKT
 62
     1
 10
34.1240150093808623
 20
2.2761726078799271
 30
-0.0000000000000005
 11
35.7000000000000028
 21
2.0000000000000009
 31
-0.0000000000000004
210
0.0
220
1.0
230
-0.0000000000000002
  0
LINE
  5
453D
  8
0
  6
VERDECKT
 62
     1
 10
-34.1240150093808623
 20
2.2761726078799032
 30
-0.0000000000000005
 11
-35.7000000000000028
 21
1.9999999999999749
 31
-0.0000000000000004
210
0.0
220
1.0
230
-0.0000000000000002
  0
LINE
  5
453E
  8
0
  6
VERDECKT
 62
     1
 10
-34.1240150093808623
 20
2.2761726078798969
 30
-0.0000000000000005
 11
-34.8489681050656728
 21
6.413133208255128
 31
-0.0000000000000014
210
0.0
220
1.0
230
-0.0000000000000002
  0
LINE
  5
453F
  8
0
  6
VERDECKT
 62
     1
 10
34.1240150093808694
 20
2.27617260787992
 30
-0.0000000000000005
 11
34.8489681050656586
 21
6.4131332082551546
 31
-0.0000000000000014
210
0.0
220
1.0
230
-0.0000000000000002
  0
ARC
  5
4540
  8
0
  6
VERDECKT
 62
     1
 10
31.4999999999989306
 20
7.000000000000095
 30
0.0
 40
3.4000000000010959
210
0.0
220
-0.0000000000000002
230
-1.0
 50
350.0605185437804039
 51
359.9999999999980105
  0
ARC
  5
4541
  8
0
  6
VERDECKT
 62
     1
 10
-31.499999999998991
 20
7.0000000000001146
 30
0.0
 40
3.4000000000010422
210
0.0
220
-0.0000000000000002
230
-1.0
 50
180.0000000000019895
 51
189.9394814562195961
  0
LINE
  5
4542
  8
0
  6
VERDECKT
 62
     1
 10
34.8999999999999915
 20
45.5
 30
-0.0000000000000101
 11
34.9000000000000128
 21
6.9999999999999938
 31
-0.0000000000000016
210
0.0
220
1.0
230
-0.0000000000000002
  0
LINE
  5
4543
  8
0
  6
VERDECKT
 62
     1
 10
-34.9000000000000199
 20
45.4999999999999787
 30
-0.0000000000000101
 11
-34.9000000000000128
 21
6.9999999999999734
 31
-0.0000000000000016
210
0.0
220
1.0
230
-0.0000000000000002
  0
ARC
  5
4544
  8
0
  6
VERDECKT
 62
     1
 10
45.0000000000000711
 20
45.4999999999999574
 30
0.0
 40
10.1000000000000298
210
0.0
220
-0.0000000000000002
230
-1.0
 50
124.0000000000000995
 51
179.9999999999998863
  0
ARC
  5
4545
  8
0
  6
VERDECKT
 62
     1
 10
-45.0
 20
45.4999999999999929
 30
0.0
 40
10.0999999999999908
210
0.0
220
-0.0000000000000002
230
-1.0
 50
0.0000000000000382
 51
55.9999999999999574
  0
LINE
  5
4546
  8
0
  6
VERDECKT
 62
     1
 10
-39.3521516749454889
 20
53.8732794828058914
 30
-0.000000000000012
 11
-55.8481932212873389
 21
64.9999999999999716
 31
-0.0000000000000144
210
0.0
220
1.0
230
-0.0000000000000002
  0
LINE
  5
4547
  8
0
  6
VERDECKT
 62
     1
 10
39.3521516749454605
 20
53.8732794828059198
 30
-0.000000000000012
 11
55.8481932212873033
 21
65.0000000000000142
 31
-0.0000000000000144
210
0.0
220
1.0
230
-0.0000000000000002
  0
LINE
  5
4548
  8
0
  6
VERDECKT
 62
     1
 10
55.8481932212873033
 20
65.0000000000000142
 30
-0.0000000000000144
 11
56.7429018668404908
 21
63.6735398839119426
 31
-0.0000000000000141
210
0.0
220
1.0
230
-0.0000000000000002
  0
LINE
  5
4549
  8
0
  6
VERDECKT
 62
     1
 10
-55.8481932212873389
 20
64.9999999999999716
 30
-0.0000000000000144
 11
-56.7429018668405405
 21
63.6735398839119
 31
-0.0000000000000141
210
0.0
220
1.0
230
-0.0000000000000002
  0
LINE
  5
454A
  8
0
  6
VERDECKT
 62
     1
 10
-40.2468603204986906
 20
52.5468193667178269
 30
-0.0000000000000117
 11
-56.7429018668405405
 21
63.6735398839118929
 31
-0.0000000000000141
210
0.0
220
1.0
230
-0.0000000000000002
  0
LINE
  5
454B
  8
0
  6
VERDECKT
 62
     1
 10
40.2468603204986479
 20
52.5468193667178625
 30
-0.0000000000000117
 11
56.7429018668404979
 21
63.6735398839119426
 31
-0.0000000000000141
210
0.0
220
1.0
230
-0.0000000000000002
  0
LINE
  5
454C
  8
0
  6
VERDECKT
 62
     1
 10
49.0
 20
25.0
 30
-0.0000000000000056
 11
49.0
 21
0.0
 31
0.0
210
0.0
220
1.0
230
-0.0000000000000002
  0
LINE
  5
454D
  8
0
  6
VERDECKT
 62
     1
 10
-49.0
 20
25.0
 30
-0.0000000000000056
 11
-49.0
 21
0.0
 31
0.0
210
0.0
220
1.0
230
-0.0000000000000002
  0
ARC
  5
454E
  8
0
  6
VERDECKT
 62
     1
 10
70.9999999999999432
 20
25.0
 30
0.0
 40
21.9999999999999396
210
0.0
220
-0.0000000000000002
230
-1.0
 50
149.2798888954509096
 51
180.0
  0
ARC
  5
454F
  8
0
  6
VERDECKT
 62
     1
 10
-71.0000000000000995
 20
24.9999999999999716
 30
0.0
 40
22.0000000000000995
210
0.0
220
-0.0000000000000002
230
-1.0
 50
0.0000000000000763
 51
30.7201111045488595
  0
LINE
  5
4550
  8
0
  6
VERDECKT
 62
     1
 10
-52.0871936585683812
 20
36.2385833756529934
 30
-0.000000000000008
 11
-54.1934603103923891
 21
39.7831060221336585
 31
-0.0000000000000088
210
0.0
220
1.0
230
-0.0000000000000002
  0
LINE
  5
4551
  8
0
  6
VERDECKT
 62
     1
 10
52.0871936585683812
 20
36.2385833756529934
 30
-0.000000000000008
 11
54.1934603103923891
 21
39.7831060221336585
 31
-0.0000000000000088
210
0.0
220
1.0
230
-0.0000000000000002
  0
ARC
  5
4552
  8
0
  6
VERDECKT
 62
     1
 10
37.0
 20
50.0
 30
0.0
 40
20.0000000000000107
210
0.0
220
-0.0000000000000002
230
-1.0
 50
329.2798888954511085
 51
0.0
  0
ARC
  5
4553
  8
0
  6
VERDECKT
 62
     1
 10
-37.0
 20
50.0
 30
0.0
 40
20.0000000000000107
210
0.0
220
-0.0000000000000002
230
-1.0
 50
180.0
 51
210.7201111045488915
  0
LINE
  5
4554
  8
0
  6
VERDECKT
 62
     1
 10
56.9999999999999929
 20
77.0000000000000142
 30
-0.0000000000000171
 11
56.9999999999999929
 21
50.0
 31
-0.0000000000000111
210
0.0
220
1.0
230
-0.0000000000000002
  0
LINE
  5
4555
  8
0
  6
VERDECKT
 62
     1
 10
-56.9999999999999929
 20
77.0000000000000142
 30
-0.0000000000000171
 11
-56.9999999999999929
 21
50.0
 31
-0.0000000000000111
210
0.0
220
1.0
230
-0.0000000000000002
  0
ARC
  5
4556
  8
0
  6
VERDECKT
 62
     1
 10
66.9999999999999716
 20
77.0000000000000142
 30
0.0
 40
9.9999999999999716
210
0.0
220
-0.0000000000000002
230
-1.0
 50
164.708938544856295
 51
180.0
  0
ARC
  5
4557
  8
0
  6
VERDECKT
 62
     1
 10
-66.9999999999999716
 20
77.0000000000000142
 30
0.0
 40
9.9999999999999716
210
0.0
220
-0.0000000000000002
230
-1.0
 50
0.0
 51
15.2910614551436606
  0
LINE
  5
4558
  8
0
  6
VERDECKT
 62
     1
 10
-57.3540142722720674
 20
79.6372256900897497
 30
-0.0000000000000177
 11
-58.6459857277278971
 21
84.3627743099102787
 31
-0.0000000000000187
210
0.0
220
1.0
230
-0.0000000000000002
  0
LINE
  5
4559
  8
0
  6
VERDECKT
 62
     1
 10
57.3540142722720674
 20
79.6372256900897497
 30
-0.0000000000000177
 11
58.6459857277278971
 21
84.3627743099102787
 31
-0.0000000000000187
210
0.0
220
1.0
230
-0.0000000000000002
  0
ARC
  5
455A
  8
0
  6
VERDECKT
 62
     1
 10
49.0000000000001066
 20
87.0000000000000142
 30
0.0
 40
9.9999999999998881
210
0.0
220
-0.0000000000000002
230
-1.0
 50
344.7089385448560961
 51
0.0000000000000891
  0
ARC
  5
455B
  8
0
  6
VERDECKT
 62
     1
 10
-49.0000000000001066
 20
87.0000000000000142
 30
0.0
 40
9.9999999999998863
210
0.0
220
-0.0000000000000002
230
-1.0
 50
179.9999999999998863
 51
195.2910614551437902
  0
LINE
  5
455C
  8
0
  6
VERDECKT
 62
     1
 10
59.0
 20
90.0000000000000142
 30
-0.00000000000002
 11
59.0
 21
87.0000000000000426
 31
-0.0000000000000193
210
0.0
220
1.0
230
-0.0000000000000002
  0
LINE
  5
455D
  8
0
  6
VERDECKT
 62
     1
 10
-59.0
 20
90.0000000000000142
 30
-0.00000000000002
 11
-59.0
 21
87.0000000000000426
 31
-0.0000000000000193
210
0.0
220
1.0
230
-0.0000000000000002
  0
ARC
  5
455E
  8
0
  6
VERDECKT
 62
     1
 10
68.9999999999999716
 20
90.0000000000000142
 30
0.0
 40
9.9999999999999716
210
0.0
220
-0.0000000000000002
230
-1.0
 50
164.708938544856295
 51
180.0
  0
ARC
  5
455F
  8
0
  6
VERDECKT
 62
     1
 10
-68.9999999999999716
 20
90.0000000000000142
 30
0.0
 40
9.9999999999999716
210
0.0
220
-0.0000000000000002
230
-1.0
 50
0.0
 51
15.2910614551436606
  0
LINE
  5
4560
  8
0
  6
VERDECKT
 62
     1
 10
-59.3540142722720816
 20
92.6372256900897355
 30
-0.0000000000000206
 11
-60.0
 21
95.0000000000000142
 31
-0.0000000000000211
210
0.0
220
1.0
230
-0.0000000000000002
  0
LINE
  5
4561
  8
0
  6
VERDECKT
 62
     1
 10
59.3540142722720816
 20
92.6372256900897355
 30
-0.0000000000000206
 11
60.0
 21
95.0000000000000142
 31
-0.0000000000000211
210
0.0
220
1.0
230
-0.0000000000000002
  0
ENDBLK
  5
4563
  8
0
  0
ENDSEC
  0
SECTION
  2
ENTITIES
  0
TEXT
  5
8E
  8
VOLL
 10
78.076754716981128
 20
31.025947764705851
 30
0.0
 40
1.8
  1

  7
GREEKS
  0
INSERT
  5
254A
  8
ADSK_ASSOC_ENTITY_BACKUPS
  2
*S0
 10
0.0
 20
0.0
 30
0.0
  0
INSERT
  5
4512
  8
STEMPEL
  2
A$C81D242A6
 10
0.0
 20
0.0
 30
0.0
  0
INSERT
  5
4564
  8
STEMPEL
  2
A$CF5A5A9D0
 10
0.0
 20
100.0
 30
0.0
  0
VIEWPORT
  5
228B
 67
     1
  8
0
 10
142.9822867383819016
 20
204.7347919432282026
 30
0.0
 40
790.2674510967764263
 41
422.1483375959078899
 68
     1
 69
     1
1001
ACAD
1000
MVIEW
1002
{
1070
    16
1010
0.0
1020
0.0
1030
0.0
1010
0.0
1020
0.0
1030
1.0
1040
0.0
1040
422.1483375959078899
1040
142.9822867383819016
1040
204.7347919432282026
1040
50.0
1040
0.0
1040
0.0
1070
     0
1070
  1500
1070
     1
1070
     1
1070
     0
1070
     0
1070
     0
1070
     0
1040
0.0
1040
0.0
1040
0.0
1040
10.0
1040
10.0
1040
10.0
1040
10.0
1070
     0
1002
{
1002
}
1002
}
  0
ENDSEC
  0
EOF
