  0
SECTION
  2
HEADER
  9
$ACADVER
  1
AC1009
  9
$INSBASE
 10
0.0
 20
0.0
 30
0.0
  9
$EXTMIN
 10
-82.0780548804294767
 20
-205.6842306462739032
 30
-0.006103049970875
  9
$EXTMAX
 10
82.0745772743018591
 20
200.0341450733924091
 30
0.0091555062787734
  9
$LIMMIN
 10
0.0
 20
0.0
  9
$LIMMAX
 10
297.0
 20
420.0
  9
$ORTHOMODE
 70
     1
  9
$REGENMODE
 70
     1
  9
$FILLMODE
 70
     1
  9
$QTEXTMODE
 70
     0
  9
$MIRRTEXT
 70
     1
  9
$DRAGMODE
 70
     2
  9
$LTSCALE
 40
20.0
  9
$OSMODE
 70
  1327
  9
$ATTMODE
 70
     1
  9
$TEXTSIZE
 40
3.5
  9
$TRACEWID
 40
1.0
  9
$TEXTSTYLE
  7
STANDARD
  9
$CLAYER
  8
0
  9
$CELTYPE
  6
BYLAYER
  9
$CECOLOR
 62
   256
  9
$DIMSCALE
 40
0.0
  9
$DIMASZ
 40
3.5
  9
$DIMEXO
 40
1.0
  9
$DIMDLI
 40
8.0
  9
$DIMRND
 40
0.0
  9
$DIMDLE
 40
0.0
  9
$DIMEXE
 40
1.0
  9
$DIMTP
 40
1.1999999999999991
  9
$DIMTM
 40
0.0
  9
$DIMTXT
 40
3.5
  9
$DIMCEN
 40
1.5
  9
$DIMTSZ
 40
0.0
  9
$DIMTOL
 70
     0
  9
$DIMLIM
 70
     0
  9
$DIMTIH
 70
     0
  9
$DIMTOH
 70
     0
  9
$DIMSE1
 70
     0
  9
$DIMSE2
 70
     0
  9
$DIMTAD
 70
     1
  9
$DIMZIN
 70
     8
  9
$DIMBLK
  1

  9
$DIMASO
 70
     1
  9
$DIMSHO
 70
     0
  9
$DIMPOST
  1

  9
$DIMAPOST
  1

  9
$DIMALT
 70
     0
  9
$DIMALTD
 70
     2
  9
$DIMALTF
 40
25.3999999999999986
  9
$DIMLFAC
 40
1.0
  9
$DIMTOFL
 70
     1
  9
$DIMTVP
 40
0.5714285714285714
  9
$DIMTIX
 70
     0
  9
$DIMSOXD
 70
     0
  9
$DIMSAH
 70
     0
  9
$DIMBLK1
  1

  9
$DIMBLK2
  1

  9
$DIMSTYLE
  2
STANDARD
  9
$DIMCLRD
 70
     0
  9
$DIMCLRE
 70
     0
  9
$DIMCLRT
 70
     1
  9
$DIMTFAC
 40
0.5
  9
$DIMGAP
 40
1.5
  9
$LUNITS
 70
     2
  9
$LUPREC
 70
     2
  9
$SKETCHINC
 40
1.0
  9
$FILLETRAD
 40
14.0
  9
$AUNITS
 70
     0
  9
$AUPREC
 70
     2
  9
$MENU
  1
ACAD
  9
$ELEVATION
 40
0.0
  9
$PELEVATION
 40
0.0
  9
$THICKNESS
 40
0.0
  9
$LIMCHECK
 70
     0
  9
$BLIPMODE
 70
     0
  9
$CHAMFERA
 40
0.0
  9
$CHAMFERB
 40
0.0
  9
$SKPOLY
 70
     0
  9
$TDCREATE
 40
2451883.5601851851679385
  9
$TDUPDATE
 40
2458402.3335416670888662
  9
$TDINDWG
 40
0.1425029398
  9
$TDUSRTIMER
 40
0.1425029398
  9
$USRTIMER
 70
     1
  9
$ANGBASE
 50
0.0
  9
$ANGDIR
 70
     0
  9
$PDMODE
 70
     0
  9
$PDSIZE
 40
0.0
  9
$PLINEWID
 40
0.0
  9
$COORDS
 70
     1
  9
$SPLFRAME
 70
     0
  9
$SPLINETYPE
 70
     6
  9
$SPLINESEGS
 70
     8
  9
$ATTDIA
 70
     0
  9
$ATTREQ
 70
     0
  9
$HANDLING
 70
     1
  9
$HANDSEED
  5
3B24
  9
$SURFTAB1
 70
     6
  9
$SURFTAB2
 70
     6
  9
$SURFTYPE
 70
     6
  9
$SURFU
 70
     6
  9
$SURFV
 70
     6
  9
$UCSNAME
  2

  9
$UCSORG
 10
0.0
 20
0.0
 30
0.0
  9
$UCSXDIR
 10
1.0
 20
0.0
 30
0.0
  9
$UCSYDIR
 10
0.0
 20
1.0
 30
0.0
  9
$PUCSNAME
  2

  9
$PUCSORG
 10
0.0
 20
0.0
 30
0.0
  9
$PUCSXDIR
 10
1.0
 20
0.0
 30
0.0
  9
$PUCSYDIR
 10
0.0
 20
1.0
 30
0.0
  9
$USERI1
 70
     0
  9
$USERI2
 70
     0
  9
$USERI3
 70
     0
  9
$USERI4
 70
     0
  9
$USERI5
 70
     0
  9
$USERR1
 40
0.0
  9
$USERR2
 40
0.0
  9
$USERR3
 40
0.0
  9
$USERR4
 40
0.0
  9
$USERR5
 40
0.0
  9
$WORLDVIEW
 70
     1
  9
$SHADEDGE
 70
     3
  9
$SHADEDIF
 70
    70
  9
$TILEMODE
 70
     1
  9
$MAXACTVP
 70
    16
  9
$PLIMCHECK
 70
     0
  9
$PEXTMIN
 10
-0.0749361313909454
 20
-0.1771664800899515
 30
-0.0000000000000058
  9
$PEXTMAX
 10
10.1183925024177501
 20
14.0844168208487499
 30
0.0000000000000104
  9
$PLIMMIN
 10
-0.2500002402958907
 20
-0.2499999962453767
  9
$PLIMMAX
 10
10.7499995194082203
 20
8.2499997634587334
  9
$UNITMODE
 70
     0
  9
$VISRETAIN
 70
     0
  9
$PLINEGEN
 70
     0
  9
$PSLTSCALE
 70
     0
  0
ENDSEC
  0
SECTION
  2
TABLES
  0
TABLE
  2
VPORT
 70
     1
  0
VPORT
  2
*ACTIVE
 70
     0
 10
0.0
 20
0.0
 11
1.0
 21
1.0
 12
-0.0017388030638585
 22
-61.7931862495755126
 13
0.0
 23
0.0
 14
2.5
 24
2.5
 15
10.0
 25
10.0
 16
-0.0000000000002203
 26
0.0
 36
991.9941691434298718
 17
0.0
 27
58.9681434631347585
 37
99.9999999999999858
 40
408.7536752886413183
 41
1.8876404494382011
 42
50.0
 43
0.0
 44
0.0
 50
0.0
 51
0.0
 71
     0
 72
   500
 73
     1
 74
     0
 75
     0
 76
     0
 77
     0
 78
     0
  0
ENDTAB
  0
TABLE
  2
LTYPE
 70
     4
  0
LTYPE
  2
AUSGEZOGEN
 70
     0
  3
Ausgezogene Linie
 72
    65
 73
     0
 40
0.0
  0
LTYPE
  2
CONTINUOUS
 70
     0
  3
Solid line
 72
    65
 73
     0
 40
0.0
  0
LTYPE
  2
VERDECKT
 70
     0
  3
Verdeckt __ __ __ __ __ __ __ __ __ __ __ __ __
 72
    65
 73
     2
 40
0.375
 49
0.25
 49
-0.125
  0
ENDTAB
  0
TABLE
  2
LAYER
 70
    12
  0
LAYER
  2
0
 70
     0
 62
     7
  6
AUSGEZOGEN
  0
LAYER
  2
VOLL
 70
     0
 62
     1
  6
AUSGEZOGEN
  0
LAYER
  2
BEM
 70
     0
 62
     7
  6
AUSGEZOGEN
  0
LAYER
  2
DEFPOINTS
 70
     0
 62
     7
  6
AUSGEZOGEN
  0
LAYER
  2
TEXT
 70
     0
 62
     7
  6
AUSGEZOGEN
  0
LAYER
  2
TEXT35
 70
     0
 62
     1
  6
AUSGEZOGEN
  0
ENDTAB
  0
TABLE
  2
STYLE
 70
     4
  0
STYLE
  2
STANDARD
 70
     0
 40
0.0
 41
0.8
 50
0.0
 71
     0
 42
3.5
  3
simplex.shx
  4

  0
STYLE
  2
GREEKS
 70
     0
 40
0.0
 41
0.8
 50
0.0
 71
     0
 42
3.5
  3
SIMPLEX.shx
  4

  0
ENDTAB
  0
TABLE
  2
VIEW
 70
     2
  0
ENDTAB
  0
TABLE
  2
UCS
 70
     0
  0
ENDTAB
  0
TABLE
  2
APPID
 70
     9
  0
APPID
  2
ACAD
 70
     0
  0
APPID
  2
ACAD_NAV_VCDISPLAY
 70
     0
  0
APPID
  2
ACAECLAYERSTANDARD
 70
     0
  0
APPID
  2
ACCMTRANSPARENCY
 70
     0
  0
APPID
  2
ACAD_PSEXT
 70
     0
  0
APPID
  2
ACAD_EXEMPT_FROM_CAD_STANDARDS
 70
     0
  0
APPID
  2
ACAD_MLEADERVER
 70
     0
  0
APPID
  2
ACAD_OBJECT_CHANGE_GUID
 70
     0
  0
APPID
  2
ACADANNOMONITORALERTICONDI
 70
     0
  0
ENDTAB
  0
TABLE
  2
DIMSTYLE
 70
     2
  0
DIMSTYLE
  2
STANDARD
 70
     0
  3

  4

  5

  6

  7

 40
1.0
 41
0.18
 42
0.0625
 43
0.38
 44
0.18
 45
0.0
 46
0.0
 47
0.0
 48
0.0
140
0.18
141
0.09
142
0.0
143
25.3999999999999986
144
1.0
145
0.0
146
1.0
147
0.09
 71
     0
 72
     0
 73
     1
 74
     1
 75
     0
 76
     0
 77
     0
 78
     0
170
     0
171
     2
172
     0
173
     0
174
     0
175
     0
176
     0
177
     0
178
     0
  0
ENDTAB
  0
ENDSEC
  0
SECTION
  2
BLOCKS
  0
BLOCK
  8
0
  2
$MODEL_SPACE
 70
     0
 10
0.0
 20
0.0
 30
0.0
  3
$MODEL_SPACE
  1

  0
ENDBLK
  5
29CB
  8
0
  0
BLOCK
 67
     1
  8
0
  2
$PAPER_SPACE
 70
     0
 10
0.0
 20
0.0
 30
0.0
  3
$PAPER_SPACE
  1

  0
ENDBLK
  5
29C9
 67
     1
  8
0
  0
BLOCK
  8
0
  2
A$C56691423
 70
     0
 10
0.0
 20
0.0
 30
0.0
  3
A$C56691423
  1

  0
LINE
  5
392C
  8
0
  6
AUSGEZOGEN
 62
     3
 10
70.675007637864482
 20
119.9399999999998983
 30
-0.0000000000000281
 11
61.6497590669994011
 21
119.9399999999998983
 31
-0.0000000000000281
210
0.0000000000000002
220
1.0
230
-0.0000000000000002
  0
LINE
  5
392D
  8
0
  6
AUSGEZOGEN
 62
     3
 10
70.675007637864482
 20
118.4399999999998983
 30
-0.0000000000000278
 11
61.6497590669994011
 21
118.4399999999998983
 31
-0.0000000000000278
210
0.0000000000000002
220
1.0
230
-0.0000000000000002
  0
LINE
  5
392E
  8
0
  6
AUSGEZOGEN
 62
     3
 10
70.675007637864482
 20
119.9399999999998983
 30
-0.0000000000000281
 11
71.3838317393619803
 21
119.9399999999998983
 31
-0.0000000000000283
210
0.0000000000000002
220
1.0
230
-0.0000000000000002
  0
LINE
  5
392F
  8
0
  6
AUSGEZOGEN
 62
     3
 10
70.675007637864482
 20
118.4399999999998983
 30
-0.0000000000000278
 11
71.3838317393619803
 21
118.4399999999998983
 31
-0.0000000000000279
210
0.0000000000000002
220
1.0
230
-0.0000000000000002
  0
LINE
  5
3930
  8
0
  6
AUSGEZOGEN
 62
     3
 10
71.3838317393619661
 20
119.9399999999998983
 30
-0.0000000000000283
 11
75.4188073121509746
 21
119.9399999999998983
 31
-0.0000000000000292
210
0.0000000000000002
220
1.0
230
-0.0000000000000002
  0
LINE
  5
3931
  8
0
  6
AUSGEZOGEN
 62
     3
 10
71.3838317393619661
 20
118.4399999999998983
 30
-0.0000000000000279
 11
75.4188073121509746
 21
118.4399999999998983
 31
-0.0000000000000288
210
0.0000000000000002
220
1.0
230
-0.0000000000000002
  0
LINE
  5
3932
  8
0
  6
AUSGEZOGEN
 62
     3
 10
75.4188073121509746
 20
119.9399999999998983
 30
-0.0000000000000292
 11
75.5046399507916561
 21
119.9399999999998983
 31
-0.0000000000000292
210
0.0000000000000002
220
1.0
230
-0.0000000000000002
  0
LINE
  5
3933
  8
0
  6
AUSGEZOGEN
 62
     3
 10
75.4188073121509746
 20
118.4399999999998983
 30
-0.0000000000000288
 11
75.5046399507916561
 21
118.4399999999998983
 31
-0.0000000000000289
210
0.0000000000000002
220
1.0
230
-0.0000000000000002
  0
LINE
  5
3934
  8
0
  6
AUSGEZOGEN
 62
     3
 10
80.1469730656833548
 20
119.9399999999998983
 30
-0.0000000000000267
 11
75.5046399507916419
 21
119.9399999999998983
 31
-0.0000000000000265
210
0.0000000000000002
220
1.0
230
-0.0000000000000002
  0
LINE
  5
3935
  8
0
  6
AUSGEZOGEN
 62
     3
 10
80.1469730656833548
 20
118.4399999999998983
 30
-0.0000000000000263
 11
75.5046399507916419
 21
118.4399999999998983
 31
-0.0000000000000262
210
0.0000000000000002
220
1.0
230
-0.0000000000000002
  0
LINE
  5
3936
  8
0
  6
AUSGEZOGEN
 62
     3
 10
80.1469730656833548
 20
119.9399999999998983
 30
-0.0000000000000267
 11
80.6708105728879161
 21
119.9399999999998983
 31
-0.0000000000000268
210
0.0000000000000002
220
1.0
230
-0.0000000000000002
  0
LINE
  5
3937
  8
0
  6
AUSGEZOGEN
 62
     3
 10
80.1469730656833548
 20
118.4399999999998983
 30
-0.0000000000000263
 11
80.6708105728879161
 21
118.4399999999998983
 31
-0.0000000000000264
210
0.0000000000000002
220
1.0
230
-0.0000000000000002
  0
LINE
  5
3938
  8
0
  6
AUSGEZOGEN
 62
     3
 10
80.6708105728880156
 20
119.9399999999998983
 30
-0.0000000000000268
 11
82.0611684009520275
 21
119.9399999999998983
 31
-0.0000000000000271
210
0.0000000000000002
220
1.0
230
-0.0000000000000002
  0
LINE
  5
3939
  8
0
  6
AUSGEZOGEN
 62
     3
 10
80.6708105728880156
 20
118.4399999999998983
 30
-0.0000000000000264
 11
82.0611684009520275
 21
118.4399999999998983
 31
-0.0000000000000268
210
0.0000000000000002
220
1.0
230
-0.0000000000000002
  0
LINE
  5
393A
  8
0
  6
AUSGEZOGEN
 62
     3
 10
82.0611684009520275
 20
119.9399999999998983
 30
-0.0000000000000271
 11
82.0664875718495921
 21
119.9399999999998983
 31
-0.0000000000000271
210
0.0000000000000002
220
1.0
230
-0.0000000000000002
  0
LINE
  5
393B
  8
0
  6
AUSGEZOGEN
 62
     3
 10
82.0611684009520275
 20
118.4399999999998983
 30
-0.0000000000000268
 11
82.0664875718495921
 21
118.4399999999998983
 31
-0.0000000000000268
210
0.0000000000000002
220
1.0
230
-0.0000000000000002
  0
LINE
  5
393C
  8
0
  6
AUSGEZOGEN
 62
     3
 10
-82.0664875718498763
 20
119.9399999999998983
 30
-0.0000000000000262
 11
-82.0611684009523685
 21
119.9399999999998983
 31
-0.0000000000000262
210
0.0000000000000002
220
1.0
230
-0.0000000000000002
  0
LINE
  5
393D
  8
0
  6
AUSGEZOGEN
 62
     3
 10
-82.0664875718498763
 20
118.4399999999998983
 30
-0.0000000000000258
 11
-82.0611684009523685
 21
118.4399999999998983
 31
-0.0000000000000258
210
0.0000000000000002
220
1.0
230
-0.0000000000000002
  0
LINE
  5
393E
  8
0
  6
AUSGEZOGEN
 62
     3
 10
-82.061168400952397
 20
119.9399999999998983
 30
-0.0000000000000262
 11
-80.6708105728882572
 21
119.9399999999998983
 31
-0.0000000000000265
210
0.0000000000000002
220
1.0
230
-0.0000000000000002
  0
LINE
  5
393F
  8
0
  6
AUSGEZOGEN
 62
     3
 10
-82.061168400952397
 20
118.4399999999998983
 30
-0.0000000000000258
 11
-80.6708105728882572
 21
118.4399999999998983
 31
-0.0000000000000262
210
0.0000000000000002
220
1.0
230
-0.0000000000000002
  0
LINE
  5
3940
  8
0
  6
AUSGEZOGEN
 62
     3
 10
-80.670810572888243
 20
119.9399999999998983
 30
-0.0000000000000265
 11
-80.1469730656836248
 21
119.9399999999998983
 31
-0.0000000000000266
210
0.0000000000000002
220
1.0
230
-0.0000000000000002
  0
LINE
  5
3941
  8
0
  6
AUSGEZOGEN
 62
     3
 10
-80.670810572888243
 20
118.4399999999998983
 30
-0.0000000000000262
 11
-80.1469730656836248
 21
118.4399999999998983
 31
-0.0000000000000263
210
0.0000000000000002
220
1.0
230
-0.0000000000000002
  0
LINE
  5
3942
  8
0
  6
AUSGEZOGEN
 62
     3
 10
-75.5046399507918125
 20
119.9399999999998983
 30
-0.0000000000000276
 11
-80.1469730656836248
 21
119.9399999999998983
 31
-0.0000000000000275
210
0.0000000000000002
220
1.0
230
-0.0000000000000002
  0
LINE
  5
3943
  8
0
  6
AUSGEZOGEN
 62
     3
 10
-75.5046399507918125
 20
118.4399999999998983
 30
-0.0000000000000273
 11
-80.1469730656836248
 21
118.4399999999998983
 31
-0.0000000000000272
210
0.0000000000000002
220
1.0
230
-0.0000000000000002
  0
LINE
  5
3944
  8
0
  6
AUSGEZOGEN
 62
     3
 10
-75.5046399507917982
 20
119.9399999999998983
 30
-0.0000000000000241
 11
-75.4188073121512303
 21
119.9399999999998983
 31
-0.0000000000000241
210
0.0000000000000002
220
1.0
230
-0.0000000000000002
  0
LINE
  5
3945
  8
0
  6
AUSGEZOGEN
 62
     3
 10
-75.5046399507917982
 20
118.4399999999998983
 30
-0.0000000000000237
 11
-75.4188073121512303
 21
118.4399999999998983
 31
-0.0000000000000238
210
0.0000000000000002
220
1.0
230
-0.0000000000000002
  0
LINE
  5
3946
  8
0
  6
AUSGEZOGEN
 62
     3
 10
-75.4188073121512446
 20
119.9399999999998983
 30
-0.0000000000000241
 11
-71.3838317393622361
 21
119.9399999999998983
 31
-0.000000000000025
210
0.0000000000000002
220
1.0
230
-0.0000000000000002
  0
LINE
  5
3947
  8
0
  6
AUSGEZOGEN
 62
     3
 10
-75.4188073121512446
 20
118.4399999999998983
 30
-0.0000000000000238
 11
-71.3838317393622361
 21
118.4399999999998983
 31
-0.0000000000000247
210
0.0000000000000002
220
1.0
230
-0.0000000000000002
  0
LINE
  5
3948
  8
0
  6
AUSGEZOGEN
 62
     3
 10
-71.3838317393621793
 20
119.9399999999998983
 30
-0.000000000000025
 11
-70.6750076378647236
 21
119.9399999999998983
 31
-0.0000000000000251
210
0.0000000000000002
220
1.0
230
-0.0000000000000002
  0
LINE
  5
3949
  8
0
  6
AUSGEZOGEN
 62
     3
 10
-71.3838317393621793
 20
118.4399999999998983
 30
-0.0000000000000247
 11
-70.6750076378647236
 21
118.4399999999998983
 31
-0.0000000000000248
210
0.0000000000000002
220
1.0
230
-0.0000000000000002
  0
LINE
  5
394A
  8
0
  6
AUSGEZOGEN
 62
     3
 10
-61.6497590669996711
 20
119.9399999999998983
 30
-0.0000000000000272
 11
-70.675007637864752
 21
119.9399999999998983
 31
-0.0000000000000271
210
0.0000000000000002
220
1.0
230
-0.0000000000000002
  0
LINE
  5
394B
  8
0
  6
AUSGEZOGEN
 62
     3
 10
-61.6497590669996711
 20
118.4399999999998983
 30
-0.0000000000000268
 11
-70.675007637864752
 21
118.4399999999998983
 31
-0.0000000000000268
210
0.0000000000000002
220
1.0
230
-0.0000000000000002
  0
LINE
  5
394C
  8
0
  6
AUSGEZOGEN
 62
     3
 10
-61.6497590669996427
 20
119.9399999999998983
 30
-0.0000000000000272
 11
-61.3939278899075802
 21
119.9399999999998983
 31
-0.0000000000000272
210
0.0000000000000002
220
1.0
230
-0.0000000000000002
  0
LINE
  5
394D
  8
0
  6
AUSGEZOGEN
 62
     3
 10
-61.6497590669996427
 20
118.4399999999998983
 30
-0.0000000000000268
 11
-61.3939278899075802
 21
118.4399999999998983
 31
-0.0000000000000269
210
0.0000000000000002
220
1.0
230
-0.0000000000000002
  0
LINE
  5
394E
  8
0
  6
AUSGEZOGEN
 62
     3
 10
-61.3939278899075802
 20
119.9399999999998983
 30
-0.0000000000000272
 11
-55.109306094786362
 21
119.9399999999998983
 31
-0.0000000000000286
210
0.0000000000000002
220
1.0
230
-0.0000000000000002
  0
LINE
  5
394F
  8
0
  6
AUSGEZOGEN
 62
     3
 10
-61.3939278899075802
 20
118.4399999999998983
 30
-0.0000000000000269
 11
-55.109306094786362
 21
118.4399999999998983
 31
-0.0000000000000283
210
0.0000000000000002
220
1.0
230
-0.0000000000000002
  0
LINE
  5
3950
  8
0
  6
AUSGEZOGEN
 62
     3
 10
-55.1093060947864117
 20
119.9399999999998983
 30
-0.0000000000000286
 11
-54.28488004071842
 21
119.9399999999998983
 31
-0.0000000000000288
210
0.0000000000000002
220
1.0
230
-0.0000000000000002
  0
LINE
  5
3951
  8
0
  6
AUSGEZOGEN
 62
     3
 10
-55.1093060947864117
 20
118.4399999999998983
 30
-0.0000000000000283
 11
-54.28488004071842
 21
118.4399999999998983
 31
-0.0000000000000285
210
0.0000000000000002
220
1.0
230
-0.0000000000000002
  0
LINE
  5
3952
  8
0
  6
AUSGEZOGEN
 62
     3
 10
-44.5342210131220924
 20
119.9399999999998983
 30
-0.0000000000000238
 11
-54.28488004071842
 21
119.9399999999998983
 31
-0.0000000000000239
210
0.0000000000000002
220
1.0
230
-0.0000000000000002
  0
LINE
  5
3953
  8
0
  6
AUSGEZOGEN
 62
     3
 10
-44.5342210131220924
 20
118.4399999999998983
 30
-0.0000000000000235
 11
-54.28488004071842
 21
118.4399999999998983
 31
-0.0000000000000236
210
0.0000000000000002
220
1.0
230
-0.0000000000000002
  0
LINE
  5
3954
  8
0
  6
AUSGEZOGEN
 62
     3
 10
-43.3900982074867585
 20
119.9399999999998983
 30
-0.0000000000000241
 11
-44.5342210131220924
 21
119.9399999999998983
 31
-0.0000000000000238
210
0.0000000000000002
220
1.0
230
-0.0000000000000002
  0
LINE
  5
3955
  8
0
  6
AUSGEZOGEN
 62
     3
 10
-43.3900982074867585
 20
118.4399999999998983
 30
-0.0000000000000238
 11
-44.5342210131220924
 21
118.4399999999998983
 31
-0.0000000000000235
210
0.0000000000000002
220
1.0
230
-0.0000000000000002
  0
LINE
  5
3956
  8
0
  6
AUSGEZOGEN
 62
     3
 10
-41.8457455346055127
 20
119.9399999999998983
 30
-0.0000000000000316
 11
-43.3900982074867585
 21
119.9399999999998983
 31
-0.0000000000000312
210
0.0000000000000002
220
1.0
230
-0.0000000000000002
  0
LINE
  5
3957
  8
0
  6
AUSGEZOGEN
 62
     3
 10
-41.8457455346055127
 20
118.4399999999998983
 30
-0.0000000000000312
 11
-43.3900982074867585
 21
118.4399999999998983
 31
-0.0000000000000309
210
0.0000000000000002
220
1.0
230
-0.0000000000000002
  0
LINE
  5
3958
  8
0
  6
AUSGEZOGEN
 62
     3
 10
-41.8457455346055909
 20
119.9399999999998983
 30
-0.0000000000000316
 11
-41.3593830491515888
 21
119.9399999999998983
 31
-0.0000000000000317
210
0.0000000000000002
220
1.0
230
-0.0000000000000002
  0
LINE
  5
3959
  8
0
  6
AUSGEZOGEN
 62
     3
 10
-41.8457455346055909
 20
118.4399999999998983
 30
-0.0000000000000312
 11
-41.3593830491515888
 21
118.4399999999998983
 31
-0.0000000000000313
210
0.0000000000000002
220
1.0
230
-0.0000000000000002
  0
LINE
  5
395A
  8
0
  6
AUSGEZOGEN
 62
     3
 10
-41.3593830491515888
 20
119.9399999999998983
 30
-0.0000000000000317
 11
-33.4402976005394095
 21
119.9399999999998983
 31
-0.0000000000000334
210
0.0000000000000002
220
1.0
230
-0.0000000000000002
  0
LINE
  5
395B
  8
0
  6
AUSGEZOGEN
 62
     3
 10
-41.3593830491515888
 20
118.4399999999998983
 30
-0.0000000000000313
 11
-33.4402976005394095
 21
118.4399999999998983
 31
-0.0000000000000331
210
0.0000000000000002
220
1.0
230
-0.0000000000000002
  0
LINE
  5
395C
  8
0
  6
AUSGEZOGEN
 62
     3
 10
-33.4402976005394024
 20
119.9399999999998983
 30
-0.0000000000000334
 11
-32.580970160187249
 21
119.9399999999998983
 31
-0.0000000000000336
210
0.0000000000000002
220
1.0
230
-0.0000000000000002
  0
LINE
  5
395D
  8
0
  6
AUSGEZOGEN
 62
     3
 10
-33.4402976005394024
 20
118.4399999999998983
 30
-0.0000000000000331
 11
-32.580970160187249
 21
118.4399999999998983
 31
-0.0000000000000333
210
0.0000000000000002
220
1.0
230
-0.0000000000000002
  0
LINE
  5
395E
  8
0
  6
AUSGEZOGEN
 62
     3
 10
-23.7847735750482485
 20
119.9399999999998983
 30
-0.0000000000000214
 11
-32.580970160187249
 21
119.9399999999998983
 31
-0.0000000000000212
210
0.0000000000000002
220
1.0
230
-0.0000000000000002
  0
LINE
  5
395F
  8
0
  6
AUSGEZOGEN
 62
     3
 10
-23.7847735750482485
 20
118.4399999999998983
 30
-0.000000000000021
 11
-32.580970160187249
 21
118.4399999999998983
 31
-0.0000000000000208
210
0.0000000000000002
220
1.0
230
-0.0000000000000002
  0
LINE
  5
3960
  8
0
  6
AUSGEZOGEN
 62
     3
 10
-22.4397765511203211
 20
119.9399999999998983
 30
-0.0000000000000216
 11
-23.7847735750482592
 21
119.9399999999998983
 31
-0.0000000000000214
210
0.0000000000000002
220
1.0
230
-0.0000000000000002
  0
LINE
  5
3961
  8
0
  6
AUSGEZOGEN
 62
     3
 10
-22.4397765511203211
 20
118.4399999999998983
 30
-0.0000000000000213
 11
-23.7847735750482592
 21
118.4399999999998983
 31
-0.000000000000021
210
0.0000000000000002
220
1.0
230
-0.0000000000000002
  0
LINE
  5
3962
  8
0
  6
AUSGEZOGEN
 62
     3
 10
-17.9578905322359894
 20
119.9399999999998983
 30
-0.0000000000000226
 11
-22.4397765511203211
 21
119.9399999999998983
 31
-0.0000000000000234
210
0.0000000000000002
220
1.0
230
-0.0000000000000002
  0
LINE
  5
3963
  8
0
  6
AUSGEZOGEN
 62
     3
 10
-17.9578905322359894
 20
118.4399999999998983
 30
-0.0000000000000223
 11
-22.4397765511203211
 21
118.4399999999998983
 31
-0.0000000000000231
210
0.0000000000000002
220
1.0
230
-0.0000000000000002
  0
LINE
  5
3964
  8
0
  6
AUSGEZOGEN
 62
     3
 10
-17.9578905322360001
 20
119.9399999999998983
 30
-0.0000000000000226
 11
-17.2762936277782799
 21
119.9399999999998983
 31
-0.0000000000000228
210
0.0000000000000002
220
1.0
230
-0.0000000000000002
  0
LINE
  5
3965
  8
0
  6
AUSGEZOGEN
 62
     3
 10
-17.9578905322360001
 20
118.4399999999998983
 30
-0.0000000000000223
 11
-17.2762936277782799
 21
118.4399999999998983
 31
-0.0000000000000225
210
0.0000000000000002
220
1.0
230
-0.0000000000000002
  0
LINE
  5
3966
  8
0
  6
AUSGEZOGEN
 62
     3
 10
-17.2762936277782799
 20
119.9399999999998983
 30
-0.0000000000000228
 11
-8.4979197848978867
 21
119.9399999999998983
 31
-0.0000000000000247
210
0.0000000000000002
220
1.0
230
-0.0000000000000002
  0
LINE
  5
3967
  8
0
  6
AUSGEZOGEN
 62
     3
 10
-17.2762936277782799
 20
118.4399999999998983
 30
-0.0000000000000225
 11
-8.4979197848978867
 21
118.4399999999998983
 31
-0.0000000000000244
210
0.0000000000000002
220
1.0
230
-0.0000000000000002
  0
LINE
  5
3968
  8
0
  6
AUSGEZOGEN
 62
     3
 10
-8.4979197848978831
 20
119.9399999999998983
 30
-0.0000000000000247
 11
-7.687807915409576
 21
119.9399999999998983
 31
-0.0000000000000249
210
0.0000000000000002
220
1.0
230
-0.0000000000000002
  0
LINE
  5
3969
  8
0
  6
AUSGEZOGEN
 62
     3
 10
-8.4979197848978831
 20
118.4399999999998983
 30
-0.0000000000000244
 11
-7.687807915409576
 21
118.4399999999998983
 31
-0.0000000000000246
210
0.0000000000000002
220
1.0
230
-0.0000000000000002
  0
LINE
  5
396A
  8
0
  6
AUSGEZOGEN
 62
     3
 10
-0.7071067811866805
 20
119.9399999999998983
 30
-0.0000000000000265
 11
-7.6878079154095751
 21
119.9399999999998983
 31
-0.0000000000000267
210
0.0000000000000002
220
1.0
230
-0.0000000000000002
  0
LINE
  5
396B
  8
0
  6
AUSGEZOGEN
 62
     3
 10
-0.7071067811866808
 20
118.4399999999998983
 30
-0.0000000000000261
 11
-7.6878079154095751
 21
118.4399999999998983
 31
-0.0000000000000264
210
0.0000000000000002
220
1.0
230
-0.0000000000000002
  0
LINE
  5
396C
  8
0
  6
AUSGEZOGEN
 62
     3
 10
0.7071067811864261
 20
119.9399999999998983
 30
-0.0000000000000268
 11
-0.7071067811866805
 21
119.9399999999998983
 31
-0.0000000000000265
210
0.0000000000000002
220
1.0
230
-0.0000000000000002
  0
LINE
  5
396D
  8
0
  6
AUSGEZOGEN
 62
     3
 10
0.7071067811864257
 20
118.4399999999998983
 30
-0.0000000000000265
 11
-0.7071067811866808
 21
118.4399999999998983
 31
-0.0000000000000261
210
0.0000000000000002
220
1.0
230
-0.0000000000000002
  0
LINE
  5
396E
  8
0
  6
AUSGEZOGEN
 62
     3
 10
7.6878079154092669
 20
119.9399999999998983
 30
-0.0000000000000283
 11
0.7071067811864254
 21
119.9399999999998983
 31
-0.0000000000000286
210
0.0000000000000002
220
1.0
230
-0.0000000000000002
  0
LINE
  5
396F
  8
0
  6
AUSGEZOGEN
 62
     3
 10
7.6878079154092669
 20
118.4399999999998983
 30
-0.000000000000028
 11
0.707106781186425
 21
118.4399999999998983
 31
-0.0000000000000282
210
0.0000000000000002
220
1.0
230
-0.0000000000000002
  0
LINE
  5
3970
  8
0
  6
AUSGEZOGEN
 62
     3
 10
7.6878079154092713
 20
119.9399999999998983
 30
-0.0000000000000283
 11
8.4979197848975776
 21
119.9399999999998983
 31
-0.0000000000000285
210
0.0000000000000002
220
1.0
230
-0.0000000000000002
  0
LINE
  5
3971
  8
0
  6
AUSGEZOGEN
 62
     3
 10
7.6878079154092713
 20
118.4399999999998983
 30
-0.000000000000028
 11
8.4979197848975776
 21
118.4399999999998983
 31
-0.0000000000000282
210
0.0000000000000002
220
1.0
230
-0.0000000000000002
  0
LINE
  5
3972
  8
0
  6
AUSGEZOGEN
 62
     3
 10
8.4979197848975794
 20
119.9399999999998983
 30
-0.0000000000000285
 11
17.2762936277780312
 21
119.9399999999998983
 31
-0.0000000000000305
210
0.0000000000000002
220
1.0
230
-0.0000000000000002
  0
LINE
  5
3973
  8
0
  6
AUSGEZOGEN
 62
     3
 10
8.4979197848975794
 20
118.4399999999998983
 30
-0.0000000000000282
 11
17.2762936277780312
 21
118.4399999999998983
 31
-0.0000000000000301
210
0.0000000000000002
220
1.0
230
-0.0000000000000002
  0
LINE
  5
3974
  8
0
  6
AUSGEZOGEN
 62
     3
 10
17.2762936277780206
 20
119.9399999999998983
 30
-0.0000000000000305
 11
17.9578905322357407
 21
119.9399999999998983
 31
-0.0000000000000306
210
0.0000000000000002
220
1.0
230
-0.0000000000000002
  0
LINE
  5
3975
  8
0
  6
AUSGEZOGEN
 62
     3
 10
17.2762936277780206
 20
118.4399999999998983
 30
-0.0000000000000301
 11
17.9578905322357407
 21
118.4399999999998983
 31
-0.0000000000000303
210
0.0000000000000002
220
1.0
230
-0.0000000000000002
  0
LINE
  5
3976
  8
0
  6
AUSGEZOGEN
 62
     3
 10
22.4397765511200618
 20
119.9399999999998983
 30
-0.0000000000000316
 11
17.9578905322357301
 21
119.9399999999998983
 31
-0.0000000000000324
210
0.0000000000000002
220
1.0
230
-0.0000000000000002
  0
LINE
  5
3977
  8
0
  6
AUSGEZOGEN
 62
     3
 10
22.4397765511200618
 20
118.4399999999998983
 30
-0.0000000000000313
 11
17.9578905322357301
 21
118.4399999999998983
 31
-0.0000000000000321
210
0.0000000000000002
220
1.0
230
-0.0000000000000002
  0
LINE
  5
3978
  8
0
  6
AUSGEZOGEN
 62
     3
 10
23.7847735750479892
 20
119.9399999999998983
 30
-0.0000000000000319
 11
22.4397765511199694
 21
119.9399999999998983
 31
-0.0000000000000316
210
0.0000000000000002
220
1.0
230
-0.0000000000000002
  0
LINE
  5
3979
  8
0
  6
AUSGEZOGEN
 62
     3
 10
23.7847735750479892
 20
118.4399999999998983
 30
-0.0000000000000316
 11
22.4397765511199694
 21
118.4399999999998983
 31
-0.0000000000000313
210
0.0000000000000002
220
1.0
230
-0.0000000000000002
  0
LINE
  5
397A
  8
0
  6
AUSGEZOGEN
 62
     3
 10
32.5809701601869932
 20
119.9399999999998983
 30
-0.0000000000000197
 11
23.7847735750479892
 21
119.9399999999998983
 31
-0.0000000000000195
210
0.0000000000000002
220
1.0
230
-0.0000000000000002
  0
LINE
  5
397B
  8
0
  6
AUSGEZOGEN
 62
     3
 10
32.5809701601869932
 20
118.4399999999998983
 30
-0.0000000000000193
 11
23.7847735750479892
 21
118.4399999999998983
 31
-0.0000000000000191
210
0.0000000000000002
220
1.0
230
-0.0000000000000002
  0
LINE
  5
397C
  8
0
  6
AUSGEZOGEN
 62
     3
 10
32.5809701601869932
 20
119.9399999999998983
 30
-0.0000000000000197
 11
33.4402976005390968
 21
119.9399999999998983
 31
-0.0000000000000198
210
0.0000000000000002
220
1.0
230
-0.0000000000000002
  0
LINE
  5
397D
  8
0
  6
AUSGEZOGEN
 62
     3
 10
32.5809701601869932
 20
118.4399999999998983
 30
-0.0000000000000193
 11
33.4402976005390968
 21
118.4399999999998983
 31
-0.0000000000000195
210
0.0000000000000002
220
1.0
230
-0.0000000000000002
  0
LINE
  5
397E
  8
0
  6
AUSGEZOGEN
 62
     3
 10
33.4402976005390968
 20
119.9399999999998983
 30
-0.0000000000000198
 11
41.3593830491513188
 21
119.9399999999998983
 31
-0.0000000000000216
210
0.0000000000000002
220
1.0
230
-0.0000000000000002
  0
LINE
  5
397F
  8
0
  6
AUSGEZOGEN
 62
     3
 10
33.4402976005390968
 20
118.4399999999998983
 30
-0.0000000000000195
 11
41.3593830491513188
 21
118.4399999999998983
 31
-0.0000000000000213
210
0.0000000000000002
220
1.0
230
-0.0000000000000002
  0
LINE
  5
3980
  8
0
  6
AUSGEZOGEN
 62
     3
 10
41.3593830491513117
 20
119.9399999999998983
 30
-0.0000000000000216
 11
41.8457455346052498
 21
119.9399999999998983
 31
-0.0000000000000217
210
0.0000000000000002
220
1.0
230
-0.0000000000000002
  0
LINE
  5
3981
  8
0
  6
AUSGEZOGEN
 62
     3
 10
41.3593830491513117
 20
118.4399999999998983
 30
-0.0000000000000213
 11
41.8457455346052498
 21
118.4399999999998983
 31
-0.0000000000000214
210
0.0000000000000002
220
1.0
230
-0.0000000000000002
  0
LINE
  5
3982
  8
0
  6
AUSGEZOGEN
 62
     3
 10
43.3900982074863819
 20
119.9399999999998983
 30
-0.0000000000000292
 11
41.8457455346052498
 21
119.9399999999998983
 31
-0.0000000000000288
210
0.0000000000000002
220
1.0
230
-0.0000000000000002
  0
LINE
  5
3983
  8
0
  6
AUSGEZOGEN
 62
     3
 10
43.3900982074863819
 20
118.4399999999998983
 30
-0.0000000000000288
 11
41.8457455346052498
 21
118.4399999999998983
 31
-0.0000000000000285
210
0.0000000000000002
220
1.0
230
-0.0000000000000002
  0
LINE
  5
3984
  8
0
  6
AUSGEZOGEN
 62
     3
 10
44.5342210131217229
 20
119.9399999999998983
 30
-0.0000000000000294
 11
43.3900982074864174
 21
119.9399999999998983
 31
-0.0000000000000292
210
0.0000000000000002
220
1.0
230
-0.0000000000000002
  0
LINE
  5
3985
  8
0
  6
AUSGEZOGEN
 62
     3
 10
44.5342210131217229
 20
118.4399999999998983
 30
-0.0000000000000291
 11
43.3900982074864174
 21
118.4399999999998983
 31
-0.0000000000000288
210
0.0000000000000002
220
1.0
230
-0.0000000000000002
  0
LINE
  5
3986
  8
0
  6
AUSGEZOGEN
 62
     3
 10
54.2848800407181074
 20
119.9399999999998983
 30
-0.0000000000000245
 11
44.5342210131217229
 21
119.9399999999998983
 31
-0.0000000000000245
210
0.0000000000000002
220
1.0
230
-0.0000000000000002
  0
LINE
  5
3987
  8
0
  6
AUSGEZOGEN
 62
     3
 10
54.2848800407181074
 20
118.4399999999998983
 30
-0.0000000000000241
 11
44.5342210131217229
 21
118.4399999999998983
 31
-0.0000000000000242
210
0.0000000000000002
220
1.0
230
-0.0000000000000002
  0
LINE
  5
3988
  8
0
  6
AUSGEZOGEN
 62
     3
 10
54.2848800407181074
 20
119.9399999999998983
 30
-0.0000000000000245
 11
55.1093060947859925
 21
119.9399999999998983
 31
-0.0000000000000247
210
0.0000000000000002
220
1.0
230
-0.0000000000000002
  0
LINE
  5
3989
  8
0
  6
AUSGEZOGEN
 62
     3
 10
54.2848800407181074
 20
118.4399999999998983
 30
-0.0000000000000241
 11
55.1093060947859925
 21
118.4399999999998983
 31
-0.0000000000000243
210
0.0000000000000002
220
1.0
230
-0.0000000000000002
  0
LINE
  5
398A
  8
0
  6
AUSGEZOGEN
 62
     3
 10
55.1093060947859925
 20
119.9399999999998983
 30
-0.0000000000000247
 11
61.3939278899073173
 21
119.9399999999998983
 31
-0.0000000000000261
210
0.0000000000000002
220
1.0
230
-0.0000000000000002
  0
LINE
  5
398B
  8
0
  6
AUSGEZOGEN
 62
     3
 10
55.1093060947859925
 20
118.4399999999998983
 30
-0.0000000000000243
 11
61.3939278899073173
 21
118.4399999999998983
 31
-0.0000000000000257
210
0.0000000000000002
220
1.0
230
-0.0000000000000002
  0
LINE
  5
398C
  8
0
  6
AUSGEZOGEN
 62
     3
 10
61.3939278899073315
 20
119.9399999999998983
 30
-0.0000000000000261
 11
61.6497590669994011
 21
119.9399999999998983
 31
-0.0000000000000261
210
0.0000000000000002
220
1.0
230
-0.0000000000000002
  0
LINE
  5
398D
  8
0
  6
AUSGEZOGEN
 62
     3
 10
61.3939278899073315
 20
118.4399999999998983
 30
-0.0000000000000257
 11
61.6497590669994011
 21
118.4399999999998983
 31
-0.0000000000000258
210
0.0000000000000002
220
1.0
230
-0.0000000000000002
  0
LINE
  5
398E
  8
0
  6
AUSGEZOGEN
 62
     3
 10
75.5046399507916135
 20
119.9399999999998983
 30
-0.0000000000000292
 11
75.5046399507916135
 21
118.4399999999998983
 31
-0.0000000000000289
210
0.0000000000000002
220
1.0
230
-0.0000000000000002
  0
LINE
  5
398F
  8
0
  6
AUSGEZOGEN
 62
     3
 10
82.0664875718495637
 20
119.9399999999998983
 30
-0.0000000000000271
 11
82.0664875718495637
 21
118.4399999999998983
 31
-0.0000000000000268
210
0.0000000000000002
220
1.0
230
-0.0000000000000002
  0
LINE
  5
3990
  8
0
  6
AUSGEZOGEN
 62
     3
 10
-82.0664875718499047
 20
119.9399999999998983
 30
-0.0000000000000262
 11
-82.0664875718499047
 21
118.4399999999998983
 31
-0.0000000000000258
210
0.0000000000000002
220
1.0
230
-0.0000000000000002
  0
LINE
  5
3991
  8
0
  6
AUSGEZOGEN
 62
     3
 10
-75.5046399507917982
 20
119.9399999999998983
 30
-0.0000000000000241
 11
-75.5046399507917982
 21
118.4399999999998983
 31
-0.0000000000000237
210
0.0000000000000002
220
1.0
230
-0.0000000000000002
  0
LINE
  5
3992
  8
0
  6
AUSGEZOGEN
 62
     3
 10
-61.6497590669996498
 20
119.9399999999998983
 30
-0.0000000000000272
 11
-61.6497590669996498
 21
118.4399999999998983
 31
-0.0000000000000268
210
0.0000000000000002
220
1.0
230
-0.0000000000000002
  0
LINE
  5
3993
  8
0
  6
AUSGEZOGEN
 62
     3
 10
61.6497590669993585
 20
119.9399999999998983
 30
-0.0000000000000261
 11
61.6497590669993585
 21
118.4399999999998983
 31
-0.0000000000000258
210
0.0000000000000002
220
1.0
230
-0.0000000000000002
  0
LINE
  5
3994
  8
0
  6
AUSGEZOGEN
 62
     3
 10
70.0000000000008384
 20
182.999999999999801
 30
-0.000000000000042
 11
70.0000000000008384
 21
189.999999999999801
 31
-0.0000000000000435
210
0.0000000000000002
220
1.0
230
-0.0000000000000002
  0
LINE
  5
3995
  8
0
  6
AUSGEZOGEN
 62
     3
 10
70.0000000000003837
 20
182.999999999999801
 30
-0.000000000000042
 11
72.5000000000001563
 21
182.999999999999801
 31
-0.0000000000000406
210
0.0000000000000002
220
1.0
230
-0.0000000000000002
  0
LINE
  5
3996
  8
0
  6
AUSGEZOGEN
 62
     3
 10
72.5000000000001279
 20
189.999999999999801
 30
-0.0000000000000422
 11
70.0000000000003695
 21
189.999999999999801
 31
-0.0000000000000435
210
0.0000000000000002
220
1.0
230
-0.0000000000000002
  0
LINE
  5
3997
  8
0
  6
AUSGEZOGEN
 62
     3
 10
-51.3458710382807908
 20
182.9999999999998863
 30
-0.0000000000000434
 11
-51.3458710382807908
 21
189.999999999999801
 31
-0.000000000000045
210
0.0000000000000002
220
1.0
230
-0.0000000000000002
  0
LINE
  5
3998
  8
0
  6
AUSGEZOGEN
 62
     3
 10
-18.6541289617175003
 20
189.999999999999801
 30
-0.000000000000038
 11
-18.654128961717511
 21
182.9999999999998863
 31
-0.0000000000000365
210
0.0000000000000002
220
1.0
230
-0.0000000000000002
  0
LINE
  5
3999
  8
0
  6
AUSGEZOGEN
 62
     3
 10
-51.3458710382774797
 20
182.9999999999998863
 30
-0.0000000000000434
 11
-18.6541289617218204
 21
182.9999999999998863
 31
-0.0000000000000365
210
0.0000000000000002
220
1.0
230
-0.0000000000000002
  0
LINE
  5
399A
  8
0
  6
AUSGEZOGEN
 62
     3
 10
-18.6541289617218098
 20
189.999999999999801
 30
-0.000000000000038
 11
-51.345871038277501
 21
189.999999999999801
 31
-0.000000000000045
210
0.0000000000000002
220
1.0
230
-0.0000000000000002
  0
LINE
  5
399B
  8
0
  6
AUSGEZOGEN
 62
     3
 10
-69.9999999999991616
 20
189.9999999999998863
 30
-0.0000000000000409
 11
-69.9999999999991616
 21
182.999999999999801
 31
-0.0000000000000393
210
0.0000000000000002
220
1.0
230
-0.0000000000000002
  0
LINE
  5
399C
  8
0
  6
AUSGEZOGEN
 62
     3
 10
-72.4999999999998153
 20
182.999999999999801
 30
-0.0000000000000406
 11
-70.0000000000000568
 21
182.999999999999801
 31
-0.0000000000000393
210
0.0000000000000002
220
1.0
230
-0.0000000000000002
  0
LINE
  5
399D
  8
0
  6
AUSGEZOGEN
 62
     3
 10
-70.0000000000000711
 20
189.9999999999998863
 30
-0.0000000000000409
 11
-72.4999999999998437
 21
189.9999999999998863
 31
-0.0000000000000422
210
0.0000000000000002
220
1.0
230
-0.0000000000000002
  0
LINE
  5
399E
  8
0
  6
AUSGEZOGEN
 62
     3
 10
-72.4999999999998437
 20
199.9999999999998863
 30
-0.0000000000000444
 11
72.5000000000001563
 21
199.9999999999998863
 31
-0.0000000000000444
210
0.0000000000000002
220
1.0
230
-0.0000000000000002
  0
LINE
  5
399F
  8
0
  6
AUSGEZOGEN
 62
     3
 10
73.9999999999999432
 20
-0.0000000000000164
 30
0.0
 11
-73.9999999999999432
 21
0.0000000000000164
 31
0.0
210
0.0000000000000002
220
1.0
230
-0.0000000000000002
  0
LINE
  5
39A0
  8
0
  6
AUSGEZOGEN
 62
     3
 10
-73.9999999999999432
 20
0.0000000000000164
 30
0.0
 11
-73.9999999999999432
 21
12.5314222700814497
 31
-0.0000000000000028
210
0.0000000000000002
220
1.0
230
-0.0000000000000002
  0
LINE
  5
39A1
  8
0
  6
AUSGEZOGEN
 62
     3
 10
73.9999999999999432
 20
-0.0000000000000164
 30
0.0
 11
73.9999999999999432
 21
12.5314222700814195
 31
-0.0000000000000028
210
0.0000000000000002
220
1.0
230
-0.0000000000000002
  0
ARC
  5
39A2
  8
0
  6
AUSGEZOGEN
 62
     3
 10
-57.5000000000008882
 20
12.5314222700816096
 30
0.0
 40
16.4999999999990514
210
0.0
220
-0.0000000000000002
230
-1.0
 50
159.9999999999992895
 51
180.0000000000005969
  0
ARC
  5
39A3
  8
0
  6
AUSGEZOGEN
 62
     3
 10
57.5000000000008882
 20
12.5314222700816398
 30
0.0
 40
16.4999999999990514
210
0.0
220
-0.0000000000000002
230
-1.0
 50
359.9999999999993747
 51
20.0000000000006786
  0
LINE
  5
39A4
  8
0
  6
AUSGEZOGEN
 62
     3
 10
67.1935348609619751
 20
34.1414267275830809
 30
-0.0000000000000076
 11
73.0049282429674236
 21
18.17475463495499
 31
-0.000000000000004
210
0.0000000000000002
220
1.0
230
-0.0000000000000002
  0
LINE
  5
39A5
  8
0
  6
AUSGEZOGEN
 62
     3
 10
-67.1935348609619467
 20
34.1414267275831023
 30
-0.0000000000000076
 11
-73.0049282429674236
 21
18.1747546349550291
 31
-0.000000000000004
210
0.0000000000000002
220
1.0
230
-0.0000000000000002
  0
ARC
  5
39A6
  8
0
  6
AUSGEZOGEN
 62
     3
 10
-78.0000000000010232
 20
38.0746583758285198
 30
0.0
 40
11.5000000000011404
210
0.0
220
-0.0000000000000002
230
-1.0
 50
340.0000000000006821
 51
359.9999999999985789
  0
ARC
  5
39A7
  8
0
  6
AUSGEZOGEN
 62
     3
 10
78.0000000000009948
 20
38.0746583758285624
 30
0.0
 40
11.5000000000011209
210
0.0
220
-0.0000000000000002
230
-1.0
 50
180.0000000000013927
 51
199.9999999999992895
  0
LINE
  5
39A8
  8
0
  6
AUSGEZOGEN
 62
     3
 10
-66.4999999999998721
 20
38.0746583758282711
 30
-0.0000000000000085
 11
-66.4999999999998579
 21
109.232001591855294
 31
-0.0000000000000243
210
0.0000000000000002
220
1.0
230
-0.0000000000000002
  0
LINE
  5
39A9
  8
0
  6
AUSGEZOGEN
 62
     3
 10
66.4999999999999005
 20
38.0746583758282426
 30
-0.0000000000000085
 11
66.4999999999999147
 21
109.232001591855294
 31
-0.0000000000000243
210
0.0000000000000002
220
1.0
230
-0.0000000000000002
  0
ARC
  5
39AA
  8
0
  6
AUSGEZOGEN
 62
     3
 10
-80.4999999999985079
 20
109.232001591855493
 30
0.0
 40
13.9999999999985292
210
0.0
220
-0.0000000000000002
230
-1.0
 50
359.9999999999992042
 51
20.0000000000009415
  0
ARC
  5
39AB
  8
0
  6
AUSGEZOGEN
 62
     3
 10
80.4999999999984652
 20
109.232001591855493
 30
0.0
 40
13.9999999999985398
210
0.0
220
-0.0000000000000002
230
-1.0
 50
159.9999999999990905
 51
180.0000000000007105
  0
LINE
  5
39AC
  8
0
  6
AUSGEZOGEN
 62
     3
 10
-67.3443033089972118
 20
114.0202835984145935
 30
-0.0000000000000253
 11
-68.9529485230723509
 21
118.4399999999998983
 31
-0.0000000000000263
210
0.0000000000000002
220
1.0
230
-0.0000000000000002
  0
LINE
  5
39AD
  8
0
  6
AUSGEZOGEN
 62
     3
 10
-69.4989038744716368
 20
119.9399999999998983
 30
-0.0000000000000266
 11
-71.6556966910025039
 21
125.8657395618604937
 31
-0.0000000000000279
210
0.0000000000000002
220
1.0
230
-0.0000000000000002
  0
LINE
  5
39AE
  8
0
  6
AUSGEZOGEN
 62
     3
 10
67.3443033089972545
 20
114.0202835984145935
 30
-0.0000000000000253
 11
68.9529485230724077
 21
118.4399999999998983
 31
-0.0000000000000263
210
0.0000000000000002
220
1.0
230
-0.0000000000000002
  0
LINE
  5
39AF
  8
0
  6
AUSGEZOGEN
 62
     3
 10
69.4989038744716936
 20
119.9399999999998983
 30
-0.0000000000000266
 11
71.6556966910025608
 21
125.8657395618604937
 31
-0.0000000000000279
210
0.0000000000000002
220
1.0
230
-0.0000000000000002
  0
ARC
  5
39B0
  8
0
  6
AUSGEZOGEN
 62
     3
 10
-58.5000000000008598
 20
130.6540215684196085
 30
0.0
 40
13.9999999999989306
210
0.0
220
-0.0000000000000002
230
-1.0
 50
179.9999999999988916
 51
200.0000000000003979
  0
ARC
  5
39B1
  8
0
  6
AUSGEZOGEN
 62
     3
 10
58.50000000000081
 20
130.6540215684196085
 30
0.0
 40
13.9999999999989306
210
0.0
220
-0.0000000000000002
230
-1.0
 50
339.9999999999994884
 51
0.0000000000010687
  0
LINE
  5
39B2
  8
0
  6
AUSGEZOGEN
 62
     3
 10
-72.4999999999996732
 20
130.6540215684198927
 30
-0.000000000000029
 11
-72.4999999999996732
 21
182.999999999999801
 31
-0.0000000000000406
210
0.0000000000000002
220
1.0
230
-0.0000000000000002
  0
LINE
  5
39B3
  8
0
  6
AUSGEZOGEN
 62
     3
 10
-72.4999999999996732
 20
189.9999999999998863
 30
-0.0000000000000422
 11
-72.4999999999996732
 21
199.9999999999998863
 31
-0.0000000000000444
210
0.0000000000000002
220
1.0
230
-0.0000000000000002
  0
LINE
  5
39B4
  8
0
  6
AUSGEZOGEN
 62
     3
 10
72.4999999999997442
 20
130.6540215684198927
 30
-0.000000000000029
 11
72.4999999999997584
 21
182.999999999999801
 31
-0.0000000000000406
210
0.0000000000000002
220
1.0
230
-0.0000000000000002
  0
LINE
  5
39B5
  8
0
  6
AUSGEZOGEN
 62
     3
 10
72.4999999999997584
 20
189.999999999999801
 30
-0.0000000000000422
 11
72.4999999999997584
 21
199.9999999999998863
 31
-0.0000000000000444
210
0.0000000000000002
220
1.0
230
-0.0000000000000002
  0
LINE
  5
39B6
  8
0
  6
VERDECKT
 62
     1
 10
69.4999999999998437
 20
119.9399999999998983
 30
-0.0000000000000266
 11
69.4999999999998437
 21
118.4399999999998983
 31
-0.0000000000000263
210
0.0000000000000002
220
1.0
230
-0.0000000000000002
  0
LINE
  5
39B7
  8
0
  6
VERDECKT
 62
     1
 10
-69.5000000000001421
 20
119.9399999999998983
 30
-0.0000000000000266
 11
-69.5000000000001421
 21
118.4399999999998983
 31
-0.0000000000000263
210
0.0000000000000002
220
1.0
230
-0.0000000000000002
  0
LINE
  5
39B8
  8
0
  6
VERDECKT
 62
     1
 10
60.0807830753084033
 20
119.9399999999998983
 30
-0.0000000000000258
 11
60.0807830753084033
 21
118.4399999999998983
 31
-0.0000000000000254
210
0.0000000000000002
220
1.0
230
-0.0000000000000002
  0
LINE
  5
39B9
  8
0
  6
VERDECKT
 62
     1
 10
70.8047669802839721
 20
119.9399999999998983
 30
-0.0000000000000281
 11
70.8047669802839721
 21
118.4399999999998983
 31
-0.0000000000000278
210
0.0000000000000002
220
1.0
230
-0.0000000000000002
  0
LINE
  5
39BA
  8
0
  6
VERDECKT
 62
     1
 10
74.4999999999998437
 20
119.9399999999998983
 30
-0.0000000000000266
 11
74.4999999999998437
 21
118.4399999999998983
 31
-0.0000000000000263
210
0.0000000000000002
220
1.0
230
-0.0000000000000002
  0
LINE
  5
39BB
  8
0
  6
VERDECKT
 62
     1
 10
-74.5000000000001279
 20
119.9399999999998983
 30
-0.0000000000000266
 11
-74.5000000000001279
 21
118.4399999999998983
 31
-0.0000000000000263
210
0.0000000000000002
220
1.0
230
-0.0000000000000002
  0
LINE
  5
39BC
  8
0
  6
VERDECKT
 62
     1
 10
-70.8047669802842705
 20
119.9399999999998983
 30
-0.0000000000000251
 11
-70.8047669802842705
 21
118.4399999999998983
 31
-0.0000000000000248
210
0.0000000000000002
220
1.0
230
-0.0000000000000002
  0
LINE
  5
39BD
  8
0
  6
VERDECKT
 62
     1
 10
-60.0807830753086876
 20
119.9399999999998983
 30
-0.0000000000000275
 11
-60.0807830753086876
 21
118.4399999999998983
 31
-0.0000000000000272
210
0.0000000000000002
220
1.0
230
-0.0000000000000002
  0
LINE
  5
39BE
  8
0
  6
VERDECKT
 62
     1
 10
30.2009618943236013
 20
190.0
 30
-0.0000000000000418
 11
23.2009618943235907
 21
185.0
 31
-0.0000000000000409
210
0.0000000000000002
220
1.0
230
-0.0000000000000002
  0
LINE
  5
39BF
  8
0
  6
VERDECKT
 62
     1
 10
25.7990381056769706
 20
185.0
 30
-0.0000000000000397
 11
32.7990381056769706
 21
190.0
 31
-0.0000000000000406
210
0.0000000000000002
220
1.0
230
-0.0000000000000002
  0
LINE
  5
39C0
  8
0
  6
VERDECKT
 62
     1
 10
25.7990381056769706
 20
185.0
 30
-0.0000000000000397
 11
23.2009618943237115
 21
185.0
 31
-0.0000000000000398
210
0.0000000000000002
220
1.0
230
-0.0000000000000002
  0
LINE
  5
39C1
  8
0
  6
VERDECKT
 62
     1
 10
23.2009618943235907
 20
185.0
 30
-0.0000000000000391
 11
19.7009618943235907
 21
185.0000000000001137
 31
-0.0000000000000392
210
0.0000000000000002
220
1.0
230
-0.0000000000000002
  0
LINE
  5
39C2
  8
0
  6
VERDECKT
 62
     1
 10
19.7009618943231288
 20
185.0000000000001137
 30
-0.0000000000000383
 11
19.7009618943231288
 21
177.8000000000002103
 31
-0.0000000000000367
210
0.0000000000000002
220
1.0
230
-0.0000000000000002
  0
LINE
  5
39C3
  8
0
  6
VERDECKT
 62
     1
 10
22.2990381056767291
 20
177.8000000000002103
 30
-0.0000000000000373
 11
22.2990381056767397
 21
185.0000000000001137
 31
-0.0000000000000389
210
0.0000000000000002
220
1.0
230
-0.0000000000000002
  0
LINE
  5
39C4
  8
0
  6
VERDECKT
 62
     1
 10
19.7009618943234699
 20
177.8000000000002103
 30
-0.0000000000000367
 11
23.2009618943235907
 21
177.8000000000002103
 31
-0.0000000000000366
210
0.0000000000000002
220
1.0
230
-0.0000000000000002
  0
LINE
  5
39C5
  8
0
  6
VERDECKT
 62
     1
 10
25.79903810567696
 20
177.8000000000002103
 30
-0.0000000000000381
 11
23.2009618943237115
 21
177.8000000000002103
 31
-0.0000000000000382
210
0.0000000000000002
220
1.0
230
-0.0000000000000002
  0
LINE
  5
39C6
  8
0
  6
VERDECKT
 62
     1
 10
23.2009618943233598
 20
177.8000000000002103
 30
-0.0000000000000375
 11
30.2009618943233704
 21
172.8000000000002103
 31
-0.0000000000000362
210
0.0000000000000002
220
1.0
230
-0.0000000000000002
  0
LINE
  5
39C7
  8
0
  6
VERDECKT
 62
     1
 10
32.7990381056767433
 20
172.8000000000002103
 30
-0.0000000000000385
 11
25.7990381056767397
 21
177.8000000000002103
 31
-0.0000000000000399
210
0.0000000000000002
220
1.0
230
-0.0000000000000002
  0
LINE
  5
39C8
  8
0
  6
VERDECKT
 62
     1
 10
30.2009618943231395
 20
172.8000000000002103
 30
-0.000000000000038
 11
33.700961894323143
 21
172.8000000000000966
 31
-0.0000000000000379
210
0.0000000000000002
220
1.0
230
-0.0000000000000002
  0
LINE
  5
39C9
  8
0
  6
VERDECKT
 62
     1
 10
36.2990381056771909
 20
172.8000000000000966
 30
-0.0000000000000393
 11
33.7009618943239317
 21
172.8000000000000966
 31
-0.0000000000000394
210
0.0000000000000002
220
1.0
230
-0.0000000000000002
  0
LINE
  5
39CA
  8
0
  6
VERDECKT
 62
     1
 10
33.700961894323143
 20
172.8000000000000966
 30
-0.0000000000000387
 11
33.700961894323143
 21
175.3000000000000966
 31
-0.0000000000000393
210
0.0000000000000002
220
1.0
230
-0.0000000000000002
  0
LINE
  5
39CB
  8
0
  6
VERDECKT
 62
     1
 10
36.2990381056771909
 20
175.3000000000000966
 30
-0.0000000000000399
 11
36.2990381056771909
 21
172.8000000000000966
 31
-0.0000000000000393
210
0.0000000000000002
220
1.0
230
-0.0000000000000002
  0
LINE
  5
39CC
  8
0
  6
VERDECKT
 62
     1
 10
36.2990381056771909
 20
175.3000000000000966
 30
-0.0000000000000399
 11
33.7009618943239317
 21
175.3000000000000966
 31
-0.00000000000004
210
0.0000000000000002
220
1.0
230
-0.0000000000000002
  0
LINE
  5
39CD
  8
0
  6
VERDECKT
 62
     1
 10
33.700961894323143
 20
175.3000000000000966
 30
-0.0000000000000393
 11
32.700961894323143
 21
176.4547005383793987
 31
-0.0000000000000396
210
0.0000000000000002
220
1.0
230
-0.0000000000000002
  0
LINE
  5
39CE
  8
0
  6
VERDECKT
 62
     1
 10
35.2990381056767433
 20
176.4547005383793987
 30
-0.0000000000000399
 11
36.2990381056767433
 21
175.3000000000000966
 31
-0.0000000000000397
210
0.0000000000000002
220
1.0
230
-0.0000000000000002
  0
LINE
  5
39CF
  8
0
  6
VERDECKT
 62
     1
 10
35.2990381056767433
 20
176.4547005383793987
 30
-0.0000000000000399
 11
32.7009618943234912
 21
176.4547005383793987
 31
-0.00000000000004
210
0.0000000000000002
220
1.0
230
-0.0000000000000002
  0
LINE
  5
39D0
  8
0
  6
VERDECKT
 62
     1
 10
32.700961894323143
 20
176.4547005383793987
 30
-0.0000000000000393
 11
32.700961894323143
 21
186.3452994616208116
 31
-0.0000000000000415
210
0.0000000000000002
220
1.0
230
-0.0000000000000002
  0
LINE
  5
39D1
  8
0
  6
VERDECKT
 62
     1
 10
35.2990381056767433
 20
186.3452994616208116
 30
-0.0000000000000421
 11
35.2990381056767433
 21
176.4547005383793987
 31
-0.0000000000000399
210
0.0000000000000002
220
1.0
230
-0.0000000000000002
  0
LINE
  5
39D2
  8
0
  6
VERDECKT
 62
     1
 10
35.2990381056767433
 20
186.3452994616208116
 30
-0.0000000000000421
 11
32.7009618943234912
 21
186.3452994616208116
 31
-0.0000000000000422
210
0.0000000000000002
220
1.0
230
-0.0000000000000002
  0
LINE
  5
39D3
  8
0
  6
VERDECKT
 62
     1
 10
32.700961894323143
 20
186.3452994616208116
 30
-0.0000000000000415
 11
33.700961894323143
 21
187.5000000000001137
 31
-0.0000000000000418
210
0.0000000000000002
220
1.0
230
-0.0000000000000002
  0
LINE
  5
39D4
  8
0
  6
VERDECKT
 62
     1
 10
36.299038105677198
 20
187.5000000000001137
 30
-0.0000000000000426
 11
35.299038105677198
 21
186.3452994616208116
 31
-0.0000000000000423
210
0.0000000000000002
220
1.0
230
-0.0000000000000002
  0
LINE
  5
39D5
  8
0
  6
VERDECKT
 62
     1
 10
36.299038105677198
 20
187.5000000000001137
 30
-0.0000000000000426
 11
33.7009618943239388
 21
187.5000000000001137
 31
-0.0000000000000427
210
0.0000000000000002
220
1.0
230
-0.0000000000000002
  0
LINE
  5
39D6
  8
0
  6
VERDECKT
 62
     1
 10
33.700961894323143
 20
187.5000000000001137
 30
-0.000000000000042
 11
33.700961894323143
 21
190.0000000000001137
 31
-0.0000000000000426
210
0.0000000000000002
220
1.0
230
-0.0000000000000002
  0
LINE
  5
39D7
  8
0
  6
VERDECKT
 62
     1
 10
36.299038105677198
 20
190.0000000000001137
 30
-0.0000000000000431
 11
36.299038105677198
 21
187.5000000000001137
 31
-0.0000000000000426
210
0.0000000000000002
220
1.0
230
-0.0000000000000002
  0
LINE
  5
39D8
  8
0
  6
VERDECKT
 62
     1
 10
36.299038105677198
 20
190.0000000000001137
 30
-0.0000000000000431
 11
33.7009618943239388
 21
190.0000000000001137
 31
-0.0000000000000432
210
0.0000000000000002
220
1.0
230
-0.0000000000000002
  0
LINE
  5
39D9
  8
0
  6
VERDECKT
 62
     1
 10
33.7009618943233704
 20
190.0000000000001137
 30
-0.0000000000000426
 11
30.2009618943233704
 21
190.0
 31
-0.0000000000000427
210
0.0000000000000002
220
1.0
230
-0.0000000000000002
  0
LINE
  5
39DA
  8
0
  6
VERDECKT
 62
     1
 10
50.38757935531833
 20
1.99999999999996
 30
-0.0000000000000004
 11
-50.38757935531833
 21
1.9999999999999829
 31
-0.0000000000000004
210
0.0000000000000002
220
1.0
230
-0.0000000000000002
  0
LINE
  5
39DB
  8
0
  6
VERDECKT
 62
     1
 10
69.9999999999995737
 20
138.5857864376268935
 30
-0.0000000000000308
 11
-69.9999999999995168
 21
138.5857864376270072
 31
-0.0000000000000308
210
0.0000000000000002
220
1.0
230
-0.0000000000000002
  0
LINE
  5
39DC
  8
0
  6
VERDECKT
 62
     1
 10
68.5857864376268083
 20
139.9999999999996874
 30
-0.0000000000000311
 11
-68.5857864376267514
 21
139.9999999999996874
 31
-0.0000000000000311
210
0.0000000000000002
220
1.0
230
-0.0000000000000002
  0
LINE
  5
39DD
  8
0
  6
VERDECKT
 62
     1
 10
-50.3875793553183087
 20
1.9999999999999849
 30
-0.0000000000000004
 11
-50.9999999999998579
 21
8.9999999999998721
 31
-0.000000000000002
210
0.0000000000000002
220
1.0
230
-0.0000000000000002
  0
LINE
  5
39DE
  8
0
  6
VERDECKT
 62
     1
 10
50.3875793553183087
 20
1.9999999999999629
 30
-0.0000000000000004
 11
50.9999999999998579
 21
8.9999999999998508
 31
-0.000000000000002
210
0.0000000000000002
220
1.0
230
-0.0000000000000002
  0
LINE
  5
39DF
  8
0
  6
VERDECKT
 62
     1
 10
-50.9999999999998295
 20
8.9999999999998703
 30
-0.000000000000002
 11
-50.999999999999801
 21
114.6152236891494027
 31
-0.0000000000000254
210
0.0000000000000002
220
1.0
230
-0.0000000000000002
  0
LINE
  5
39E0
  8
0
  6
VERDECKT
 62
     1
 10
50.9999999999998295
 20
8.999999999999849
 30
-0.000000000000002
 11
50.9999999999998579
 21
114.6152236891494027
 31
-0.0000000000000254
210
0.0000000000000002
220
1.0
230
-0.0000000000000002
  0
ARC
  5
39E1
  8
0
  6
VERDECKT
 62
     1
 10
-62.9999999999999787
 20
114.6152236891494027
 30
0.0
 40
12.0000000000001794
210
0.0
220
-0.0000000000000002
230
-1.0
 50
0.0000000000002926
 51
44.9999999999992184
  0
ARC
  5
39E2
  8
0
  6
VERDECKT
 62
     1
 10
62.9999999999999076
 20
114.6152236891494027
 30
0.0
 40
12.0000000000001705
210
0.0
220
-0.0000000000000002
230
-1.0
 50
135.0000000000007105
 51
179.9999999999996874
  0
LINE
  5
39E3
  8
0
  6
VERDECKT
 62
     1
 10
-54.5147186257610983
 20
123.1005050633879989
 30
-0.0000000000000273
 11
-69.9999999999995168
 21
138.5857864376270072
 31
-0.0000000000000308
210
0.0000000000000002
220
1.0
230
-0.0000000000000002
  0
LINE
  5
39E4
  8
0
  6
VERDECKT
 62
     1
 10
54.5147186257611622
 20
123.1005050633878994
 30
-0.0000000000000273
 11
69.9999999999995737
 21
138.5857864376268935
 31
-0.0000000000000308
210
0.0000000000000002
220
1.0
230
-0.0000000000000002
  0
LINE
  5
39E5
  8
0
  6
VERDECKT
 62
     1
 10
68.5857864376268083
 20
139.9999999999996874
 30
-0.0000000000000311
 11
69.9999999999995737
 21
138.5857864376268935
 31
-0.0000000000000308
210
0.0000000000000002
220
1.0
230
-0.0000000000000002
  0
LINE
  5
39E6
  8
0
  6
VERDECKT
 62
     1
 10
-68.5857864376267514
 20
139.9999999999996874
 30
-0.0000000000000311
 11
-69.9999999999995168
 21
138.5857864376270072
 31
-0.0000000000000308
210
0.0000000000000002
220
1.0
230
-0.0000000000000002
  0
LINE
  5
39E7
  8
0
  6
VERDECKT
 62
     1
 10
-53.1005050633879989
 20
124.5147186257610059
 30
-0.0000000000000276
 11
-68.5857864376267514
 21
139.9999999999996874
 31
-0.0000000000000311
210
0.0000000000000002
220
1.0
230
-0.0000000000000002
  0
LINE
  5
39E8
  8
0
  6
VERDECKT
 62
     1
 10
53.1005050633880487
 20
124.5147186257609064
 30
-0.0000000000000276
 11
68.5857864376268083
 21
139.9999999999996874
 31
-0.0000000000000311
210
0.0000000000000002
220
1.0
230
-0.0000000000000002
  0
ARC
  5
39E9
  8
0
  6
VERDECKT
 62
     1
 10
-62.9999999999995026
 20
114.6152236891493033
 30
0.0
 40
13.9999999999998099
210
0.0
220
-0.0000000000000002
230
-1.0
 50
359.9999999999992042
 51
45.0000000000005471
  0
ARC
  5
39EA
  8
0
  6
VERDECKT
 62
     1
 10
62.9999999999995026
 20
114.6152236891493033
 30
0.0
 40
13.9999999999998703
210
0.0
220
-0.0000000000000002
230
-1.0
 50
134.9999999999994884
 51
180.0000000000005969
  0
LINE
  5
39EB
  8
0
  6
VERDECKT
 62
     1
 10
-48.9999999999997726
 20
9.0873218858168752
 30
-0.000000000000002
 11
-48.9999999999997371
 21
114.6152236891492038
 31
-0.0000000000000254
210
0.0000000000000002
220
1.0
230
-0.0000000000000002
  0
LINE
  5
39EC
  8
0
  6
VERDECKT
 62
     1
 10
48.9999999999997726
 20
9.0873218858168539
 30
-0.000000000000002
 11
48.999999999999801
 21
114.6152236891491043
 31
-0.0000000000000254
210
0.0000000000000002
220
1.0
230
-0.0000000000000002
  0
LINE
  5
39ED
  8
0
  6
VERDECKT
 62
     1
 10
-48.3799396802317005
 20
1.999999999999982
 30
-0.0000000000000004
 11
-49.0
 21
9.0873218858168752
 31
-0.000000000000002
210
0.0000000000000002
220
1.0
230
-0.0000000000000002
  0
LINE
  5
39EE
  8
0
  6
VERDECKT
 62
     1
 10
48.3799396802317005
 20
1.99999999999996
 30
-0.0000000000000004
 11
49.0
 21
9.0873218858168539
 31
-0.000000000000002
210
0.0000000000000002
220
1.0
230
-0.0000000000000002
  0
LINE
  5
39EF
  8
0
  6
VERDECKT
 62
     1
 10
-67.4999999999999574
 20
183.0
 30
-0.0000000000000399
 11
-67.4999999999999574
 21
190.0
 31
-0.0000000000000414
210
0.0000000000000002
220
1.0
230
-0.0000000000000002
  0
LINE
  5
39F0
  8
0
  6
VERDECKT
 62
     1
 10
-67.4999999999997868
 20
183.0
 30
-0.0000000000000399
 11
-69.9999999999998437
 21
183.0
 31
-0.0000000000000406
210
0.0000000000000002
220
1.0
230
-0.0000000000000002
  0
LINE
  5
39F1
  8
0
  6
VERDECKT
 62
     1
 10
-69.9999999999998437
 20
190.0
 30
-0.0000000000000422
 11
-67.4999999999997868
 21
190.0
 31
-0.0000000000000414
210
0.0000000000000002
220
1.0
230
-0.0000000000000002
  0
LINE
  5
39F2
  8
0
  6
VERDECKT
 62
     1
 10
-17.6934592766692198
 20
183.0
 30
-0.0000000000000367
 11
-17.6934592766692091
 21
190.0
 31
-0.0000000000000383
210
0.0000000000000002
220
1.0
230
-0.0000000000000002
  0
LINE
  5
39F3
  8
0
  6
VERDECKT
 62
     1
 10
-49.8065407233304427
 20
190.0
 30
-0.0000000000000453
 11
-49.8065407233304427
 21
183.0
 31
-0.0000000000000438
210
0.0000000000000002
220
1.0
230
-0.0000000000000002
  0
LINE
  5
39F4
  8
0
  6
VERDECKT
 62
     1
 10
-17.6934592766683103
 20
183.0
 30
-0.0000000000000367
 11
-18.65412896172149
 21
183.0
 31
-0.0000000000000365
210
0.0000000000000002
220
1.0
230
-0.0000000000000002
  0
LINE
  5
39F5
  8
0
  6
VERDECKT
 62
     1
 10
-18.65412896172149
 20
190.0
 30
-0.000000000000038
 11
-17.6934592766683103
 21
190.0
 31
-0.0000000000000383
210
0.0000000000000002
220
1.0
230
-0.0000000000000002
  0
LINE
  5
39F6
  8
0
  6
VERDECKT
 62
     1
 10
67.5000000000001563
 20
190.0
 30
-0.000000000000043
 11
67.5000000000001563
 21
182.9999999999998863
 31
-0.0000000000000414
210
0.0000000000000002
220
1.0
230
-0.0000000000000002
  0
LINE
  5
39F7
  8
0
  6
VERDECKT
 62
     1
 10
70.0000000000001421
 20
182.9999999999998863
 30
-0.0000000000000406
 11
67.50000000000027
 21
182.9999999999998863
 31
-0.0000000000000414
210
0.0000000000000002
220
1.0
230
-0.0000000000000002
  0
LINE
  5
39F8
  8
0
  6
VERDECKT
 62
     1
 10
67.50000000000027
 20
190.0
 30
-0.000000000000043
 11
70.0000000000001563
 21
190.0
 31
-0.0000000000000422
210
0.0000000000000002
220
1.0
230
-0.0000000000000002
  0
LINE
  5
39F9
  8
0
  6
VERDECKT
 62
     1
 10
-68.9529485230723509
 20
118.4399999999998983
 30
-0.0000000000000263
 11
-69.4989038744716368
 21
119.9399999999998983
 31
-0.0000000000000266
210
0.0000000000000002
220
1.0
230
-0.0000000000000002
  0
LINE
  5
39FA
  8
0
  6
VERDECKT
 62
     1
 10
68.9529485230724077
 20
118.4399999999998983
 30
-0.0000000000000263
 11
69.4989038744716936
 21
119.9399999999998983
 31
-0.0000000000000266
210
0.0000000000000002
220
1.0
230
-0.0000000000000002
  0
LINE
  5
39FB
  8
0
  6
VERDECKT
 62
     1
 10
-69.9999999999998437
 20
130.6540215684200064
 30
-0.000000000000029
 11
-69.9999999999998437
 21
183.0
 31
-0.0000000000000406
210
0.0000000000000002
220
1.0
230
-0.0000000000000002
  0
LINE
  5
39FC
  8
0
  6
VERDECKT
 62
     1
 10
-69.9999999999998437
 20
190.0
 30
-0.0000000000000422
 11
-69.9999999999998437
 21
200.0
 31
-0.0000000000000444
210
0.0000000000000002
220
1.0
230
-0.0000000000000002
  0
LINE
  5
39FD
  8
0
  6
VERDECKT
 62
     1
 10
69.9999999999999147
 20
130.6540215684198927
 30
-0.000000000000029
 11
69.9999999999999147
 21
182.9999999999998863
 31
-0.0000000000000406
210
0.0000000000000002
220
1.0
230
-0.0000000000000002
  0
LINE
  5
39FE
  8
0
  6
VERDECKT
 62
     1
 10
69.9999999999999147
 20
190.0
 30
-0.0000000000000422
 11
69.9999999999999147
 21
200.0
 31
-0.0000000000000444
210
0.0000000000000002
220
1.0
230
-0.0000000000000002
  0
ARC
  5
39FF
  8
0
  6
VERDECKT
 62
     1
 10
-58.5000000000009734
 20
130.6540215684198074
 30
0.0
 40
11.4999999999989502
210
0.0
220
-0.0000000000000002
230
-1.0
 50
179.9999999999990052
 51
200.0000000000003126
  0
ARC
  5
3A00
  8
0
  6
VERDECKT
 62
     1
 10
58.5000000000009095
 20
130.6540215684198074
 30
0.0
 40
11.4999999999989502
210
0.0
220
-0.0000000000000002
230
-1.0
 50
339.9999999999994884
 51
0.0000000000010051
  0
LINE
  5
3A01
  8
0
  6
VERDECKT
 62
     1
 10
-64.9950717570323633
 20
114.8753339567289942
 30
-0.0000000000000255
 11
-69.3064651390378259
 21
126.7207899201748944
 31
-0.0000000000000281
210
0.0000000000000002
220
1.0
230
-0.0000000000000002
  0
LINE
  5
3A02
  8
0
  6
VERDECKT
 62
     1
 10
64.9950717570324201
 20
114.8753339567288947
 30
-0.0000000000000255
 11
69.3064651390378828
 21
126.7207899201747949
 31
-0.0000000000000281
210
0.0000000000000002
220
1.0
230
-0.0000000000000002
  0
ARC
  5
3A03
  8
0
  6
VERDECKT
 62
     1
 10
-80.4999999999977547
 20
109.2320015918559051
 30
0.0
 40
16.4999999999978009
210
0.0
220
-0.0000000000000002
230
-1.0
 50
359.9999999999977831
 51
20.0000000000009415
  0
ARC
  5
3A04
  8
0
  6
VERDECKT
 62
     1
 10
80.4999999999975273
 20
109.2320015918560046
 30
0.0
 40
16.4999999999976303
210
0.0
220
-0.0000000000000002
230
-1.0
 50
159.9999999999988916
 51
180.0000000000019895
  0
LINE
  5
3A05
  8
0
  6
VERDECKT
 62
     1
 10
-63.9999999999998721
 20
38.0746583758282711
 30
-0.0000000000000085
 11
-63.9999999999998721
 21
109.232001591855294
 31
-0.0000000000000243
210
0.0000000000000002
220
1.0
230
-0.0000000000000002
  0
LINE
  5
3A06
  8
0
  6
VERDECKT
 62
     1
 10
63.9999999999998934
 20
38.0746583758282426
 30
-0.0000000000000085
 11
63.9999999999999076
 21
109.232001591855294
 31
-0.0000000000000243
210
0.0000000000000002
220
1.0
230
-0.0000000000000002
  0
ARC
  5
3A07
  8
0
  6
VERDECKT
 62
     1
 10
-77.99999999999892
 20
38.0746583758280508
 30
0.0
 40
13.9999999999990195
210
0.0
220
-0.0000000000000002
230
-1.0
 50
339.9999999999994884
 51
0.0000000000008015
  0
ARC
  5
3A08
  8
0
  6
VERDECKT
 62
     1
 10
77.9999999999988631
 20
38.0746583758280934
 30
0.0
 40
13.9999999999989999
210
0.0
220
-0.0000000000000002
230
-1.0
 50
179.9999999999992042
 51
200.0000000000005116
  0
LINE
  5
3A09
  8
0
  6
VERDECKT
 62
     1
 10
64.8443033089971408
 20
33.2863763692688934
 30
-0.0000000000000074
 11
70.655696691002646
 21
17.319704276640671
 31
-0.0000000000000038
210
0.0000000000000002
220
1.0
230
-0.0000000000000002
  0
LINE
  5
3A0A
  8
0
  6
VERDECKT
 62
     1
 10
-64.8443033089971124
 20
33.2863763692689218
 30
-0.0000000000000074
 11
-70.655696691002646
 21
17.3197042766406994
 31
-0.0000000000000038
210
0.0000000000000002
220
1.0
230
-0.0000000000000002
  0
ARC
  5
3A0B
  8
0
  6
VERDECKT
 62
     1
 10
-57.5000000000014566
 20
12.5314222700816202
 30
0.0
 40
13.9999999999984794
210
0.0
220
-0.0000000000000002
230
-1.0
 50
159.9999999999990052
 51
180.0000000000007958
  0
ARC
  5
3A0C
  8
0
  6
VERDECKT
 62
     1
 10
57.5000000000014282
 20
12.5314222700816398
 30
0.0
 40
13.9999999999985096
210
0.0
220
-0.0000000000000002
230
-1.0
 50
359.9999999999992042
 51
20.0000000000009415
  0
LINE
  5
3A0D
  8
0
  6
VERDECKT
 62
     1
 10
-71.4999999999999432
 20
0.0000000000000159
 30
0.0
 11
-71.4999999999999432
 21
12.5314222700814497
 31
-0.0000000000000028
210
0.0000000000000002
220
1.0
230
-0.0000000000000002
  0
LINE
  5
3A0E
  8
0
  6
VERDECKT
 62
     1
 10
71.4999999999999432
 20
-0.0000000000000159
 30
0.0
 11
71.4999999999999432
 21
12.5314222700814195
 31
-0.0000000000000028
210
0.0000000000000002
220
1.0
230
-0.0000000000000002
  0
ENDBLK
  5
3A10
  8
0
  0
BLOCK
  8
0
  2
A$C329517A8
 70
     0
 10
0.0
 20
0.0
 30
0.0
  3
A$C329517A8
  1

  0
LINE
  5
3A14
  8
0
  6
AUSGEZOGEN
 62
     3
 10
60.0930947347132687
 20
-44.5342210131218721
 30
0.0000000000000142
 11
61.6374474075945216
 21
-54.2848800407182281
 31
0.0000000000000146
  0
ARC
  5
3A15
  8
0
  6
AUSGEZOGEN
 62
     3
 10
61.0807830753084033
 20
-44.3777865480816729
 30
0.0000000000000142
 40
0.9999999999999861
 50
98.999999999998721
 51
188.9999999999986073
  0
LINE
  5
3A16
  8
0
  6
AUSGEZOGEN
 62
     3
 10
70.6750076378644678
 20
-41.8457455346053209
 30
0.0000000000000142
 11
60.924348610268197
 21
-43.3900982074865382
 31
0.000000000000012
  0
ARC
  5
3A17
  8
0
  6
AUSGEZOGEN
 62
     3
 10
70.5185731728243752
 20
-40.8580571940103425
 30
0.0000000000000142
 40
0.9999999999998159
 50
278.9999999999935199
 51
329.9122432942409091
  0
ARC
  5
3A18
  8
0
  6
AUSGEZOGEN
 62
     3
 10
-0.0000000000185612
 20
0.0000000000104308
 30
0.0
 40
82.5000000000211173
 50
329.9122432942377827
 51
336.0877567057607962
  0
ARC
  5
3A19
  8
0
  6
AUSGEZOGEN
 62
     3
 10
74.5046399507920967
 20
-33.0349606599267318
 30
0.0000000000000142
 40
0.9999999999994956
 50
336.0877567057518149
 51
27.0000000000165414
  0
LINE
  5
3A1A
  8
0
  6
AUSGEZOGEN
 62
     3
 10
70.9137604560955594
 20
-23.7847735750479785
 30
0.0000000000000142
 11
75.395646474979884
 21
-32.5809701601871495
 31
0.0000000000000152
  0
ARC
  5
3A1B
  8
0
  6
AUSGEZOGEN
 62
     3
 10
71.8047669802839152
 20
-23.3307830753084602
 30
0.0000000000000142
 40
1.0000000000000011
 50
117.0000000000017053
 51
206.9999999999988063
  0
LINE
  5
3A1C
  8
0
  6
AUSGEZOGEN
 62
     3
 10
80.1469730656833548
 20
-17.9578905322358402
 30
0.0000000000000142
 11
71.3507764805443401
 21
-22.4397765511201008
 31
0.0000000000000123
  0
ARC
  5
3A1D
  8
0
  6
AUSGEZOGEN
 62
     3
 10
79.6929825659442201
 20
-17.0668840080477402
 30
0.0000000000000142
 40
0.9999999999995425
 50
296.9999999999866986
 51
347.9122432942501177
  0
ARC
  5
3A1E
  8
0
  6
AUSGEZOGEN
 62
     3
 10
-0.0000000000727329
 20
0.0000000000101466
 30
0.0
 40
82.5000000000731575
 50
347.9122432942414207
 51
354.087756705760512
  0
ARC
  5
3A1F
  8
0
  6
AUSGEZOGEN
 62
     3
 10
81.0664875718490237
 20
-8.3949146965960022
 30
0.0000000000000142
 40
1.00000000000051
 50
354.0877567057690953
 51
44.999999999973511
  0
LINE
  5
3A20
  8
0
  6
AUSGEZOGEN
 62
     3
 10
74.7928932188133047
 20
-0.7071067811864964
 30
0.0000000000000142
 11
81.773594353036259
 21
-7.6878079154094223
 31
0.0000000000000158
  0
ARC
  5
3A21
  8
0
  6
AUSGEZOGEN
 62
     3
 10
75.4999999999999716
 20
0.0000000000000568
 30
0.0000000000000142
 40
1.0000000000000879
 50
135.0000000000046043
 51
224.9999999999953957
  0
LINE
  5
3A22
  8
0
  6
AUSGEZOGEN
 62
     3
 10
81.773594353036259
 20
7.6878079154094223
 30
0.0000000000000142
 11
74.7928932188133047
 21
0.7071067811866101
 31
0.0000000000000127
  0
ARC
  5
3A23
  8
0
  6
AUSGEZOGEN
 62
     3
 10
81.0664875718497058
 20
8.3949146965959187
 30
0.0000000000000142
 40
0.9999999999999893
 50
315.0000000000011937
 51
5.9122432942406729
  0
ARC
  5
3A24
  8
0
  6
AUSGEZOGEN
 62
     3
 10
-0.0000000000323741
 20
-0.0000000000046896
 30
0.0
 40
82.5000000000325855
 50
5.912243294238638
 51
12.0877567057607997
  0
ARC
  5
3A25
  8
0
  6
AUSGEZOGEN
 62
     3
 10
79.6929825659435238
 20
17.0668840080471398
 30
0.0000000000000142
 40
1.000000000000459
 50
12.0877567057770303
 51
62.9999999999969873
  0
LINE
  5
3A26
  8
0
  6
AUSGEZOGEN
 62
     3
 10
71.3507764805444538
 20
22.4397765511202216
 30
0.0000000000000142
 11
80.1469730656833548
 21
17.9578905322358899
 31
0.0000000000000162
  0
ARC
  5
3A27
  8
0
  6
AUSGEZOGEN
 62
     3
 10
71.8047669802841426
 20
23.330783075308581
 30
0.0000000000000142
 40
1.0000000000000899
 50
153.0000000000025864
 51
242.9999999999924114
  0
LINE
  5
3A28
  8
0
  6
AUSGEZOGEN
 62
     3
 10
75.395646474979884
 20
32.5809701601871495
 30
0.0000000000000142
 11
70.9137604560956731
 21
23.7847735750481206
 31
0.0000000000000132
  0
ARC
  5
3A29
  8
0
  6
AUSGEZOGEN
 62
     3
 10
74.5046399507910735
 20
33.0349606599267531
 30
0.0000000000000142
 40
1.000000000000411
 50
333.000000000008697
 51
23.9122432942230212
  0
ARC
  5
3A2A
  8
0
  6
AUSGEZOGEN
 62
     3
 10
-0.0000000000260645
 20
-0.0000000000132445
 30
0.0
 40
82.5000000000291038
 50
23.9122432942388201
 51
30.0877567057613113
  0
ARC
  5
3A2B
  8
0
  6
AUSGEZOGEN
 62
     3
 10
70.5185731728243752
 20
40.8580571940104278
 30
0.0000000000000142
 40
0.9999999999997999
 50
30.0877567057605688
 51
81.0000000000062101
  0
LINE
  5
3A2C
  8
0
  6
AUSGEZOGEN
 62
     3
 10
60.924348610268197
 20
43.390098207486659
 30
0.0000000000000142
 11
70.6750076378644678
 21
41.8457455346053777
 31
0.0000000000000164
  0
ARC
  5
3A2D
  8
0
  6
AUSGEZOGEN
 62
     3
 10
61.0807830753084033
 20
44.3777865480817866
 30
0.0000000000000142
 40
0.9999999999999907
 50
170.9999999999996874
 51
261.0000000000013074
  0
LINE
  5
3A2E
  8
0
  6
AUSGEZOGEN
 62
     3
 10
61.6374474075945216
 20
54.2848800407182921
 30
0.0000000000000142
 11
60.0930947347132687
 21
44.5342210131220071
 31
0.0000000000000139
  0
ARC
  5
3A2F
  8
0
  6
AUSGEZOGEN
 62
     3
 10
60.6497590669989393
 20
54.4413145057583492
 30
0.0000000000000142
 40
1.0000000000004039
 50
351.000000000013415
 51
41.9122432942296825
  0
ARC
  5
3A30
  8
0
  6
AUSGEZOGEN
 62
     3
 10
-0.0000000000499956
 20
-0.0000000000495106
 30
0.0
 40
82.5000000000701732
 50
41.912243294240163
 51
48.0877567057596309
  0
ARC
  5
3A31
  8
0
  6
AUSGEZOGEN
 62
     3
 10
54.4413145057584202
 20
60.6497590669998203
 30
0.0000000000000142
 40
0.999999999999723
 50
48.0877567057597375
 51
99.0000000000076881
  0
LINE
  5
3A32
  8
0
  6
AUSGEZOGEN
 62
     3
 10
44.5342210131217016
 20
60.0930947347134676
 30
0.0000000000000142
 11
54.2848800407180931
 21
61.6374474075946566
 31
0.0000000000000164
  0
ARC
  5
3A33
  8
0
  6
AUSGEZOGEN
 62
     3
 10
44.3777865480815024
 20
61.0807830753084886
 30
0.0000000000000142
 40
0.9999999999999682
 50
188.9999999999922125
 51
278.99999999999892
  0
LINE
  5
3A34
  8
0
  6
AUSGEZOGEN
 62
     3
 10
41.8457455346052427
 20
70.6750076378647094
 30
0.0000000000000142
 11
43.3900982074863677
 21
60.9243486102683889
 31
0.0000000000000146
  0
ARC
  5
3A35
  8
0
  6
AUSGEZOGEN
 62
     3
 10
40.858057194010108
 20
70.5185731728243894
 30
0.0000000000000142
 40
1.0000000000000451
 50
9.000000000005139
 51
59.9122432942409304
  0
ARC
  5
3A36
  8
0
  6
AUSGEZOGEN
 62
     3
 10
-0.0000000000070788
 20
-0.0000000000129035
 30
0.0
 40
82.500000000014694
 50
59.9122432942380172
 51
66.0877567057614641
  0
ARC
  5
3A37
  8
0
  6
AUSGEZOGEN
 62
     3
 10
33.0349606599265613
 20
74.5046399507921393
 30
0.0000000000000142
 40
0.9999999999996223
 50
66.0877567057496123
 51
117.000000000012804
  0
LINE
  5
3A38
  8
0
  6
AUSGEZOGEN
 62
     3
 10
23.7847735750479714
 20
70.9137604560957868
 30
0.0
 11
32.580970160186979
 21
75.3956464749800688
 31
0.000000000000002
  0
ARC
  5
3A39
  8
0
  6
AUSGEZOGEN
 62
     3
 10
23.3307830753082897
 20
71.8047669802839721
 30
0.0
 40
0.9999999999998042
 50
206.9999999999938041
 51
297.000000000014893
  0
LINE
  5
3A3A
  8
0
  6
AUSGEZOGEN
 62
     3
 10
17.9578905322357194
 20
80.1469730656835537
 30
0.0
 11
22.4397765511200404
 21
71.3507764805446101
 31
0.000000000000001
  0
ARC
  5
3A3B
  8
0
  6
AUSGEZOGEN
 62
     3
 10
17.0668840080473601
 20
79.6929825659439643
 30
0.0
 40
1.000000000000052
 50
27.0000000000039186
 51
77.9122432942379959
  0
ARC
  5
3A3C
  8
0
  6
AUSGEZOGEN
 62
     3
 10
-0.0000000000036113
 20
-0.0000000000211173
 30
0.0
 40
82.5000000000214158
 50
77.9122432942383938
 51
84.0877567057614641
  0
ARC
  5
3A3D
  8
0
  6
AUSGEZOGEN
 62
     3
 10
8.3949146965955759
 20
81.0664875718499758
 30
0.0
 40
0.999999999999807
 50
84.0877567057503654
 51
135.0000000000023022
  0
LINE
  5
3A3E
  8
0
  6
AUSGEZOGEN
 62
     3
 10
0.7071067811864093
 20
74.7928932188135036
 30
0.0
 11
7.6878079154091363
 21
81.7735943530363727
 31
0.0000000000000016
  0
ARC
  5
3A3F
  8
0
  6
AUSGEZOGEN
 62
     3
 10
-0.0000000000001439
 20
75.5000000000000995
 30
0.0
 40
1.0000000000000271
 50
225.0000000000011084
 51
314.9999999999988063
  0
LINE
  5
3A40
  8
0
  6
AUSGEZOGEN
 62
     3
 10
-7.6878079154095369
 20
81.7735943530364153
 30
0.0
 11
-0.7071067811866972
 21
74.7928932188135178
 31
0.0000000000000016
  0
ARC
  5
3A41
  8
0
  6
AUSGEZOGEN
 62
     3
 10
-8.3949146965962615
 20
81.0664875718494642
 30
0.0
 40
1.0000000000003439
 50
45.000000000007482
 51
95.9122432942238277
  0
ARC
  5
3A42
  8
0
  6
AUSGEZOGEN
 62
     3
 10
-0.0000000000002007
 20
-0.0000000000019327
 30
0.0
 40
82.5000000000019469
 50
95.9122432942374559
 51
102.0877567057620041
  0
ARC
  5
3A43
  8
0
  6
AUSGEZOGEN
 62
     3
 10
-17.0668840080477686
 20
79.6929825659441917
 30
0.0
 40
0.999999999999817
 50
102.0877567057581956
 51
153.0000000000046896
  0
LINE
  5
3A44
  8
0
  6
AUSGEZOGEN
 62
     3
 10
-22.4397765511203389
 20
71.3507764805446101
 30
0.0
 11
-17.9578905322360107
 21
80.1469730656835821
 31
0.000000000000001
  0
ARC
  5
3A45
  8
0
  6
AUSGEZOGEN
 62
     3
 10
-23.3307830753086911
 20
71.8047669802841
 30
0.0
 40
0.9999999999999126
 50
243.000000000002899
 51
333.0000000000018758
  0
LINE
  5
3A46
  8
0
  6
AUSGEZOGEN
 62
     3
 10
-32.5809701601871495
 20
75.395646474980083
 30
-0.0000000000000142
 11
-23.784773575048149
 21
70.9137604560957868
 31
-0.0000000000000123
  0
ARC
  5
3A47
  8
0
  6
AUSGEZOGEN
 62
     3
 10
-33.0349606599266679
 20
74.5046399507914003
 30
-0.0000000000000142
 40
1.0000000000003011
 50
63.0000000000070983
 51
113.9122432942328942
  0
ARC
  5
3A48
  8
0
  6
AUSGEZOGEN
 62
     3
 10
0.0000000000037215
 20
-0.0000000000079012
 30
0.0
 40
82.5000000000088392
 50
113.9122432942378964
 51
120.0877567057618052
  0
ARC
  5
3A49
  8
0
  6
AUSGEZOGEN
 62
     3
 10
-40.8580571940103425
 20
70.5185731728245031
 30
-0.0000000000000142
 40
0.9999999999999818
 50
120.0877567057647042
 51
171.000000000002899
  0
LINE
  5
3A4A
  8
0
  6
AUSGEZOGEN
 62
     3
 10
-43.390098207486659
 20
60.9243486102683391
 30
-0.0000000000000142
 11
-41.8457455346054701
 21
70.6750076378646952
 31
-0.0000000000000139
  0
ARC
  5
3A4B
  8
0
  6
AUSGEZOGEN
 62
     3
 10
-44.3777865480818434
 20
61.0807830753087373
 30
-0.0000000000000142
 40
1.000000000000135
 50
260.9999999999993179
 51
350.9999999999910187
  0
LINE
  5
3A4C
  8
0
  6
AUSGEZOGEN
 62
     3
 10
-54.2848800407183703
 20
61.6374474075946566
 30
-0.0000000000000142
 11
-44.5342210131220995
 21
60.0930947347134676
 31
-0.000000000000012
  0
ARC
  5
3A4D
  8
0
  6
AUSGEZOGEN
 62
     3
 10
-54.4413145057586974
 20
60.6497590669996214
 30
-0.0000000000000142
 40
0.9999999999999122
 50
80.9999999999940883
 51
131.912243294239687
  0
ARC
  5
3A4E
  8
0
  6
AUSGEZOGEN
 62
     3
 10
-0.0000000000109441
 20
0.0000000000110845
 30
0.0
 40
82.499999999984567
 50
131.9122432942371859
 51
138.0877567057630131
  0
ARC
  5
3A4F
  8
0
  6
AUSGEZOGEN
 62
     3
 10
-60.6497590669995077
 20
54.4413145057585623
 30
-0.0000000000000142
 40
1.0000000000000979
 50
138.0877567057655142
 51
188.9999999999976978
  0
LINE
  5
3A50
  8
0
  6
AUSGEZOGEN
 62
     3
 10
-60.09309473471356
 20
44.5342210131219929
 30
-0.0000000000000142
 11
-61.6374474075947489
 21
54.2848800407183489
 31
-0.0000000000000146
  0
ARC
  5
3A51
  8
0
  6
AUSGEZOGEN
 62
     3
 10
-61.0807830753087373
 20
44.3777865480817866
 30
-0.0000000000000142
 40
1.0000000000000231
 50
279.0000000000017053
 51
8.9999999999981881
  0
LINE
  5
3A52
  8
0
  6
AUSGEZOGEN
 62
     3
 10
-70.6750076378648089
 20
41.8457455346053777
 30
-0.0000000000000142
 11
-60.9243486102684813
 21
43.3900982074866306
 31
-0.000000000000012
  0
ARC
  5
3A53
  8
0
  6
AUSGEZOGEN
 62
     3
 10
-70.518573172824432
 20
40.8580571940100583
 30
-0.0000000000000142
 40
1.000000000000183
 50
99.000000000006537
 51
149.9122432942303931
  0
ARC
  5
3A54
  8
0
  6
AUSGEZOGEN
 62
     3
 10
0.0000000000206039
 20
-0.0000000000109992
 30
0.0
 40
82.5000000000234763
 50
149.912243294238209
 51
156.0877567057611088
  0
ARC
  5
3A55
  8
0
  6
AUSGEZOGEN
 62
     3
 10
-74.5046399507917556
 20
33.0349606599267318
 30
-0.0000000000000142
 40
1.0000000000000651
 50
156.08775670576631
 51
207.0000000000017053
  0
LINE
  5
3A56
  8
0
  6
AUSGEZOGEN
 62
     3
 10
-70.9137604560958437
 20
23.784773575048149
 30
-0.0000000000000142
 11
-75.3956464749801683
 21
32.5809701601871211
 31
-0.0000000000000152
  0
ARC
  5
3A57
  8
0
  6
AUSGEZOGEN
 62
     3
 10
-71.8047669802839152
 20
23.3307830753084886
 30
-0.0000000000000142
 40
0.9999999999997718
 50
296.9999999999902229
 51
27.0000000000135216
  0
LINE
  5
3A58
  8
0
  6
AUSGEZOGEN
 62
     3
 10
-80.1469730656836248
 20
17.9578905322359184
 30
-0.0000000000000142
 11
-71.3507764805446243
 21
22.43977655112025
 31
-0.0000000000000123
  0
ARC
  5
3A59
  8
0
  6
AUSGEZOGEN
 62
     3
 10
-79.6929825659443338
 20
17.0668840080477118
 30
-0.0000000000000142
 40
0.999999999999745
 50
116.9999999999909051
 51
167.9122432942425007
  0
ARC
  5
3A5A
  8
0
  6
AUSGEZOGEN
 62
     3
 10
-0.0000000000241318
 20
0.0000000000038085
 30
0.0
 40
82.4999999999757279
 50
167.9122432942367027
 51
174.087756705763212
  0
ARC
  5
3A5B
  8
0
  6
AUSGEZOGEN
 62
     3
 10
-81.0664875718502174
 20
8.3949146965958334
 30
-0.0000000000000142
 40
0.9999999999997266
 50
174.0877567057511044
 51
225.0000000000023022
  0
LINE
  5
3A5C
  8
0
  6
AUSGEZOGEN
 62
     3
 10
-74.7928932188135889
 20
0.7071067811866385
 30
-0.0000000000000142
 11
-81.7735943530365432
 21
7.6878079154094499
 31
-0.0000000000000158
  0
ARC
  5
3A5D
  8
0
  6
AUSGEZOGEN
 62
     3
 10
-75.5000000000001421
 20
0.0000000000000853
 30
-0.0000000000000142
 40
1.0000000000000071
 50
315.0
 51
44.9999999999999929
  0
LINE
  5
3A5E
  8
0
  6
AUSGEZOGEN
 62
     3
 10
-81.7735943530364153
 20
-7.6878079154093371
 30
-0.0000000000000142
 11
-74.7928932188135889
 21
-0.707106781186468
 31
-0.0000000000000127
  0
ARC
  5
3A5F
  8
0
  6
AUSGEZOGEN
 62
     3
 10
-81.0664875718495921
 20
-8.3949146965960324
 30
-0.0000000000000142
 40
1.0000000000003071
 50
135.0000000000057128
 51
185.9122432942272951
  0
ARC
  5
3A60
  8
0
  6
AUSGEZOGEN
 62
     3
 10
-0.0000000000050893
 20
-0.0000000000011937
 30
0.0
 40
82.4999999999949267
 50
185.9122432942371006
 51
192.0877567057621036
  0
ARC
  5
3A61
  8
0
  6
AUSGEZOGEN
 62
     3
 10
-79.6929825659441633
 20
-17.0668840080473885
 30
-0.0000000000000142
 40
1.0000000000000011
 50
192.0877567057657984
 51
243.0000000000055991
  0
LINE
  5
3A62
  8
0
  6
AUSGEZOGEN
 62
     3
 10
-71.3507764805447238
 20
-22.4397765511200795
 30
-0.0000000000000142
 11
-80.1469730656836248
 21
-17.9578905322358118
 31
-0.0000000000000162
  0
ARC
  5
3A63
  8
0
  6
AUSGEZOGEN
 62
     3
 10
-71.8047669802843131
 20
-23.3307830753084602
 30
-0.0000000000000142
 40
1.0000000000000391
 50
333.0000000000011937
 51
62.9999999999989768
  0
LINE
  5
3A64
  8
0
  6
AUSGEZOGEN
 62
     3
 10
-75.3956464749801683
 20
-32.5809701601870074
 30
-0.0000000000000142
 11
-70.9137604560959005
 21
-23.7847735750480105
 31
-0.0000000000000132
  0
ARC
  5
3A65
  8
0
  6
AUSGEZOGEN
 62
     3
 10
-74.5046399507919261
 20
-33.034960659926611
 30
-0.0000000000000142
 40
0.9999999999998916
 50
152.9999999999951967
 51
203.9122432942361911
  0
ARC
  5
3A66
  8
0
  6
AUSGEZOGEN
 62
     3
 10
0.0000000000258335
 20
0.0000000000133866
 30
0.0
 40
82.5000000000291607
 50
203.9122432942388059
 51
210.0877567057613078
  0
ARC
  5
3A67
  8
0
  6
AUSGEZOGEN
 62
     3
 10
-70.5185731728245457
 20
-40.8580571940102217
 30
-0.0000000000000142
 40
0.9999999999999299
 50
210.0877567057630984
 51
261.0000000000006821
  0
LINE
  5
3A68
  8
0
  6
AUSGEZOGEN
 62
     3
 10
-60.9243486102684813
 20
-43.3900982074865382
 30
-0.0000000000000142
 11
-70.675007637864752
 21
-41.8457455346052996
 31
-0.0000000000000164
  0
ARC
  5
3A69
  8
0
  6
AUSGEZOGEN
 62
     3
 10
-61.0807830753087373
 20
-44.3777865480817013
 30
-0.0000000000000142
 40
1.000000000000042
 50
351.000000000001819
 51
80.9999999999951541
  0
LINE
  5
3A6A
  8
0
  6
AUSGEZOGEN
 62
     3
 10
-61.6374474075947987
 20
-54.2848800407182281
 30
-0.0000000000000142
 11
-60.09309473471356
 21
-44.5342210131219076
 31
-0.0000000000000139
  0
ARC
  5
3A6B
  8
0
  6
AUSGEZOGEN
 62
     3
 10
-60.6497590669997422
 20
-54.4413145057584416
 30
-0.0000000000000142
 40
0.9999999999999291
 50
171.0000000000007958
 51
221.9122432942432113
  0
ARC
  5
3A6C
  8
0
  6
AUSGEZOGEN
 62
     3
 10
0.000000000022025
 20
0.0000000000227089
 30
0.0
 40
82.5000000000316476
 50
221.9122432942390901
 51
228.0877567057613078
  0
ARC
  5
3A6D
  8
0
  6
AUSGEZOGEN
 62
     3
 10
-54.44131450575847
 20
-60.6497590669988185
 30
-0.0000000000000142
 40
1.0000000000006051
 50
228.0877567057742965
 51
278.9999999999831743
  0
LINE
  5
3A6E
  8
0
  6
AUSGEZOGEN
 62
     3
 10
-44.5342210131220995
 20
-60.093094734713361
 30
-0.0000000000000142
 11
-54.2848800407184271
 21
-61.6374474075946068
 31
-0.0000000000000164
  0
ARC
  5
3A6F
  8
0
  6
AUSGEZOGEN
 62
     3
 10
-44.3777865480818434
 20
-61.0807830753084886
 30
-0.0000000000000142
 40
0.9999999999999299
 50
8.9999999999992113
 51
99.0000000000024301
  0
LINE
  5
3A70
  8
0
  6
AUSGEZOGEN
 62
     3
 10
-41.8457455346055198
 20
-70.6750076378646099
 30
-0.0000000000000142
 11
-43.3900982074867727
 21
-60.9243486102682823
 31
-0.0000000000000146
  0
ARC
  5
3A71
  8
0
  6
AUSGEZOGEN
 62
     3
 10
-40.8580571940105131
 20
-70.5185731728243468
 30
-0.0000000000000142
 40
0.9999999999999634
 50
189.0000000000023874
 51
239.9122432942457124
  0
ARC
  5
3A72
  8
0
  6
AUSGEZOGEN
 62
     3
 10
-0.0000000000102052
 20
-0.0000000000191278
 30
0.0
 40
82.4999999999783853
 50
239.9122432942371006
 51
246.087756705763212
  0
ARC
  5
3A73
  8
0
  6
AUSGEZOGEN
 62
     3
 10
-33.0349606599268384
 20
-74.5046399507908745
 30
-0.0000000000000142
 40
1.0000000000006091
 50
246.0877567057792987
 51
296.999999999984027
  0
LINE
  5
3A74
  8
0
  6
AUSGEZOGEN
 62
     3
 10
-23.7847735750482698
 20
-70.9137604560957016
 30
0.0
 11
-32.5809701601872703
 21
-75.3956464749799125
 31
-0.000000000000002
  0
ARC
  5
3A75
  8
0
  6
AUSGEZOGEN
 62
     3
 10
-23.3307830753086911
 20
-71.8047669802838868
 30
0.0
 40
0.9999999999999246
 50
26.9999999999930616
 51
117.0000000000047038
  0
LINE
  5
3A76
  8
0
  6
AUSGEZOGEN
 62
     3
 10
-17.9578905322360107
 20
-80.1469730656834969
 30
0.0
 11
-22.4397765511203389
 21
-71.3507764805444822
 31
-0.000000000000001
  0
ARC
  5
3A77
  8
0
  6
AUSGEZOGEN
 62
     3
 10
-17.0668840080477118
 20
-79.6929825659439643
 30
0.0
 40
0.9999999999999296
 50
207.0000000000003126
 51
257.9122432942397722
  0
ARC
  5
3A78
  8
0
  6
AUSGEZOGEN
 62
     3
 10
0.0000000000017888
 20
0.000000000011994
 30
0.0
 40
82.500000000012065
 50
257.9122432942380101
 51
264.0877567057618194
  0
ARC
  5
3A79
  8
0
  6
AUSGEZOGEN
 62
     3
 10
-8.394914696596091
 20
-81.0664875718497342
 30
0.0
 40
0.999999999999968
 50
264.0877567057610236
 51
314.9999999999977263
  0
LINE
  5
3A7A
  8
0
  6
AUSGEZOGEN
 62
     3
 10
-0.7071067811866972
 20
-74.7928932188133757
 30
0.0
 11
-7.6878079154095937
 21
-81.7735943530362732
 31
-0.0000000000000016
  0
ARC
  5
3A7B
  8
0
  6
AUSGEZOGEN
 62
     3
 10
-0.0000000000001439
 20
-75.4999999999999432
 30
0.0
 40
1.0000000000000071
 50
45.0
 51
135.0
  0
LINE
  5
3A7C
  8
0
  6
AUSGEZOGEN
 62
     3
 10
7.68780791540925
 20
-81.7735943530362732
 30
0.0
 11
0.7071067811864093
 21
-74.7928932188133757
 31
-0.0000000000000016
  0
ARC
  5
3A7D
  8
0
  6
AUSGEZOGEN
 62
     3
 10
8.3949146965954622
 20
-81.0664875718504589
 30
0.0
 40
0.9999999999992805
 50
224.9999999999861018
 51
275.9122432942596106
  0
ARC
  5
3A7E
  8
0
  6
AUSGEZOGEN
 62
     3
 10
0.0000000000008224
 20
-0.000000000002899
 30
0.0
 40
82.4999999999969447
 50
275.9122432942372143
 51
282.0877567057621036
  0
ARC
  5
3A7F
  8
0
  6
AUSGEZOGEN
 62
     3
 10
17.0668840080473601
 20
-79.6929825659438507
 30
0.0
 40
1.0000000000000271
 50
282.0877567057621036
 51
332.9999999999953957
  0
LINE
  5
3A80
  8
0
  6
AUSGEZOGEN
 62
     3
 10
22.4397765511200404
 20
-71.3507764805444822
 30
0.0
 11
17.9578905322357194
 21
-80.1469730656834969
 31
-0.000000000000001
  0
ARC
  5
3A81
  8
0
  6
AUSGEZOGEN
 62
     3
 10
23.3307830753083998
 20
-71.8047669802842847
 30
0.0
 40
1.0000000000002041
 50
63.0000000000041496
 51
152.9999999999866134
  0
LINE
  5
3A82
  8
0
  6
AUSGEZOGEN
 62
     3
 10
32.580970160186979
 20
-75.3956464749799551
 30
0.0000000000000142
 11
23.7847735750479785
 21
-70.9137604560957016
 31
0.0000000000000123
  0
ARC
  5
3A83
  8
0
  6
AUSGEZOGEN
 62
     3
 10
33.0349606599265613
 20
-74.5046399507914998
 30
0.0000000000000142
 40
1.0000000000000471
 50
242.9999999999996021
 51
293.9122432942322121
  0
ARC
  5
3A84
  8
0
  6
AUSGEZOGEN
 62
     3
 10
0.0000000000143512
 20
-0.0000000000273417
 30
0.0
 40
82.499999999969063
 50
293.9122432942363048
 51
300.0877567057631268
  0
ARC
  5
3A85
  8
0
  6
AUSGEZOGEN
 62
     3
 10
40.8580571940111383
 20
-70.5185731728250289
 30
0.0000000000000142
 40
0.9999999999988864
 50
300.0877567057286797
 51
351.0000000000242721
  0
LINE
  5
3A86
  8
0
  6
AUSGEZOGEN
 62
     3
 10
43.3900982074863677
 20
-60.9243486102682326
 30
0.0000000000000142
 11
41.8457455346052427
 21
-70.6750076378646668
 31
0.0000000000000139
  0
ARC
  5
3A87
  8
0
  6
AUSGEZOGEN
 62
     3
 10
44.3777865480817226
 20
-61.0807830753087728
 30
0.0000000000000142
 40
1.0000000000002309
 50
81.000000000016712
 51
170.9999999999839986
  0
LINE
  5
3A88
  8
0
  6
AUSGEZOGEN
 62
     3
 10
54.2848800407180931
 20
-61.6374474075946068
 30
0.0000000000000142
 11
44.5342210131217016
 21
-60.093094734713361
 31
0.000000000000012
  0
ARC
  5
3A89
  8
0
  6
AUSGEZOGEN
 62
     3
 10
54.4413145057581787
 20
-60.6497590669993087
 30
0.0000000000000142
 40
1.0000000000001781
 50
261.0000000000094929
 51
311.9122432942347132
  0
ARC
  5
3A8A
  8
0
  6
AUSGEZOGEN
 62
     3
 10
0.0000000000131575
 20
-0.0000000000132729
 30
0.0
 40
82.4999999999811564
 50
311.9122432942368732
 51
318.0877567057630131
  0
ARC
  5
3A8B
  8
0
  6
AUSGEZOGEN
 62
     3
 10
60.6497590669990529
 20
-54.4413145057582994
 30
0.0000000000000142
 40
1.0000000000003
 50
318.0877567057672195
 51
8.9999999999876348
  0
LINE
  5
3A8C
  8
0
  6
AUSGEZOGEN
 62
     3
 10
30.20096189432358
 20
-55.3096004384196007
 30
0.0
 11
23.2009618943235907
 21
-43.1852447854375612
 31
-0.0000000000000018
  0
LINE
  5
3A8D
  8
0
  6
AUSGEZOGEN
 62
     3
 10
32.7990381056767291
 20
-53.8096004384194373
 30
0.0
 11
30.2009618943234699
 21
-55.3096004384194302
 31
-0.0000000000000006
  0
LINE
  5
3A8E
  8
0
  6
AUSGEZOGEN
 62
     3
 10
25.79903810567696
 20
-41.6852447854375612
 30
0.0
 11
32.7990381056769635
 21
-53.8096004384196007
 31
0.0000000000000018
  0
LINE
  5
3A8F
  8
0
  6
AUSGEZOGEN
 62
     3
 10
25.79903810567696
 20
-41.6852447854375612
 30
0.0
 11
23.2009618943237008
 21
-43.1852447854375612
 31
-0.0000000000000006
  0
LINE
  5
3A90
  8
0
  6
AUSGEZOGEN
 62
     3
 10
23.2009618943235907
 20
-43.1852447854375683
 30
0.0
 11
19.70096189432358
 21
-37.1230669589465094
 31
-0.0000000000000008
  0
LINE
  5
3A91
  8
0
  6
AUSGEZOGEN
 62
     3
 10
22.2990381056767291
 20
-35.6230669589465094
 30
0.0
 11
25.7990381056767291
 21
-41.6852447854375825
 31
0.0000000000000008
  0
LINE
  5
3A92
  8
0
  6
AUSGEZOGEN
 62
     3
 10
22.2990381056767291
 20
-35.6230669589465094
 30
0.0
 11
19.7009618943234699
 21
-37.1230669589465094
 31
-0.0000000000000006
  0
LINE
  5
3A93
  8
0
  6
AUSGEZOGEN
 62
     3
 10
33.6929252573586808
 20
-61.3578584013657533
 30
0.0
 11
30.2009618943233598
 21
-55.3096004384194302
 31
-0.0000000000000008
  0
LINE
  5
3A94
  8
0
  6
AUSGEZOGEN
 62
     3
 10
32.7990381056767291
 20
-53.8096004384194373
 30
0.0
 11
36.2910014687120608
 21
-59.8578584013657107
 31
0.0000000000000008
  0
ARC
  5
3A95
  8
0
  6
AUSGEZOGEN
 62
     3
 10
0.0000000000002585
 20
0.0000000000001829
 30
0.0
 40
68.5857864376270356
 50
190.2086282910867112
 51
229.791371708914312
  0
ARC
  5
3A96
  8
0
  6
AUSGEZOGEN
 62
     3
 10
0.0000000000000311
 20
-0.0000000000002221
 30
0.0
 40
68.5857864376265525
 50
250.208628291085688
 51
298.7468172842940248
  0
ARC
  5
3A97
  8
0
  6
AUSGEZOGEN
 62
     3
 10
0.0000000000002585
 20
-0.0000000000000836
 30
0.0
 40
68.5857864376265809
 50
301.2531827157058046
 51
349.7913717089139141
  0
ARC
  5
3A98
  8
0
  6
AUSGEZOGEN
 62
     3
 10
0.0000000000002585
 20
0.0000000000001331
 30
0.0
 40
68.5857864376265383
 50
10.20862829108607
 51
58.7468172842941314
  0
ARC
  5
3A99
  8
0
  6
AUSGEZOGEN
 62
     3
 10
0.0000000000000311
 20
0.0000000000000479
 30
0.0
 40
68.5857864376267514
 50
61.2531827157059823
 51
109.7913717089117966
  0
ARC
  5
3A9A
  8
0
  6
AUSGEZOGEN
 62
     3
 10
0.0000000000004858
 20
-0.0000000000002257
 30
0.0
 40
68.5857864376272772
 50
130.2086282910881039
 51
169.7913717089132035
  0
ARC
  5
3A9B
  8
0
  6
AUSGEZOGEN
 62
     3
 10
0.0000000000001391
 20
0.0000000000000676
 30
0.0
 40
48.9999999999997726
 50
180.0
 51
298.2457735094150735
  0
ARC
  5
3A9C
  8
0
  6
AUSGEZOGEN
 62
     3
 10
0.0000000000000254
 20
0.0000000000000179
 30
0.0
 40
48.9999999999996589
 50
301.7542264905849265
 51
58.2457735094151019
  0
ARC
  5
3A9D
  8
0
  6
AUSGEZOGEN
 62
     3
 10
-0.0000000000000882
 20
0.0000000000001316
 30
0.0
 40
48.9999999999996021
 50
61.7542264905846423
 51
180.0000000000001137
  0
ARC
  5
3A9E
  8
0
  6
AUSGEZOGEN
 62
     3
 10
0.0000000000000004
 20
0.0000000000000039
 30
0.0
 40
48.3799396802317005
 50
180.0
 51
298.2232833446760765
  0
ARC
  5
3A9F
  8
0
  6
AUSGEZOGEN
 62
     3
 10
-0.0000000000001132
 20
0.000000000000011
 30
0.0
 40
48.3799396802317716
 50
301.7767166553240941
 51
58.2232833446758775
  0
ARC
  5
3AA0
  8
0
  6
AUSGEZOGEN
 62
     3
 10
0.0000000000000004
 20
0.0000000000000181
 30
0.0
 40
48.3799396802317005
 50
61.7767166553239235
 51
180.0
  0
LINE
  5
3AA1
  8
0
  6
AUSGEZOGEN
 62
     3
 10
-67.4999999999999574
 20
18.5404962177389585
 30
-0.0000000000000284
 11
-67.4999999999999574
 21
-18.5404962177394417
 31
-0.0000000000000284
  0
LINE
  5
3AA2
  8
0
  6
AUSGEZOGEN
 62
     3
 10
-49.8065407233313735
 20
-49.1864666465802998
 30
0.0
 11
-17.6934592766684311
 21
-67.7269628643194324
 31
0.0000000000000071
  0
LINE
  5
3AA3
  8
0
  6
AUSGEZOGEN
 62
     3
 10
67.5000000000001563
 20
-18.5404962177388093
 30
0.0000000000000284
 11
67.5000000000001563
 21
18.5404962177387205
 31
0.0000000000000284
  0
LINE
  5
3AA4
  8
0
  6
AUSGEZOGEN
 62
     3
 10
-17.6934592766682108
 20
67.7269628643190487
 30
0.0
 11
-49.8065407233313735
 21
49.1864666465797882
 31
-0.0000000000000071
  0
CIRCLE
  5
3AA5
  8
0
  6
AUSGEZOGEN
 62
     3
 10
0.0000000000001581
 20
0.0000000000000231
 30
0.0
 40
72.5
  0
CIRCLE
  5
3AA6
  8
0
  6
AUSGEZOGEN
 62
     3
 10
0.0000000000001581
 20
0.0000000000000231
 30
0.0
 40
70.0
  0
LINE
  5
3AA7
  8
0
  6
AUSGEZOGEN
 62
     3
 10
30.20096189432358
 20
55.3096004384196576
 30
0.0
 11
23.2009618943235907
 21
43.1852447854376109
 31
-0.0000000000000018
  0
LINE
  5
3AA8
  8
0
  6
AUSGEZOGEN
 62
     3
 10
25.79903810567696
 20
41.6852447854376109
 30
0.0
 11
23.2009618943237008
 21
43.1852447854376109
 31
-0.0000000000000006
  0
LINE
  5
3AA9
  8
0
  6
AUSGEZOGEN
 62
     3
 10
25.79903810567696
 20
41.6852447854376109
 30
0.0
 11
32.7990381056769635
 21
53.8096004384196576
 31
0.0000000000000018
  0
LINE
  5
3AAA
  8
0
  6
AUSGEZOGEN
 62
     3
 10
32.7990381056767291
 20
53.809600438419487
 30
0.0
 11
30.2009618943234699
 21
55.309600438419487
 31
-0.0000000000000006
  0
LINE
  5
3AAB
  8
0
  6
AUSGEZOGEN
 62
     3
 10
23.2009618943235907
 20
43.1852447854376322
 30
0.0
 11
19.70096189432358
 21
37.1230669589465734
 31
-0.0000000000000008
  0
LINE
  5
3AAC
  8
0
  6
AUSGEZOGEN
 62
     3
 10
22.2990381056767291
 20
35.6230669589465734
 30
0.0
 11
19.7009618943234699
 21
37.1230669589465734
 31
-0.0000000000000006
  0
LINE
  5
3AAD
  8
0
  6
AUSGEZOGEN
 62
     3
 10
22.2990381056767291
 20
35.6230669589465734
 30
0.0
 11
25.7990381056767291
 21
41.6852447854376322
 31
0.0000000000000008
  0
LINE
  5
3AAE
  8
0
  6
AUSGEZOGEN
 62
     3
 10
33.6929252573586808
 20
61.3578584013658102
 30
0.0
 11
30.2009618943233598
 21
55.309600438419487
 31
-0.0000000000000008
  0
LINE
  5
3AAF
  8
0
  6
AUSGEZOGEN
 62
     3
 10
32.7990381056767291
 20
53.809600438419487
 30
0.0
 11
36.2910014687120608
 21
59.8578584013657533
 31
0.0000000000000008
  0
CIRCLE
  5
3AB0
  8
0
  6
VERDECKT
 62
     1
 10
-0.0000000000001439
 20
0.0000000000000568
 30
0.0
 40
69.5
  0
LINE
  5
3AB1
  8
0
  6
VERDECKT
 62
     1
 10
35.2990381056767291
 20
-58.1397274573416496
 30
0.0
 11
32.7009618943234699
 21
-59.6397274573416496
 31
-0.0000000000000006
  0
LINE
  5
3AB2
  8
0
  6
VERDECKT
 62
     1
 10
36.2990381056771767
 20
-59.8717782649104819
 30
0.0
 11
33.7009618943239317
 21
-61.371778264910489
 31
-0.0000000000000006
  0
LINE
  5
3AB3
  8
0
  6
VERDECKT
 62
     1
 10
33.7009618943233633
 20
-61.3717782649105104
 30
0.0
 11
33.6929252573586808
 21
-61.3578584013657533
 31
0.0
  0
LINE
  5
3AB4
  8
0
  6
VERDECKT
 62
     1
 10
36.2910014687120608
 20
-59.8578584013657107
 30
0.0
 11
36.2990381056767291
 21
-59.8717782649105033
 31
0.0
  0
CIRCLE
  5
3AB5
  8
0
  6
VERDECKT
 62
     1
 10
0.0000000000000004
 20
0.000000000000011
 30
0.0
 40
50.38757935531833
  0
CIRCLE
  5
3AB6
  8
0
  6
VERDECKT
 62
     1
 10
0.0000000000000254
 20
0.0000000000000179
 30
0.0
 40
50.9999999999997726
  0
ARC
  5
3AB7
  8
0
  6
VERDECKT
 62
     1
 10
0.0000000000062839
 20
0.0000000000005701
 30
0.0
 40
68.5857864376330326
 50
180.0000000000003979
 51
190.2086282910860859
  0
ARC
  5
3AB8
  8
0
  6
VERDECKT
 62
     1
 10
-0.0000000000005373
 20
-0.0000000000009824
 30
0.0
 40
68.5857864376256572
 50
229.791371708914312
 51
250.208628291085887
  0
ARC
  5
3AB9
  8
0
  6
VERDECKT
 62
     1
 10
0.000000000018221
 20
-0.0000000000306405
 30
0.0
 40
68.5857864375911248
 50
298.746817284292888
 51
301.2531827157062025
  0
ARC
  5
3ABA
  8
0
  6
VERDECKT
 62
     1
 10
0.0000000000000311
 20
0.0000000000000132
 30
0.0
 40
68.5857864376267798
 50
349.7913717089139141
 51
10.2086282910861392
  0
ARC
  5
3ABB
  8
0
  6
VERDECKT
 62
     1
 10
-0.0000000000634062
 20
-0.0000000001098802
 30
0.0
 40
68.5857864377536401
 50
58.7468172842963412
 51
61.2531827157036801
  0
ARC
  5
3ABC
  8
0
  6
VERDECKT
 62
     1
 10
0.0000000000008269
 20
-0.0000000000014016
 30
0.0
 40
68.5857864376283857
 50
109.7913717089119956
 51
130.2086282910875923
  0
ARC
  5
3ABD
  8
0
  6
VERDECKT
 62
     1
 10
0.000000000006966
 20
-0.0000000000005619
 30
0.0
 40
68.5857864376337005
 50
169.7913717089138004
 51
179.9999999999994031
  0
ARC
  5
3ABE
  8
0
  6
VERDECKT
 62
     1
 10
-0.0000000000114569
 20
0.0000000000195436
 30
0.0
 40
49.0000000000222968
 50
298.245773509416324
 51
301.7542264905843012
  0
ARC
  5
3ABF
  8
0
  6
VERDECKT
 62
     1
 10
0.0000000000145774
 20
0.000000000025164
 30
0.0
 40
48.9999999999706191
 50
58.2457735094141213
 51
61.7542264905859284
  0
ARC
  5
3AC0
  8
0
  6
VERDECKT
 62
     1
 10
-0.0000000000219411
 20
0.0000000000379113
 30
0.0
 40
48.3799396802754629
 50
298.2232833446777249
 51
301.7767166553225024
  0
ARC
  5
3AC1
  8
0
  6
VERDECKT
 62
     1
 10
-0.0000000000283076
 20
-0.0000000000489596
 30
0.0
 40
48.3799396802882384
 50
58.2232833446780305
 51
61.776716655321799
  0
LINE
  5
3AC2
  8
0
  6
VERDECKT
 62
     1
 10
-18.654128961721721
 20
70.0590713090001742
 30
0.0
 11
-35.0000000000001918
 21
60.6217782649111783
 31
-0.0000000000000036
  0
LINE
  5
3AC3
  8
0
  6
VERDECKT
 62
     1
 10
-35.0000000000001918
 20
60.6217782649111712
 30
0.0
 11
-51.3458710382765986
 21
51.1844852208233618
 31
-0.0000000000000036
  0
LINE
  5
3AC4
  8
0
  6
VERDECKT
 62
     1
 10
70.0000000000008384
 20
-18.8745860881761409
 30
0.0000000000000284
 11
70.0000000000008384
 21
0.0000000000000213
 31
0.0000000000000284
  0
LINE
  5
3AC5
  8
0
  6
VERDECKT
 62
     1
 10
70.0000000000008384
 20
0.0000000000000225
 30
0.0000000000000284
 11
70.0000000000008384
 21
18.8745860881782086
 31
0.0000000000000284
  0
LINE
  5
3AC6
  8
0
  6
VERDECKT
 62
     1
 10
-51.3458710382765986
 20
-51.1844852208212515
 30
0.0
 11
-34.9999999999991616
 21
-60.6217782649096222
 31
0.0000000000000036
  0
LINE
  5
3AC7
  8
0
  6
VERDECKT
 62
     1
 10
-34.9999999999991616
 20
-60.6217782649096222
 30
0.0
 11
-18.6541289617215007
 21
-70.0590713089981421
 31
0.0000000000000036
  0
LINE
  5
3AC8
  8
0
  6
VERDECKT
 62
     1
 10
-69.9999999999991616
 20
18.8745860881777787
 30
-0.0000000000000284
 11
-69.9999999999991616
 21
0.0000000000000213
 31
-0.0000000000000284
  0
LINE
  5
3AC9
  8
0
  6
VERDECKT
 62
     1
 10
-69.9999999999991616
 20
0.0000000000000225
 30
-0.0000000000000284
 11
-69.9999999999991616
 21
-18.8745860881756791
 31
-0.0000000000000284
  0
CIRCLE
  5
3ACA
  8
0
  6
VERDECKT
 62
     1
 10
0.0000000000000028
 20
0.0000000000000116
 30
0.0
 40
73.9999999999999432
  0
CIRCLE
  5
3ACB
  8
0
  6
VERDECKT
 62
     1
 10
0.0000000000000243
 20
0.0000000000000176
 30
0.0
 40
66.4999999999999432
  0
CIRCLE
  5
3ACC
  8
0
  6
VERDECKT
 62
     1
 10
0.0000000000000243
 20
0.0000000000000176
 30
0.0
 40
63.9999999999999503
  0
CIRCLE
  5
3ACD
  8
0
  6
VERDECKT
 62
     1
 10
0.0000000000000028
 20
0.0000000000000116
 30
0.0
 40
71.4999999999999432
  0
LINE
  5
3ACE
  8
0
  6
VERDECKT
 62
     1
 10
35.2990381056767291
 20
58.1397274573416993
 30
0.0
 11
32.7009618943234699
 21
59.6397274573417135
 31
-0.0000000000000006
  0
LINE
  5
3ACF
  8
0
  6
VERDECKT
 62
     1
 10
36.2990381056771767
 20
59.871778264910553
 30
0.0
 11
33.7009618943239317
 21
61.3717782649105388
 31
-0.0000000000000006
  0
LINE
  5
3AD0
  8
0
  6
VERDECKT
 62
     1
 10
33.7009618943233633
 20
61.3717782649105601
 30
0.0
 11
33.6929252573586808
 21
61.3578584013658102
 31
0.0
  0
LINE
  5
3AD1
  8
0
  6
VERDECKT
 62
     1
 10
36.2910014687120608
 20
59.8578584013657533
 30
0.0
 11
36.2990381056767291
 21
59.8717782649105601
 31
0.0
  0
ENDBLK
  5
3AD3
  8
0
  0
ENDSEC
  0
SECTION
  2
ENTITIES
  0
TEXT
  5
291
  8
VOLL
 10
576.5450018312136535
 20
-30.6443785411502496
 30
0.0
 40
1.8
  1

  7
GREEKS
  0
TEXT
  5
292
  8
TEXT
 10
908.3772700348065428
 20
-25.0861430079247114
 30
0.0
 40
2.5
  1
  
  7
GREEKS
 72
     1
 11
910.6391747967113588
 21
-25.0861430079247114
 31
0.0
  0
TEXT
  5
293
  8
BEM
 10
1152.4969873472889503
 20
110.4727390224774979
 30
0.0
 40
2.5
  1
 
 72
     4
 11
1153.6279397282410173
 21
110.4727390224774979
 31
0.0
  0
TEXT
  5
295
  8
VOLL
 10
734.0797189083752983
 20
-25.0888229060790486
 30
0.0
 40
1.8
  1

  7
GREEKS
  0
TEXT
  5
296
  8
BEM
 10
768.567783747659746
 20
-20.3630985828584414
 30
0.0
 40
2.5
  1

 41
0.8
  7
GREEKS
  0
TEXT
  5
297
  8
BEM
 10
768.567783747659746
 20
-25.0568671369106006
 30
0.0
 40
2.5
  1

 41
0.8
  7
GREEKS
  0
TEXT
  5
298
  8
BEM
 10
768.567783747659746
 20
-30.2947109555741001
 30
0.0
 40
2.5
  1

 41
0.8
  7
GREEKS
  0
TEXT
  5
299
  8
BEM
 10
768.4948392702854107
 20
-34.7998999056717224
 30
0.0
 40
1.8
  1

 41
0.8
  7
GREEKS
  0
TEXT
  5
29A
  8
TEXT
 10
1065.9119871119680738
 20
-19.5305873728534891
 30
0.0
 40
2.5
  1
  
  7
GREEKS
 72
     1
 11
1068.1738918738728898
 21
-19.5305873728534891
 31
0.0
  0
TEXT
  5
29B
  8
BEM
 10
1310.0317044244500266
 20
116.0282946575486989
 30
0.0
 40
2.5
  1
 
 72
     4
 11
1311.1626568054020936
 21
116.0282946575486989
 31
0.0
  0
TEXT
  5
29C
  8
VOLL
 10
534.416016560221351
 20
172.5724056536878095
 30
0.0
 40
1.8
  1

  7
GREEKS
  0
TEXT
  5
29D
  8
VOLL
 10
542.5840708132568579
 20
32.0259477647058475
 30
0.0
 40
1.8
  1

  7
GREEKS
  0
TEXT
  5
2A3
  8
VOLL
 10
813.9390818806871266
 20
39.8839392089229179
 30
0.0
 40
1.8
  1

  7
GREEKS
  0
TEXT
  5
2A4
  8
TEXT
 10
1145.7713500842799021
 20
45.4421747421484596
 30
0.0
 40
2.5
  1
  
  7
GREEKS
 72
     1
 11
1148.0332548461849456
 21
45.4421747421484596
 31
0.0
  0
TEXT
  5
2A5
  8
BEM
 10
1389.8910673967620824
 20
181.0010567725506974
 30
0.0
 40
2.5
  1
 
 72
     4
 11
1391.0220197777150588
 21
181.0010567725506974
 31
0.0
  0
TEXT
  5
2A6
  8
BEM
 10
979.2846949603372195
 20
80.0371699075085843
 30
0.0
 40
2.5
  1

  7
GREEKS
  0
TEXT
  5
2A7
  8
VOLL
 10
965.218501940615738
 20
59.8539092504734711
 30
0.0
 40
1.8
  1

  7
GREEKS
  0
TEXT
  5
2A8
  8
BEM
 10
999.7065667799004132
 20
64.5796335736940819
 30
0.0
 40
2.5
  1

 41
0.8
  7
GREEKS
  0
TEXT
  5
2A9
  8
BEM
 10
999.7065667799004132
 20
59.885865019641912
 30
0.0
 40
2.5
  1

 41
0.8
  7
GREEKS
  0
TEXT
  5
2AA
  8
BEM
 10
999.7065667799004132
 20
54.6480212009784196
 30
0.0
 40
2.5
  1

 41
0.8
  7
GREEKS
  0
TEXT
  5
2AB
  8
BEM
 10
999.6336223025258505
 20
50.1428322508807867
 30
0.0
 40
1.8
  1

 41
0.8
  7
GREEKS
  0
TEXT
  5
2AC
  8
BEM
 10
986.950051422914612
 20
75.7344213471060783
 30
0.0
 40
2.0
  1

 41
0.8
  7
GREEKS
 72
     1
 11
986.950051422914612
 21
75.7344213471060783
 31
0.0
  0
TEXT
  5
2AD
  8
TEXT
 10
1297.0507701442079451
 20
65.4121447836990058
 30
0.0
 40
2.5
  1
  
  7
GREEKS
 72
     1
 11
1299.3126749061129885
 21
65.4121447836990058
 31
0.0
  0
TEXT
  5
2AE
  8
BEM
 10
1541.1704874566910348
 20
200.9710268141012932
 30
0.0
 40
2.5
  1
 
 72
     4
 11
1542.3014398376431018
 21
200.9710268141012932
 31
0.0
  0
TEXT
  5
2B4
  8
VOLL
 10
560.7220601325506095
 20
31.4879213003125713
 30
0.0
 40
1.8
  1

  7
GREEKS
  0
TEXT
  5
2B5
  8
VOLL
 10
832.0770711999807645
 20
39.3459127445296488
 30
0.0
 40
1.8
  1

  7
GREEKS
  0
TEXT
  5
2B6
  8
TEXT
 10
1163.9093394035730853
 20
44.9041482777551906
 30
0.0
 40
2.5
  1
  
  7
GREEKS
 72
     1
 11
1166.1712441654779013
 21
44.9041482777551906
 31
0.0
  0
TEXT
  5
2B7
  8
BEM
 10
1408.0290567160559476
 20
180.4630303081574141
 30
0.0
 40
2.5
  1
 
 72
     4
 11
1409.1600090970080146
 21
180.4630303081574141
 31
0.0
  0
TEXT
  5
2B8
  8
BEM
 10
997.4226842796308574
 20
79.4991434431153152
 30
0.0
 40
2.5
  1

  7
GREEKS
  0
TEXT
  5
2B9
  8
VOLL
 10
983.3564912599091485
 20
59.315882786080202
 30
0.0
 40
1.8
  1

  7
GREEKS
  0
TEXT
  5
2BA
  8
BEM
 10
1017.8445560991940511
 20
64.0416071093007986
 30
0.0
 40
2.5
  1

 41
0.8
  7
GREEKS
  0
TEXT
  5
2BB
  8
BEM
 10
1017.8445560991940511
 20
59.3478385552486287
 30
0.0
 40
2.5
  1

 41
0.8
  7
GREEKS
  0
TEXT
  5
2BC
  8
BEM
 10
1017.8445560991940511
 20
54.1099947365851435
 30
0.0
 40
2.5
  1

 41
0.8
  7
GREEKS
  0
TEXT
  5
2BD
  8
BEM
 10
1017.7716116218190336
 20
49.6048057864875176
 30
0.0
 40
1.8
  1

 41
0.8
  7
GREEKS
  0
TEXT
  5
2BE
  8
BEM
 10
1005.0880407422080225
 20
75.196394882712795
 30
0.0
 40
2.0
  1

 41
0.8
  7
GREEKS
 72
     1
 11
1005.0880407422080225
 21
75.196394882712795
 31
0.0
  0
TEXT
  5
2BF
  8
TEXT
 10
1315.1887594635020378
 20
64.8741183193057509
 30
0.0
 40
2.5
  1
  
  7
GREEKS
 72
     1
 11
1317.4506642254070812
 21
64.8741183193057509
 31
0.0
  0
TEXT
  5
2C0
  8
BEM
 10
1559.3084767759839906
 20
200.4330003497080099
 30
0.0
 40
2.5
  1
 
 72
     4
 11
1560.439429156936967
 21
200.4330003497080099
 31
0.0
  0
TEXT
  5
2C1
  8
VOLL
 10
525.5995890396859522
 20
31.4273733039272507
 30
0.0
 40
1.8
  1

  7
GREEKS
  0
TEXT
  5
2C2
  8
VOLL
 10
796.9546001071162209
 20
39.2853647481443318
 30
0.0
 40
1.8
  1

  7
GREEKS
  0
TEXT
  5
2C3
  8
TEXT
 10
1128.7868683107089964
 20
44.8436002813698735
 30
0.0
 40
2.5
  1
  
  7
GREEKS
 72
     1
 11
1131.048773072612903
 21
44.8436002813698735
 31
0.0
  0
TEXT
  5
2C4
  8
BEM
 10
1372.9065856231909493
 20
180.4024823117721041
 30
0.0
 40
2.5
  1
 
 72
     4
 11
1374.0375380041430162
 21
180.4024823117721041
 31
0.0
  0
TEXT
  5
2C5
  8
BEM
 10
962.3002131867660864
 20
79.4385954467299911
 30
0.0
 40
2.5
  1

  7
GREEKS
  0
TEXT
  5
2C6
  8
VOLL
 10
948.2340201670448323
 20
59.2553347896948779
 30
0.0
 40
1.8
  1

  7
GREEKS
  0
TEXT
  5
2C7
  8
BEM
 10
982.7220850063292801
 20
63.9810591129154815
 30
0.0
 40
2.5
  1

 41
0.8
  7
GREEKS
  0
TEXT
  5
2C8
  8
BEM
 10
982.7220850063292801
 20
59.2872905588633188
 30
0.0
 40
2.5
  1

 41
0.8
  7
GREEKS
  0
TEXT
  5
2C9
  8
BEM
 10
982.7220850063292801
 20
54.0494467401998335
 30
0.0
 40
2.5
  1

 41
0.8
  7
GREEKS
  0
TEXT
  5
2CA
  8
BEM
 10
982.6491405289548311
 20
49.5442577901022005
 30
0.0
 40
1.8
  1

 41
0.8
  7
GREEKS
  0
TEXT
  5
2CB
  8
BEM
 10
969.9655696493437063
 20
75.1358468863274851
 30
0.0
 40
2.0
  1

 41
0.8
  7
GREEKS
 72
     1
 11
969.9655696493437063
 21
75.1358468863274851
 31
0.0
  0
TEXT
  5
2CC
  8
TEXT
 10
1280.0662883706370394
 20
64.8135703229204267
 30
0.0
 40
2.5
  1
  
  7
GREEKS
 72
     1
 11
1282.3281931325420828
 21
64.8135703229204267
 31
0.0
  0
TEXT
  5
2CD
  8
BEM
 10
1524.1860056831199017
 20
200.3724523533227
 30
0.0
 40
2.5
  1
 
 72
     4
 11
1525.3169580640719687
 21
200.3724523533227
 31
0.0
  0
TEXT
  5
2D2
  8
VOLL
 10
411.9407872075726118
 20
248.4540791801726982
 30
0.0
 40
1.8
  1

  7
GREEKS
  0
TEXT
  5
2D3
  8
VOLL
 10
1156.5532271175800361
 20
252.1100560120522971
 30
0.0
 40
1.8
  1

  7
GREEKS
  0
TEXT
  5
2D4
  8
TEXT
 10
1488.385495321173039
 20
257.668291545277782
 30
0.0
 40
2.5
  1
  
  7
GREEKS
 72
     1
 11
1490.6474000830780824
 21
257.668291545277782
 31
0.0
  0
TEXT
  5
2D5
  8
BEM
 10
1732.5052126336549918
 20
393.2271735756801263
 30
0.0
 40
2.5
  1
 
 72
     4
 11
1733.6361650146070588
 21
393.2271735756801263
 31
0.0
  0
TEXT
  5
2D6
  8
VOLL
 10
1314.0879441947420219
 20
257.6656116471235123
 30
0.0
 40
1.8
  1

  7
GREEKS
  0
TEXT
  5
2D7
  8
BEM
 10
1348.5760090340259012
 20
262.3913359703440733
 30
0.0
 40
2.5
  1

 41
0.8
  7
GREEKS
  0
TEXT
  5
2D8
  8
BEM
 10
1348.5760090340259012
 20
257.6975674162919177
 30
0.0
 40
2.5
  1

 41
0.8
  7
GREEKS
  0
TEXT
  5
2D9
  8
BEM
 10
1348.5760090340259012
 20
252.4597235976285106
 30
0.0
 40
2.5
  1

 41
0.8
  7
GREEKS
  0
TEXT
  5
2DA
  8
BEM
 10
1348.503064556651907
 20
247.9545346475308065
 30
0.0
 40
1.8
  1

 41
0.8
  7
GREEKS
  0
TEXT
  5
2DB
  8
TEXT
 10
1645.9202123983338879
 20
263.2238471803490256
 30
0.0
 40
2.5
  1
  
  7
GREEKS
 72
     1
 11
1648.1821171602389313
 21
263.2238471803490256
 31
0.0
  0
TEXT
  5
2DC
  8
BEM
 10
1890.0399297108160681
 20
398.7827292107513131
 30
0.0
 40
2.5
  1
 
 72
     4
 11
1891.1708820917690446
 21
398.7827292107513131
 31
0.0
  0
TEXT
  5
2DD
  8
VOLL
 10
1114.4242418465880746
 20
455.3268402068903242
 30
0.0
 40
1.8
  1

  7
GREEKS
  0
TEXT
  5
2DE
  8
VOLL
 10
1122.5922960996228994
 20
314.7803823179083906
 30
0.0
 40
1.8
  1

  7
GREEKS
  0
TEXT
  5
2DF
  8
VOLL
 10
1393.9473071670529407
 20
322.638373762125525
 30
0.0
 40
1.8
  1

  7
GREEKS
  0
TEXT
  5
2E0
  8
TEXT
 10
1725.7795753706470805
 20
328.1966092953509815
 30
0.0
 40
2.5
  1
  
  7
GREEKS
 72
     1
 11
1728.041480132550987
 21
328.1966092953509815
 31
0.0
  0
TEXT
  5
2E1
  8
BEM
 10
1969.8992926831278965
 20
463.7554913257532121
 30
0.0
 40
2.5
  1
 
 72
     4
 11
1971.0302450640811003
 21
463.7554913257532121
 31
0.0
  0
TEXT
  5
2E2
  8
BEM
 10
1559.2929202467030336
 20
362.7916044607111985
 30
0.0
 40
2.5
  1

  7
GREEKS
  0
TEXT
  5
2E3
  8
VOLL
 10
1545.2267272269818932
 20
342.6083438036760072
 30
0.0
 40
1.8
  1

  7
GREEKS
  0
TEXT
  5
2E4
  8
BEM
 10
1579.7147920662669094
 20
347.334068126896625
 30
0.0
 40
2.5
  1

 41
0.8
  7
GREEKS
  0
TEXT
  5
2E5
  8
BEM
 10
1579.7147920662669094
 20
342.6402995728445262
 30
0.0
 40
2.5
  1

 41
0.8
  7
GREEKS
  0
TEXT
  5
2E6
  8
BEM
 10
1579.7147920662669094
 20
337.4024557541808917
 30
0.0
 40
2.5
  1

 41
0.8
  7
GREEKS
  0
TEXT
  5
2E7
  8
BEM
 10
1579.6418475888920057
 20
332.8972668040833014
 30
0.0
 40
1.8
  1

 41
0.8
  7
GREEKS
  0
TEXT
  5
2E8
  8
BEM
 10
1566.9582767092811082
 20
358.4888559003085788
 30
0.0
 40
2.0
  1

 41
0.8
  7
GREEKS
 72
     1
 11
1566.9582767092811082
 21
358.4888559003085788
 31
0.0
  0
TEXT
  5
2E9
  8
TEXT
 10
1877.0589954305748961
 20
348.1665793369015773
 30
0.0
 40
2.5
  1
  
  7
GREEKS
 72
     1
 11
1879.3209001924799395
 21
348.1665793369015773
 31
0.0
  0
TEXT
  5
2EA
  8
BEM
 10
2121.1787127430570763
 20
483.7254613673038079
 30
0.0
 40
2.5
  1
 
 72
     4
 11
2122.3096651240098254
 21
483.7254613673038079
 31
0.0
  0
TEXT
  5
2EB
  8
VOLL
 10
1140.7302854189169921
 20
314.2423558535151074
 30
0.0
 40
1.8
  1

  7
GREEKS
  0
TEXT
  5
2EC
  8
VOLL
 10
1412.0852964863470334
 20
322.1003472977321849
 30
0.0
 40
1.8
  1

  7
GREEKS
  0
TEXT
  5
2ED
  8
TEXT
 10
1743.9175646899400363
 20
327.6585828309576982
 30
0.0
 40
2.5
  1
  
  7
GREEKS
 72
     1
 11
1746.1794694518450797
 21
327.6585828309576982
 31
0.0
  0
TEXT
  5
2EE
  8
BEM
 10
1988.0372820024219891
 20
463.2174648613599857
 30
0.0
 40
2.5
  1
 
 72
     4
 11
1989.1682343833749655
 21
463.2174648613599857
 31
0.0
  0
TEXT
  5
2EF
  8
BEM
 10
1577.4309095659968989
 20
362.2535779963178015
 30
0.0
 40
2.5
  1

  7
GREEKS
  0
TEXT
  5
2F0
  8
VOLL
 10
1563.3647165462759858
 20
342.0703173392827239
 30
0.0
 40
1.8
  1

  7
GREEKS
  0
TEXT
  5
2F1
  8
BEM
 10
1597.8527813855600925
 20
346.7960416625032849
 30
0.0
 40
2.5
  1

 41
0.8
  7
GREEKS
  0
TEXT
  5
2F2
  8
BEM
 10
1597.8527813855600925
 20
342.1022731084511861
 30
0.0
 40
2.5
  1

 41
0.8
  7
GREEKS
  0
TEXT
  5
2F3
  8
BEM
 10
1597.8527813855600925
 20
336.8644292897877222
 30
0.0
 40
2.5
  1

 41
0.8
  7
GREEKS
  0
TEXT
  5
2F4
  8
BEM
 10
1597.7798369081860983
 20
332.359240339690075
 30
0.0
 40
1.8
  1

 41
0.8
  7
GREEKS
  0
TEXT
  5
2F5
  8
BEM
 10
1585.096266028574064
 20
357.9508294359154092
 30
0.0
 40
2.0
  1

 41
0.8
  7
GREEKS
 72
     1
 11
1585.096266028574064
 21
357.9508294359154092
 31
0.0
  0
TEXT
  5
2F6
  8
TEXT
 10
1895.1969847498680792
 20
347.6285528725082941
 30
0.0
 40
2.5
  1
  
  7
GREEKS
 72
     1
 11
1897.4588895117728953
 21
347.6285528725082941
 31
0.0
  0
TEXT
  5
2F7
  8
BEM
 10
2139.3167020623500321
 20
483.1874349029105247
 30
0.0
 40
2.5
  1
 
 72
     4
 11
2140.4476544433027811
 21
483.1874349029105247
 31
0.0
  0
TEXT
  5
2F8
  8
VOLL
 10
1105.6078143260519937
 20
314.1818078571297974
 30
0.0
 40
1.8
  1

  7
GREEKS
  0
TEXT
  5
2F9
  8
VOLL
 10
1376.962825393482035
 20
322.0397993013468749
 30
0.0
 40
1.8
  1

  7
GREEKS
  0
TEXT
  5
2FA
  8
TEXT
 10
1708.7950935970750379
 20
327.5980348345723883
 30
0.0
 40
2.5
  1
  
  7
GREEKS
 72
     1
 11
1711.0569983589800813
 21
327.5980348345723883
 31
0.0
  0
TEXT
  5
2FB
  8
BEM
 10
1952.9148109095569907
 20
463.1569168649746189
 30
0.0
 40
2.5
  1
 
 72
     4
 11
1954.0457632905090577
 21
463.1569168649746189
 31
0.0
  0
TEXT
  5
2FC
  8
BEM
 10
1542.3084384731319005
 20
362.1930299999326053
 30
0.0
 40
2.5
  1

  7
GREEKS
  0
TEXT
  5
2FD
  8
VOLL
 10
1528.2422454534109875
 20
342.0097693428974139
 30
0.0
 40
1.8
  1

  7
GREEKS
  0
TEXT
  5
2FE
  8
BEM
 10
1562.7303102926960037
 20
346.735493666117975
 30
0.0
 40
2.5
  1

 41
0.8
  7
GREEKS
  0
TEXT
  5
2FF
  8
BEM
 10
1562.7303102926960037
 20
342.0417251120658761
 30
0.0
 40
2.5
  1

 41
0.8
  7
GREEKS
  0
TEXT
  5
300
  8
BEM
 10
1562.7303102926960037
 20
336.8038812934022985
 30
0.0
 40
2.5
  1

 41
0.8
  7
GREEKS
  0
TEXT
  5
301
  8
BEM
 10
1562.6573658153210999
 20
332.2986923433048219
 30
0.0
 40
1.8
  1

 41
0.8
  7
GREEKS
  0
TEXT
  5
302
  8
BEM
 10
1549.9737949357099751
 20
357.8902814395299856
 30
0.0
 40
2.0
  1

 41
0.8
  7
GREEKS
 72
     1
 11
1549.9737949357099751
 21
357.8902814395299856
 31
0.0
  0
TEXT
  5
303
  8
TEXT
 10
1860.0745136570039904
 20
347.5680048761229841
 30
0.0
 40
2.5
  1
  
  7
GREEKS
 72
     1
 11
1862.3364184189078969
 21
347.5680048761229841
 31
0.0
  0
TEXT
  5
304
  8
BEM
 10
2104.1942309694859432
 20
483.1268869065252147
 30
0.0
 40
2.5
  1
 
 72
     4
 11
2105.3251833504377828
 21
483.1268869065252147
 31
0.0
  0
TEXT
  5
1BF2
  8
TEXT35
 10
360.2348094586861862
 20
515.6111567678593701
 30
0.0
 40
3.5
  1

 41
0.8
  0
TEXT
  5
2C38
  8
VOLL
 10
582.8688915358286522
 20
87.679803687503707
 30
0.0
 40
1.8
  1

 50
90.0
  7
GREEKS
  0
INSERT
  5
3A11
  8
0
  2
A$C56691423
 10
0.0
 20
0.0000000000000109
 30
0.0
  0
INSERT
  5
3AD4
  8
0
  2
A$C329517A8
 10
0.0
 20
-123.6071450765485054
 30
0.0
  0
VIEWPORT
  5
3595
 67
     1
  8
0
 10
5.9278083944221951
 20
6.9533844232249349
 30
0.0
 40
27.1111446013082613
 41
14.3624516042644892
 68
     1
 69
     1
1001
ACAD
1000
MVIEW
1002
{
1070
    16
1010
0.0
1020
0.0
1030
0.0
1010
0.0
1020
0.0
1030
1.0
1040
0.0
1040
14.3624516042644892
1040
5.9278083944221951
1040
6.9533844232249349
1040
50.0
1040
0.0
1040
0.0
1070
     0
1070
   500
1070
     1
1070
     1
1070
     0
1070
     0
1070
     0
1070
     0
1040
0.0
1040
0.0
1040
0.0
1040
10.0
1040
10.0
1040
10.0
1040
10.0
1070
     0
1002
{
1002
}
1002
}
  0
ENDSEC
  0
EOF
