  0
SECTION
  2
HEADER
  9
$ACADVER
  1
AC1009
  9
$INSBASE
 10
0.0
 20
0.0
 30
0.0
  9
$EXTMIN
 10
-63.4532880889350892
 20
-174.6535103638966007
 30
-0.0000000000000444
  9
$EXTMAX
 10
63.4532880889345634
 20
200.0
 30
0.0000000000000163
  9
$LIMMIN
 10
0.0
 20
0.0
  9
$LIMMAX
 10
297.0
 20
420.0
  9
$ORTHOMODE
 70
     1
  9
$REGENMODE
 70
     1
  9
$FILLMODE
 70
     1
  9
$QTEXTMODE
 70
     0
  9
$MIRRTEXT
 70
     1
  9
$DRAGMODE
 70
     2
  9
$LTSCALE
 40
10.0
  9
$OSMODE
 70
  1327
  9
$ATTMODE
 70
     1
  9
$TEXTSIZE
 40
3.5
  9
$TRACEWID
 40
0.5
  9
$TEXTSTYLE
  7
STANDARD
  9
$CLAYER
  8
0
  9
$CELTYPE
  6
BYLAYER
  9
$CECOLOR
 62
   256
  9
$DIMSCALE
 40
0.0
  9
$DIMASZ
 40
3.5
  9
$DIMEXO
 40
1.0
  9
$DIMDLI
 40
8.0
  9
$DIMRND
 40
0.0
  9
$DIMDLE
 40
0.0
  9
$DIMEXE
 40
1.0
  9
$DIMTP
 40
0.8
  9
$DIMTM
 40
0.0
  9
$DIMTXT
 40
3.5
  9
$DIMCEN
 40
1.5
  9
$DIMTSZ
 40
0.0
  9
$DIMTOL
 70
     0
  9
$DIMLIM
 70
     0
  9
$DIMTIH
 70
     0
  9
$DIMTOH
 70
     0
  9
$DIMSE1
 70
     0
  9
$DIMSE2
 70
     0
  9
$DIMTAD
 70
     1
  9
$DIMZIN
 70
     8
  9
$DIMBLK
  1

  9
$DIMASO
 70
     1
  9
$DIMSHO
 70
     0
  9
$DIMPOST
  1

  9
$DIMAPOST
  1

  9
$DIMALT
 70
     0
  9
$DIMALTD
 70
     2
  9
$DIMALTF
 40
25.3999999999999986
  9
$DIMLFAC
 40
1.0
  9
$DIMTOFL
 70
     1
  9
$DIMTVP
 40
0.0
  9
$DIMTIX
 70
     0
  9
$DIMSOXD
 70
     0
  9
$DIMSAH
 70
     0
  9
$DIMBLK1
  1

  9
$DIMBLK2
  1

  9
$DIMSTYLE
  2
STANDARD
  9
$DIMCLRD
 70
     0
  9
$DIMCLRE
 70
     0
  9
$DIMCLRT
 70
     1
  9
$DIMTFAC
 40
0.5
  9
$DIMGAP
 40
1.5
  9
$LUNITS
 70
     2
  9
$LUPREC
 70
     2
  9
$SKETCHINC
 40
1.0
  9
$FILLETRAD
 40
0.0
  9
$AUNITS
 70
     0
  9
$AUPREC
 70
     0
  9
$MENU
  1
ACAD
  9
$ELEVATION
 40
0.0
  9
$PELEVATION
 40
0.0
  9
$THICKNESS
 40
0.0
  9
$LIMCHECK
 70
     0
  9
$BLIPMODE
 70
     0
  9
$CHAMFERA
 40
0.0
  9
$CHAMFERB
 40
0.0
  9
$SKPOLY
 70
     0
  9
$TDCREATE
 40
2451879.5874421298503876
  9
$TDUPDATE
 40
2458402.3154629631899297
  9
$TDINDWG
 40
0.1006941782
  9
$TDUSRTIMER
 40
0.1006941782
  9
$USRTIMER
 70
     1
  9
$ANGBASE
 50
0.0
  9
$ANGDIR
 70
     0
  9
$PDMODE
 70
     0
  9
$PDSIZE
 40
0.0
  9
$PLINEWID
 40
0.0
  9
$COORDS
 70
     1
  9
$SPLFRAME
 70
     0
  9
$SPLINETYPE
 70
     6
  9
$SPLINESEGS
 70
     8
  9
$ATTDIA
 70
     0
  9
$ATTREQ
 70
     0
  9
$HANDLING
 70
     1
  9
$HANDSEED
  5
2FD1
  9
$SURFTAB1
 70
     6
  9
$SURFTAB2
 70
     6
  9
$SURFTYPE
 70
     6
  9
$SURFU
 70
     6
  9
$SURFV
 70
     6
  9
$UCSNAME
  2

  9
$UCSORG
 10
0.0
 20
0.0
 30
0.0
  9
$UCSXDIR
 10
1.0
 20
0.0
 30
0.0
  9
$UCSYDIR
 10
0.0
 20
1.0
 30
0.0
  9
$PUCSNAME
  2

  9
$PUCSORG
 10
0.0
 20
0.0
 30
0.0
  9
$PUCSXDIR
 10
1.0
 20
0.0
 30
0.0
  9
$PUCSYDIR
 10
0.0
 20
1.0
 30
0.0
  9
$USERI1
 70
     0
  9
$USERI2
 70
     0
  9
$USERI3
 70
     0
  9
$USERI4
 70
     0
  9
$USERI5
 70
     0
  9
$USERR1
 40
0.0
  9
$USERR2
 40
0.0
  9
$USERR3
 40
0.0
  9
$USERR4
 40
0.0
  9
$USERR5
 40
0.0
  9
$WORLDVIEW
 70
     1
  9
$SHADEDGE
 70
     3
  9
$SHADEDIF
 70
    70
  9
$TILEMODE
 70
     1
  9
$MAXACTVP
 70
    16
  9
$PLIMCHECK
 70
     0
  9
$PEXTMIN
 10
-0.3858800460759042
 20
-0.5155759843245633
 30
-0.000000000000013
  9
$PEXTMAX
 10
16.3335624180287198
 20
22.8266727735095891
 30
0.0000000000000023
  9
$PLIMMIN
 10
-0.2500002402958907
 20
-0.2499999962453767
  9
$PLIMMAX
 10
10.7499995194082203
 20
8.2499997634587334
  9
$UNITMODE
 70
     0
  9
$VISRETAIN
 70
     0
  9
$PLINEGEN
 70
     0
  9
$PSLTSCALE
 70
     0
  0
ENDSEC
  0
SECTION
  2
TABLES
  0
TABLE
  2
VPORT
 70
     1
  0
VPORT
  2
*ACTIVE
 70
     0
 10
0.0
 20
0.0
 11
1.0
 21
1.0
 12
-0.0000000000002842
 22
-55.600776330629941
 13
0.0
 23
0.0
 14
1.0
 24
1.0
 15
10.0
 25
10.0
 16
-0.0000000000001683
 26
0.0
 36
757.8879702150371713
 17
0.0
 27
68.2740211486816406
 37
-0.000000000000014
 40
377.4564044563946936
 41
1.887640449438202
 42
50.0
 43
0.0
 44
0.0
 50
0.0
 51
0.0
 71
     0
 72
  1500
 73
     1
 74
     0
 75
     0
 76
     0
 77
     0
 78
     0
  0
ENDTAB
  0
TABLE
  2
LTYPE
 70
     4
  0
LTYPE
  2
AUSGEZOGEN
 70
     0
  3
Ausgezogene Linie
 72
    65
 73
     0
 40
0.0
  0
LTYPE
  2
CONTINUOUS
 70
     0
  3
Solid line
 72
    65
 73
     0
 40
0.0
  0
LTYPE
  2
VERDECKT
 70
     0
  3
Verdeckt __ __ __ __ __ __ __ __ __ __ __ __ __
 72
    65
 73
     2
 40
0.375
 49
0.25
 49
-0.125
  0
ENDTAB
  0
TABLE
  2
LAYER
 70
    12
  0
LAYER
  2
0
 70
     0
 62
     7
  6
AUSGEZOGEN
  0
LAYER
  2
DEFPOINTS
 70
     0
 62
     7
  6
AUSGEZOGEN
  0
LAYER
  2
TEXT35
 70
     0
 62
     1
  6
AUSGEZOGEN
  0
ENDTAB
  0
TABLE
  2
STYLE
 70
     4
  0
STYLE
  2
STANDARD
 70
     0
 40
0.0
 41
0.8
 50
0.0
 71
     0
 42
3.5
  3
simplex.shx
  4

  0
ENDTAB
  0
TABLE
  2
VIEW
 70
     2
  0
ENDTAB
  0
TABLE
  2
UCS
 70
     0
  0
ENDTAB
  0
TABLE
  2
APPID
 70
     9
  0
APPID
  2
ACAD
 70
     0
  0
APPID
  2
ACAD_NAV_VCDISPLAY
 70
     0
  0
APPID
  2
ACAD_PSEXT
 70
     0
  0
APPID
  2
ACAECLAYERSTANDARD
 70
     0
  0
APPID
  2
ACCMTRANSPARENCY
 70
     0
  0
APPID
  2
ACAD_EXEMPT_FROM_CAD_STANDARDS
 70
     0
  0
APPID
  2
ACAD_MLEADERVER
 70
     0
  0
APPID
  2
ACAD_OBJECT_CHANGE_GUID
 70
     0
  0
APPID
  2
ACADANNOMONITORALERTICONDI
 70
     0
  0
ENDTAB
  0
TABLE
  2
DIMSTYLE
 70
     2
  0
DIMSTYLE
  2
STANDARD
 70
     0
  3

  4

  5

  6

  7

 40
0.0
 41
3.5
 42
1.0
 43
8.0
 44
1.5
 45
0.0
 46
0.0
 47
0.5
 48
0.0
140
3.5
141
1.5
142
0.0
143
25.3999999999999986
144
1.0
145
0.0
146
1.0
147
1.0
 71
     0
 72
     0
 73
     0
 74
     0
 75
     0
 76
     0
 77
     1
 78
     8
170
     0
171
     2
172
     1
173
     0
174
     0
175
     0
176
     0
177
     0
178
     1
  0
ENDTAB
  0
ENDSEC
  0
SECTION
  2
BLOCKS
  0
BLOCK
  8
0
  2
$MODEL_SPACE
 70
     0
 10
0.0
 20
0.0
 30
0.0
  3
$MODEL_SPACE
  1

  0
ENDBLK
  5
1DFE
  8
0
  0
BLOCK
 67
     1
  8
0
  2
$PAPER_SPACE
 70
     0
 10
0.0
 20
0.0
 30
0.0
  3
$PAPER_SPACE
  1

  0
ENDBLK
  5
1DFC
 67
     1
  8
0
  0
BLOCK
  8
0
  2
A$C165F57EA
 70
     0
 10
0.0
 20
0.0
 30
0.0
  3
A$C165F57EA
  1

  0
LINE
  5
2DD7
  8
0
  6
AUSGEZOGEN
 62
     3
 10
43.2527355812501284
 20
122.5699999999998937
 30
-0.0000000000000272
 11
33.6601938457109782
 21
122.5699999999998937
 31
-0.0000000000000272
210
0.0
220
1.0
230
-0.0000000000000002
  0
LINE
  5
2DD8
  8
0
  6
AUSGEZOGEN
 62
     3
 10
43.2527355812501284
 20
121.0699999999997942
 30
-0.0000000000000269
 11
33.6601938457109782
 21
121.0699999999997942
 31
-0.0000000000000269
210
0.0
220
1.0
230
-0.0000000000000002
  0
LINE
  5
2DD9
  8
0
  6
AUSGEZOGEN
 62
     3
 10
43.2527355812501284
 20
122.5699999999998937
 30
-0.0000000000000272
 11
44.0982044914695734
 21
122.5699999999998937
 31
-0.0000000000000272
210
0.0
220
1.0
230
-0.0000000000000002
  0
LINE
  5
2DDA
  8
0
  6
AUSGEZOGEN
 62
     3
 10
43.2527355812501284
 20
121.0699999999997942
 30
-0.0000000000000269
 11
44.0982044914695734
 21
121.0699999999997942
 31
-0.0000000000000269
210
0.0
220
1.0
230
-0.0000000000000002
  0
LINE
  5
2DDB
  8
0
  6
AUSGEZOGEN
 62
     3
 10
44.0982044914696303
 20
122.5699999999998937
 30
-0.0000000000000272
 11
46.3826299451475279
 21
122.5699999999998937
 31
-0.0000000000000272
210
0.0
220
1.0
230
-0.0000000000000002
  0
LINE
  5
2DDC
  8
0
  6
AUSGEZOGEN
 62
     3
 10
44.0982044914696303
 20
121.0699999999997942
 30
-0.0000000000000269
 11
46.3826299451475279
 21
121.0699999999997942
 31
-0.0000000000000269
210
0.0
220
1.0
230
-0.0000000000000002
  0
LINE
  5
2DDD
  8
0
  6
AUSGEZOGEN
 62
     3
 10
46.3826299451475279
 20
122.5699999999998937
 30
-0.0000000000000272
 11
46.6579013522547186
 21
122.5699999999998937
 31
-0.0000000000000272
210
0.0
220
1.0
230
-0.0000000000000002
  0
LINE
  5
2DDE
  8
0
  6
AUSGEZOGEN
 62
     3
 10
46.3826299451475279
 20
121.0699999999997942
 30
-0.0000000000000269
 11
46.6579013522547186
 21
121.0699999999997942
 31
-0.0000000000000269
210
0.0
220
1.0
230
-0.0000000000000002
  0
LINE
  5
2DDF
  8
0
  6
AUSGEZOGEN
 62
     3
 10
55.5500759498705676
 20
122.5699999999998937
 30
-0.0000000000000272
 11
46.6579013522547186
 21
122.5699999999998937
 31
-0.0000000000000272
210
0.0
220
1.0
230
-0.0000000000000002
  0
LINE
  5
2DE0
  8
0
  6
AUSGEZOGEN
 62
     3
 10
55.5500759498705676
 20
121.0699999999997942
 30
-0.0000000000000269
 11
46.6579013522547186
 21
121.0699999999997942
 31
-0.0000000000000269
210
0.0
220
1.0
230
-0.0000000000000002
  0
LINE
  5
2DE1
  8
0
  6
AUSGEZOGEN
 62
     3
 10
55.5500759498705889
 20
122.5699999999998937
 30
-0.0000000000000272
 11
56.2729056353832675
 21
122.5699999999998937
 31
-0.0000000000000272
210
0.0
220
1.0
230
-0.0000000000000002
  0
LINE
  5
2DE2
  8
0
  6
AUSGEZOGEN
 62
     3
 10
55.5500759498705889
 20
121.0699999999997942
 30
-0.0000000000000269
 11
56.2729056353832675
 21
121.0699999999997942
 31
-0.0000000000000269
210
0.0
220
1.0
230
-0.0000000000000002
  0
LINE
  5
2DE3
  8
0
  6
AUSGEZOGEN
 62
     3
 10
56.2729056353832675
 20
122.5699999999998937
 30
-0.0000000000000272
 11
57.7395970615250533
 21
122.5699999999998937
 31
-0.0000000000000272
210
0.0
220
1.0
230
-0.0000000000000002
  0
LINE
  5
2DE4
  8
0
  6
AUSGEZOGEN
 62
     3
 10
56.2729056353832675
 20
121.0699999999997942
 30
-0.0000000000000269
 11
57.7395970615250533
 21
121.0699999999997942
 31
-0.0000000000000269
210
0.0
220
1.0
230
-0.0000000000000002
  0
LINE
  5
2DE5
  8
0
  6
AUSGEZOGEN
 62
     3
 10
57.7395970615250391
 20
122.5699999999998937
 30
-0.0000000000000272
 11
57.8374158574387209
 21
122.5699999999998937
 31
-0.0000000000000272
210
0.0
220
1.0
230
-0.0000000000000002
  0
LINE
  5
2DE6
  8
0
  6
AUSGEZOGEN
 62
     3
 10
57.7395970615250391
 20
121.0699999999997942
 30
-0.0000000000000269
 11
57.8374158574387209
 21
121.0699999999997942
 31
-0.0000000000000269
210
0.0
220
1.0
230
-0.0000000000000002
  0
LINE
  5
2DE7
  8
0
  6
AUSGEZOGEN
 62
     3
 10
62.4097878443801619
 20
122.5699999999998937
 30
-0.0000000000000272
 11
57.8374158574387209
 21
122.5699999999998937
 31
-0.0000000000000272
210
0.0
220
1.0
230
-0.0000000000000002
  0
LINE
  5
2DE8
  8
0
  6
AUSGEZOGEN
 62
     3
 10
62.4097878443801619
 20
121.0699999999997942
 30
-0.0000000000000269
 11
57.8374158574387209
 21
121.0699999999997942
 31
-0.0000000000000269
210
0.0
220
1.0
230
-0.0000000000000002
  0
LINE
  5
2DE9
  8
0
  6
AUSGEZOGEN
 62
     3
 10
62.4097878443801619
 20
122.5699999999998937
 30
-0.0000000000000272
 11
62.9392226993174972
 21
122.5699999999998937
 31
-0.0000000000000272
210
0.0
220
1.0
230
-0.0000000000000002
  0
LINE
  5
2DEA
  8
0
  6
AUSGEZOGEN
 62
     3
 10
62.4097878443801619
 20
121.0699999999997942
 30
-0.0000000000000269
 11
62.9392226993174972
 21
121.0699999999997942
 31
-0.0000000000000269
210
0.0
220
1.0
230
-0.0000000000000002
  0
LINE
  5
2DEB
  8
0
  6
AUSGEZOGEN
 62
     3
 10
62.9392226993174972
 20
122.5699999999998937
 30
-0.0000000000000272
 11
63.4446101220922927
 21
122.5699999999998937
 31
-0.0000000000000272
210
0.0
220
1.0
230
-0.0000000000000002
  0
LINE
  5
2DEC
  8
0
  6
AUSGEZOGEN
 62
     3
 10
62.9392226993174972
 20
121.0699999999997942
 30
-0.0000000000000269
 11
63.4446101220922927
 21
121.0699999999997942
 31
-0.0000000000000269
210
0.0
220
1.0
230
-0.0000000000000002
  0
LINE
  5
2DED
  8
0
  6
AUSGEZOGEN
 62
     3
 10
63.4446101220922927
 20
122.5699999999998937
 30
-0.0000000000000272
 11
63.4532880889345208
 21
122.5699999999998937
 31
-0.0000000000000272
210
0.0
220
1.0
230
-0.0000000000000002
  0
LINE
  5
2DEE
  8
0
  6
AUSGEZOGEN
 62
     3
 10
63.4446101220922927
 20
121.0699999999997942
 30
-0.0000000000000269
 11
63.4532880889345208
 21
121.0699999999997942
 31
-0.0000000000000269
210
0.0
220
1.0
230
-0.0000000000000002
  0
LINE
  5
2DEF
  8
0
  6
AUSGEZOGEN
 62
     3
 10
-63.4532880889350892
 20
122.5699999999998937
 30
-0.0000000000000272
 11
-63.44461012209279
 21
122.5699999999998937
 31
-0.0000000000000272
210
0.0
220
1.0
230
-0.0000000000000002
  0
LINE
  5
2DF0
  8
0
  6
AUSGEZOGEN
 62
     3
 10
-63.4532880889350892
 20
121.0699999999997942
 30
-0.0000000000000269
 11
-63.44461012209279
 21
121.0699999999997942
 31
-0.0000000000000269
210
0.0
220
1.0
230
-0.0000000000000002
  0
LINE
  5
2DF1
  8
0
  6
AUSGEZOGEN
 62
     3
 10
-63.44461012209279
 20
122.5699999999998937
 30
-0.0000000000000272
 11
-62.9392226993180088
 21
122.5699999999998937
 31
-0.0000000000000272
210
0.0
220
1.0
230
-0.0000000000000002
  0
LINE
  5
2DF2
  8
0
  6
AUSGEZOGEN
 62
     3
 10
-63.44461012209279
 20
121.0699999999997942
 30
-0.0000000000000269
 11
-62.9392226993180088
 21
121.0699999999997942
 31
-0.0000000000000269
210
0.0
220
1.0
230
-0.0000000000000002
  0
LINE
  5
2DF3
  8
0
  6
AUSGEZOGEN
 62
     3
 10
-62.939222699317952
 20
122.5699999999998937
 30
-0.0000000000000272
 11
-62.4097878443807872
 21
122.5699999999998937
 31
-0.0000000000000272
210
0.0
220
1.0
230
-0.0000000000000002
  0
LINE
  5
2DF4
  8
0
  6
AUSGEZOGEN
 62
     3
 10
-62.939222699317952
 20
121.0699999999997942
 30
-0.0000000000000269
 11
-62.4097878443807872
 21
121.0699999999997942
 31
-0.0000000000000269
210
0.0
220
1.0
230
-0.0000000000000002
  0
LINE
  5
2DF5
  8
0
  6
AUSGEZOGEN
 62
     3
 10
-57.8374158574391686
 20
122.5699999999998937
 30
-0.0000000000000272
 11
-62.4097878443807872
 21
122.5699999999998937
 31
-0.0000000000000272
210
0.0
220
1.0
230
-0.0000000000000002
  0
LINE
  5
2DF6
  8
0
  6
AUSGEZOGEN
 62
     3
 10
-57.8374158574391686
 20
121.0699999999997942
 30
-0.0000000000000269
 11
-62.4097878443807872
 21
121.0699999999997942
 31
-0.0000000000000269
210
0.0
220
1.0
230
-0.0000000000000002
  0
LINE
  5
2DF7
  8
0
  6
AUSGEZOGEN
 62
     3
 10
-57.8374158574391473
 20
122.5699999999998937
 30
-0.0000000000000272
 11
-57.739597061525501
 21
122.5699999999998937
 31
-0.0000000000000272
210
0.0
220
1.0
230
-0.0000000000000002
  0
LINE
  5
2DF8
  8
0
  6
AUSGEZOGEN
 62
     3
 10
-57.8374158574391473
 20
121.0699999999997942
 30
-0.0000000000000269
 11
-57.739597061525501
 21
121.0699999999997942
 31
-0.0000000000000269
210
0.0
220
1.0
230
-0.0000000000000002
  0
LINE
  5
2DF9
  8
0
  6
AUSGEZOGEN
 62
     3
 10
-57.7395970615255081
 20
122.5699999999998937
 30
-0.0000000000000272
 11
-56.2729056353837791
 21
122.5699999999998937
 31
-0.0000000000000272
210
0.0
220
1.0
230
-0.0000000000000002
  0
LINE
  5
2DFA
  8
0
  6
AUSGEZOGEN
 62
     3
 10
-57.7395970615255081
 20
121.0699999999997942
 30
-0.0000000000000269
 11
-56.2729056353837791
 21
121.0699999999997942
 31
-0.0000000000000269
210
0.0
220
1.0
230
-0.0000000000000002
  0
LINE
  5
2DFB
  8
0
  6
AUSGEZOGEN
 62
     3
 10
-56.272905635383772
 20
122.5699999999998937
 30
-0.0000000000000272
 11
-55.5500759498710934
 21
122.5699999999998937
 31
-0.0000000000000272
210
0.0
220
1.0
230
-0.0000000000000002
  0
LINE
  5
2DFC
  8
0
  6
AUSGEZOGEN
 62
     3
 10
-56.272905635383772
 20
121.0699999999997942
 30
-0.0000000000000269
 11
-55.5500759498710934
 21
121.0699999999997942
 31
-0.0000000000000269
210
0.0
220
1.0
230
-0.0000000000000002
  0
LINE
  5
2DFD
  8
0
  6
AUSGEZOGEN
 62
     3
 10
-46.6579013522550596
 20
122.5699999999998937
 30
-0.0000000000000272
 11
-55.5500759498710934
 21
122.5699999999998937
 31
-0.0000000000000272
210
0.0
220
1.0
230
-0.0000000000000002
  0
LINE
  5
2DFE
  8
0
  6
AUSGEZOGEN
 62
     3
 10
-46.6579013522550596
 20
121.0699999999997942
 30
-0.0000000000000269
 11
-55.5500759498710934
 21
121.0699999999997942
 31
-0.0000000000000269
210
0.0
220
1.0
230
-0.0000000000000002
  0
LINE
  5
2DFF
  8
0
  6
AUSGEZOGEN
 62
     3
 10
-46.6579013522550667
 20
122.5699999999998937
 30
-0.0000000000000272
 11
-46.3826299451479827
 21
122.5699999999998937
 31
-0.0000000000000272
210
0.0
220
1.0
230
-0.0000000000000002
  0
LINE
  5
2E00
  8
0
  6
AUSGEZOGEN
 62
     3
 10
-46.6579013522550667
 20
121.0699999999997942
 30
-0.0000000000000269
 11
-46.3826299451479827
 21
121.0699999999997942
 31
-0.0000000000000269
210
0.0
220
1.0
230
-0.0000000000000002
  0
LINE
  5
2E01
  8
0
  6
AUSGEZOGEN
 62
     3
 10
-46.3826299451479684
 20
122.5699999999998937
 30
-0.0000000000000272
 11
-44.0982044914700211
 21
122.5699999999998937
 31
-0.0000000000000272
210
0.0
220
1.0
230
-0.0000000000000002
  0
LINE
  5
2E02
  8
0
  6
AUSGEZOGEN
 62
     3
 10
-46.3826299451479684
 20
121.0699999999997942
 30
-0.0000000000000269
 11
-44.0982044914700211
 21
121.0699999999997942
 31
-0.0000000000000269
210
0.0
220
1.0
230
-0.0000000000000002
  0
LINE
  5
2E03
  8
0
  6
AUSGEZOGEN
 62
     3
 10
-44.0982044914700779
 20
122.5699999999998937
 30
-0.0000000000000272
 11
-43.2527355812505903
 21
122.5699999999998937
 31
-0.0000000000000272
210
0.0
220
1.0
230
-0.0000000000000002
  0
LINE
  5
2E04
  8
0
  6
AUSGEZOGEN
 62
     3
 10
-44.0982044914700779
 20
121.0699999999997942
 30
-0.0000000000000269
 11
-43.2527355812505903
 21
121.0699999999997942
 31
-0.0000000000000269
210
0.0
220
1.0
230
-0.0000000000000002
  0
LINE
  5
2E05
  8
0
  6
AUSGEZOGEN
 62
     3
 10
-33.6601938457114329
 20
122.5699999999998937
 30
-0.0000000000000272
 11
-43.2527355812505903
 21
122.5699999999998937
 31
-0.0000000000000272
210
0.0
220
1.0
230
-0.0000000000000002
  0
LINE
  5
2E06
  8
0
  6
AUSGEZOGEN
 62
     3
 10
-33.6601938457114329
 20
121.0699999999997942
 30
-0.0000000000000269
 11
-43.2527355812505903
 21
121.0699999999997942
 31
-0.0000000000000269
210
0.0
220
1.0
230
-0.0000000000000002
  0
LINE
  5
2E07
  8
0
  6
AUSGEZOGEN
 62
     3
 10
-32.5160710400760991
 20
122.5699999999998937
 30
-0.0000000000000272
 11
-33.6601938457114329
 21
122.5699999999998937
 31
-0.0000000000000272
210
0.0
220
1.0
230
-0.0000000000000002
  0
LINE
  5
2E08
  8
0
  6
AUSGEZOGEN
 62
     3
 10
-32.5160710400760991
 20
121.0699999999997942
 30
-0.0000000000000269
 11
-33.6601938457114329
 21
121.0699999999997942
 31
-0.0000000000000269
210
0.0
220
1.0
230
-0.0000000000000002
  0
LINE
  5
2E09
  8
0
  6
AUSGEZOGEN
 62
     3
 10
-30.9967616860029196
 20
122.5699999999998937
 30
-0.0000000000000272
 11
-32.5160710400760991
 21
122.5699999999998937
 31
-0.0000000000000272
210
0.0
220
1.0
230
-0.0000000000000002
  0
LINE
  5
2E0A
  8
0
  6
AUSGEZOGEN
 62
     3
 10
-30.9967616860029196
 20
121.0699999999997942
 30
-0.0000000000000269
 11
-32.5160710400760991
 21
121.0699999999997942
 31
-0.0000000000000269
210
0.0
220
1.0
230
-0.0000000000000002
  0
LINE
  5
2E0B
  8
0
  6
AUSGEZOGEN
 62
     3
 10
-30.9967616860028805
 20
122.5699999999998937
 30
-0.0000000000000272
 11
-30.4854078429539186
 21
122.5699999999998937
 31
-0.0000000000000272
210
0.0
220
1.0
230
-0.0000000000000002
  0
LINE
  5
2E0C
  8
0
  6
AUSGEZOGEN
 62
     3
 10
-30.9967616860028805
 20
121.0699999999997942
 30
-0.0000000000000269
 11
-30.4854078429539186
 21
121.0699999999997942
 31
-0.0000000000000269
210
0.0
220
1.0
230
-0.0000000000000002
  0
LINE
  5
2E0D
  8
0
  6
AUSGEZOGEN
 62
     3
 10
-30.4854078429539186
 20
122.5699999999998937
 30
-0.0000000000000272
 11
-27.6068638416737713
 21
122.5699999999998937
 31
-0.0000000000000272
210
0.0
220
1.0
230
-0.0000000000000002
  0
LINE
  5
2E0E
  8
0
  6
AUSGEZOGEN
 62
     3
 10
-30.4854078429539186
 20
121.0699999999997942
 30
-0.0000000000000269
 11
-27.6068638416737713
 21
121.0699999999997942
 31
-0.0000000000000269
210
0.0
220
1.0
230
-0.0000000000000002
  0
LINE
  5
2E0F
  8
0
  6
AUSGEZOGEN
 62
     3
 10
-27.6068638416737606
 20
122.5699999999998937
 30
-0.0000000000000272
 11
-26.7215160944081198
 21
122.5699999999998937
 31
-0.0000000000000272
210
0.0
220
1.0
230
-0.0000000000000002
  0
LINE
  5
2E10
  8
0
  6
AUSGEZOGEN
 62
     3
 10
-27.6068638416737606
 20
121.0699999999997942
 30
-0.0000000000000269
 11
-26.7215160944081198
 21
121.0699999999997942
 31
-0.0000000000000269
210
0.0
220
1.0
230
-0.0000000000000002
  0
LINE
  5
2E11
  8
0
  6
AUSGEZOGEN
 62
     3
 10
-18.0679591791117709
 20
122.5699999999998937
 30
-0.0000000000000272
 11
-26.7215160944081198
 21
122.5699999999998937
 31
-0.0000000000000272
210
0.0
220
1.0
230
-0.0000000000000002
  0
LINE
  5
2E12
  8
0
  6
AUSGEZOGEN
 62
     3
 10
-18.0679591791117709
 20
121.0699999999997942
 30
-0.0000000000000269
 11
-26.7215160944081198
 21
121.0699999999997942
 31
-0.0000000000000269
210
0.0
220
1.0
230
-0.0000000000000002
  0
LINE
  5
2E13
  8
0
  6
AUSGEZOGEN
 62
     3
 10
-16.7229621551838896
 20
122.5699999999998937
 30
-0.0000000000000272
 11
-18.0679591791118312
 21
122.5699999999998937
 31
-0.0000000000000272
210
0.0
220
1.0
230
-0.0000000000000002
  0
LINE
  5
2E14
  8
0
  6
AUSGEZOGEN
 62
     3
 10
-16.7229621551838896
 20
121.0699999999997942
 30
-0.0000000000000269
 11
-18.0679591791118312
 21
121.0699999999997942
 31
-0.0000000000000269
210
0.0
220
1.0
230
-0.0000000000000002
  0
LINE
  5
2E15
  8
0
  6
AUSGEZOGEN
 62
     3
 10
-12.3137546781919092
 20
122.5699999999998937
 30
-0.0000000000000272
 11
-16.7229621551838896
 21
122.5699999999998937
 31
-0.0000000000000272
210
0.0
220
1.0
230
-0.0000000000000002
  0
LINE
  5
2E16
  8
0
  6
AUSGEZOGEN
 62
     3
 10
-12.3137546781919092
 20
121.0699999999997942
 30
-0.0000000000000269
 11
-16.7229621551838896
 21
121.0699999999997942
 31
-0.0000000000000269
210
0.0
220
1.0
230
-0.0000000000000002
  0
LINE
  5
2E17
  8
0
  6
AUSGEZOGEN
 62
     3
 10
-12.3137546781919198
 20
122.5699999999998937
 30
-0.0000000000000272
 11
-11.6040616167655308
 21
122.5699999999998937
 31
-0.0000000000000272
210
0.0
220
1.0
230
-0.0000000000000002
  0
LINE
  5
2E18
  8
0
  6
AUSGEZOGEN
 62
     3
 10
-12.3137546781919198
 20
121.0699999999997942
 30
-0.0000000000000269
 11
-11.6040616167655308
 21
121.0699999999997942
 31
-0.0000000000000269
210
0.0
220
1.0
230
-0.0000000000000002
  0
LINE
  5
2E19
  8
0
  6
AUSGEZOGEN
 62
     3
 10
-11.6040616167655308
 20
122.5699999999998937
 30
-0.0000000000000272
 11
-8.4131710107238877
 21
122.5699999999998937
 31
-0.0000000000000272
210
0.0
220
1.0
230
-0.0000000000000002
  0
LINE
  5
2E1A
  8
0
  6
AUSGEZOGEN
 62
     3
 10
-11.6040616167655308
 20
121.0699999999998937
 30
-0.0000000000000269
 11
-8.4131710107238877
 21
121.0699999999998937
 31
-0.0000000000000269
210
0.0
220
1.0
230
-0.0000000000000002
  0
LINE
  5
2E1B
  8
0
  6
AUSGEZOGEN
 62
     3
 10
-8.4131710107238842
 20
122.5699999999998937
 30
-0.0000000000000272
 11
-7.574608432494756
 21
122.5699999999998937
 31
-0.0000000000000272
210
0.0
220
1.0
230
-0.0000000000000002
  0
LINE
  5
2E1C
  8
0
  6
AUSGEZOGEN
 62
     3
 10
-8.4131710107238842
 20
121.0699999999997942
 30
-0.0000000000000269
 11
-7.574608432494756
 21
121.0699999999997942
 31
-0.0000000000000269
210
0.0
220
1.0
230
-0.0000000000000002
  0
LINE
  5
2E1D
  8
0
  6
AUSGEZOGEN
 62
     3
 10
-0.7071067811867806
 20
122.5699999999998937
 30
-0.0000000000000272
 11
-7.574608432494756
 21
122.5699999999998937
 31
-0.0000000000000272
210
0.0
220
1.0
230
-0.0000000000000002
  0
LINE
  5
2E1E
  8
0
  6
AUSGEZOGEN
 62
     3
 10
-0.7071067811867806
 20
121.0699999999997942
 30
-0.0000000000000269
 11
-7.574608432494756
 21
121.0699999999997942
 31
-0.0000000000000269
210
0.0
220
1.0
230
-0.0000000000000002
  0
LINE
  5
2E1F
  8
0
  6
AUSGEZOGEN
 62
     3
 10
0.7071067811863259
 20
122.5699999999998937
 30
-0.0000000000000272
 11
-0.7071067811867806
 21
122.5699999999998937
 31
-0.0000000000000272
210
0.0
220
1.0
230
-0.0000000000000002
  0
LINE
  5
2E20
  8
0
  6
AUSGEZOGEN
 62
     3
 10
0.7071067811863259
 20
121.0699999999997942
 30
-0.0000000000000269
 11
-0.7071067811867806
 21
121.0699999999997942
 31
-0.0000000000000269
210
0.0
220
1.0
230
-0.0000000000000002
  0
LINE
  5
2E21
  8
0
  6
AUSGEZOGEN
 62
     3
 10
7.5746084324941867
 20
122.5699999999998937
 30
-0.0000000000000272
 11
0.7071067811863259
 21
122.5699999999998937
 31
-0.0000000000000272
210
0.0
220
1.0
230
-0.0000000000000002
  0
LINE
  5
2E22
  8
0
  6
AUSGEZOGEN
 62
     3
 10
7.5746084324941867
 20
121.0699999999997942
 30
-0.0000000000000269
 11
0.7071067811863259
 21
121.0699999999997942
 31
-0.0000000000000269
210
0.0
220
1.0
230
-0.0000000000000002
  0
LINE
  5
2E23
  8
0
  6
AUSGEZOGEN
 62
     3
 10
7.5746084324941991
 20
122.5699999999998937
 30
-0.0000000000000272
 11
8.4131710107233175
 21
122.5699999999998937
 31
-0.0000000000000272
210
0.0
220
1.0
230
-0.0000000000000002
  0
LINE
  5
2E24
  8
0
  6
AUSGEZOGEN
 62
     3
 10
7.5746084324941991
 20
121.0699999999997942
 30
-0.0000000000000269
 11
8.4131710107233175
 21
121.0699999999997942
 31
-0.0000000000000269
210
0.0
220
1.0
230
-0.0000000000000002
  0
LINE
  5
2E25
  8
0
  6
AUSGEZOGEN
 62
     3
 10
8.4131710107233193
 20
122.5699999999998937
 30
-0.0000000000000272
 11
11.6040616167649695
 21
122.5699999999998937
 31
-0.0000000000000272
210
0.0
220
1.0
230
-0.0000000000000002
  0
LINE
  5
2E26
  8
0
  6
AUSGEZOGEN
 62
     3
 10
8.4131710107233193
 20
121.0699999999998937
 30
-0.0000000000000269
 11
11.6040616167649695
 21
121.0699999999998937
 31
-0.0000000000000269
210
0.0
220
1.0
230
-0.0000000000000002
  0
LINE
  5
2E27
  8
0
  6
AUSGEZOGEN
 62
     3
 10
11.6040616167649606
 20
122.5699999999998937
 30
-0.0000000000000272
 11
12.3137546781913993
 21
122.5699999999998937
 31
-0.0000000000000272
210
0.0
220
1.0
230
-0.0000000000000002
  0
LINE
  5
2E28
  8
0
  6
AUSGEZOGEN
 62
     3
 10
11.6040616167649606
 20
121.0699999999997942
 30
-0.0000000000000269
 11
12.3137546781913993
 21
121.0699999999997942
 31
-0.0000000000000269
210
0.0
220
1.0
230
-0.0000000000000002
  0
LINE
  5
2E29
  8
0
  6
AUSGEZOGEN
 62
     3
 10
16.7229621551833816
 20
122.5699999999998937
 30
-0.0000000000000272
 11
12.3137546781913993
 21
122.5699999999998937
 31
-0.0000000000000272
210
0.0
220
1.0
230
-0.0000000000000002
  0
LINE
  5
2E2A
  8
0
  6
AUSGEZOGEN
 62
     3
 10
16.7229621551833816
 20
121.0699999999997942
 30
-0.0000000000000269
 11
12.3137546781913993
 21
121.0699999999997942
 31
-0.0000000000000269
210
0.0
220
1.0
230
-0.0000000000000002
  0
LINE
  5
2E2B
  8
0
  6
AUSGEZOGEN
 62
     3
 10
18.067959179111309
 20
122.5699999999998937
 30
-0.0000000000000272
 11
16.72296215518341
 21
122.5699999999998937
 31
-0.0000000000000272
210
0.0
220
1.0
230
-0.0000000000000002
  0
LINE
  5
2E2C
  8
0
  6
AUSGEZOGEN
 62
     3
 10
18.067959179111309
 20
121.0699999999997942
 30
-0.0000000000000269
 11
16.72296215518341
 21
121.0699999999997942
 31
-0.0000000000000269
210
0.0
220
1.0
230
-0.0000000000000002
  0
LINE
  5
2E2D
  8
0
  6
AUSGEZOGEN
 62
     3
 10
26.7215160944076011
 20
122.5699999999998937
 30
-0.0000000000000272
 11
18.067959179111309
 21
122.5699999999998937
 31
-0.0000000000000272
210
0.0
220
1.0
230
-0.0000000000000002
  0
LINE
  5
2E2E
  8
0
  6
AUSGEZOGEN
 62
     3
 10
26.7215160944076011
 20
121.0699999999997942
 30
-0.0000000000000269
 11
18.067959179111309
 21
121.0699999999997942
 31
-0.0000000000000269
210
0.0
220
1.0
230
-0.0000000000000002
  0
LINE
  5
2E2F
  8
0
  6
AUSGEZOGEN
 62
     3
 10
26.7215160944076118
 20
122.5699999999998937
 30
-0.0000000000000272
 11
27.6068638416733201
 21
122.5699999999998937
 31
-0.0000000000000272
210
0.0
220
1.0
230
-0.0000000000000002
  0
LINE
  5
2E30
  8
0
  6
AUSGEZOGEN
 62
     3
 10
26.7215160944076118
 20
121.0699999999997942
 30
-0.0000000000000269
 11
27.6068638416733201
 21
121.0699999999997942
 31
-0.0000000000000269
210
0.0
220
1.0
230
-0.0000000000000002
  0
LINE
  5
2E31
  8
0
  6
AUSGEZOGEN
 62
     3
 10
27.6068638416733094
 20
122.5699999999998937
 30
-0.0000000000000272
 11
30.4854078429535207
 21
122.5699999999998937
 31
-0.0000000000000272
210
0.0
220
1.0
230
-0.0000000000000002
  0
LINE
  5
2E32
  8
0
  6
AUSGEZOGEN
 62
     3
 10
27.6068638416733094
 20
121.0699999999997942
 30
-0.0000000000000269
 11
30.4854078429535207
 21
121.0699999999997942
 31
-0.0000000000000269
210
0.0
220
1.0
230
-0.0000000000000002
  0
LINE
  5
2E33
  8
0
  6
AUSGEZOGEN
 62
     3
 10
30.4854078429535207
 20
122.5699999999998937
 30
-0.0000000000000272
 11
30.9967616860025217
 21
122.5699999999998937
 31
-0.0000000000000272
210
0.0
220
1.0
230
-0.0000000000000002
  0
LINE
  5
2E34
  8
0
  6
AUSGEZOGEN
 62
     3
 10
30.4854078429535207
 20
121.0699999999997942
 30
-0.0000000000000269
 11
30.9967616860025217
 21
121.0699999999997942
 31
-0.0000000000000269
210
0.0
220
1.0
230
-0.0000000000000002
  0
LINE
  5
2E35
  8
0
  6
AUSGEZOGEN
 62
     3
 10
32.5160710400756514
 20
122.5699999999998937
 30
-0.0000000000000272
 11
30.9967616860025217
 21
122.5699999999998937
 31
-0.0000000000000272
210
0.0
220
1.0
230
-0.0000000000000002
  0
LINE
  5
2E36
  8
0
  6
AUSGEZOGEN
 62
     3
 10
32.5160710400756514
 20
121.0699999999997942
 30
-0.0000000000000269
 11
30.9967616860025217
 21
121.0699999999997942
 31
-0.0000000000000269
210
0.0
220
1.0
230
-0.0000000000000002
  0
LINE
  5
2E37
  8
0
  6
AUSGEZOGEN
 62
     3
 10
33.6601938457109782
 20
122.5699999999998937
 30
-0.0000000000000272
 11
32.5160710400756514
 21
122.5699999999998937
 31
-0.0000000000000272
210
0.0
220
1.0
230
-0.0000000000000002
  0
LINE
  5
2E38
  8
0
  6
AUSGEZOGEN
 62
     3
 10
33.6601938457109782
 20
121.0699999999997942
 30
-0.0000000000000269
 11
32.5160710400756514
 21
121.0699999999997942
 31
-0.0000000000000269
210
0.0
220
1.0
230
-0.0000000000000002
  0
LINE
  5
2E39
  8
0
  6
AUSGEZOGEN
 62
     3
 10
46.6579013522546973
 20
122.5699999999998937
 30
-0.0000000000000272
 11
46.6579013522546973
 21
121.0699999999997942
 31
-0.0000000000000269
210
0.0
220
1.0
230
-0.0000000000000002
  0
LINE
  5
2E3A
  8
0
  6
AUSGEZOGEN
 62
     3
 10
57.8374158574387565
 20
122.5699999999998937
 30
-0.0000000000000272
 11
57.8374158574387565
 21
121.0699999999997942
 31
-0.0000000000000269
210
0.0
220
1.0
230
-0.0000000000000002
  0
LINE
  5
2E3B
  8
0
  6
AUSGEZOGEN
 62
     3
 10
63.4532880889345634
 20
122.5699999999998937
 30
-0.0000000000000272
 11
63.4532880889345634
 21
121.0699999999997942
 31
-0.0000000000000269
210
0.0
220
1.0
230
-0.0000000000000002
  0
LINE
  5
2E3C
  8
0
  6
AUSGEZOGEN
 62
     3
 10
-63.4532880889350892
 20
122.5699999999998937
 30
-0.0000000000000272
 11
-63.4532880889350892
 21
121.0699999999997942
 31
-0.0000000000000269
210
0.0
220
1.0
230
-0.0000000000000002
  0
LINE
  5
2E3D
  8
0
  6
AUSGEZOGEN
 62
     3
 10
-57.8374158574391615
 20
122.5699999999998937
 30
-0.0000000000000272
 11
-57.8374158574391615
 21
121.0699999999997942
 31
-0.0000000000000269
210
0.0
220
1.0
230
-0.0000000000000002
  0
LINE
  5
2E3E
  8
0
  6
AUSGEZOGEN
 62
     3
 10
-46.6579013522550525
 20
122.5699999999998937
 30
-0.0000000000000272
 11
-46.6579013522550525
 21
121.0699999999997942
 31
-0.0000000000000269
210
0.0
220
1.0
230
-0.0000000000000002
  0
LINE
  5
2E3F
  8
0
  6
AUSGEZOGEN
 62
     3
 10
-13.5674797050269191
 20
184.999999999999801
 30
-0.0000000000000411
 11
-35.4325202949733011
 21
184.999999999999801
 31
-0.0000000000000411
210
0.0
220
1.0
230
-0.0000000000000002
  0
LINE
  5
2E40
  8
0
  6
AUSGEZOGEN
 62
     3
 10
-35.4325202949733011
 20
191.999999999999801
 30
-0.0000000000000426
 11
-35.4325202949733011
 21
184.999999999999801
 31
-0.0000000000000411
210
0.0
220
1.0
230
-0.0000000000000002
  0
LINE
  5
2E41
  8
0
  6
AUSGEZOGEN
 62
     3
 10
-13.5674797050269298
 20
184.999999999999801
 30
-0.0000000000000411
 11
-13.5674797050269298
 21
191.999999999999801
 31
-0.0000000000000426
210
0.0
220
1.0
230
-0.0000000000000002
  0
LINE
  5
2E42
  8
0
  6
AUSGEZOGEN
 62
     3
 10
50.5999999999999019
 20
184.999999999999801
 30
-0.0000000000000411
 11
49.0
 21
184.999999999999801
 31
-0.0000000000000411
210
0.0
220
1.0
230
-0.0000000000000002
  0
LINE
  5
2E43
  8
0
  6
AUSGEZOGEN
 62
     3
 10
49.0
 20
191.999999999999801
 30
-0.0000000000000426
 11
49.0
 21
184.999999999999801
 31
-0.0000000000000411
210
0.0
220
1.0
230
-0.0000000000000002
  0
LINE
  5
2E44
  8
0
  6
AUSGEZOGEN
 62
     3
 10
-50.6000000000001222
 20
191.999999999999801
 30
-0.0000000000000426
 11
-49.0000000000001066
 21
191.999999999999801
 31
-0.0000000000000426
210
0.0
220
1.0
230
-0.0000000000000002
  0
LINE
  5
2E45
  8
0
  6
AUSGEZOGEN
 62
     3
 10
-49.0000000000001066
 20
184.999999999999801
 30
-0.0000000000000411
 11
-49.0000000000001066
 21
191.999999999999801
 31
-0.0000000000000426
210
0.0
220
1.0
230
-0.0000000000000002
  0
LINE
  5
2E46
  8
0
  6
AUSGEZOGEN
 62
     3
 10
-35.4325202949733225
 20
191.999999999999801
 30
-0.0000000000000426
 11
-13.5674797050269298
 21
191.999999999999801
 31
-0.0000000000000426
210
0.0
220
1.0
230
-0.0000000000000002
  0
LINE
  5
2E47
  8
0
  6
AUSGEZOGEN
 62
     3
 10
49.0
 20
191.999999999999801
 30
-0.0000000000000426
 11
50.5999999999999091
 21
191.999999999999801
 31
-0.0000000000000426
210
0.0
220
1.0
230
-0.0000000000000002
  0
LINE
  5
2E48
  8
0
  6
AUSGEZOGEN
 62
     3
 10
-49.0000000000001066
 20
184.999999999999801
 30
-0.0000000000000411
 11
-50.6000000000001293
 21
184.999999999999801
 31
-0.0000000000000411
210
0.0
220
1.0
230
-0.0000000000000002
  0
LINE
  5
2E49
  8
0
  6
AUSGEZOGEN
 62
     3
 10
50.5999999999999019
 20
199.9999999999998863
 30
-0.0000000000000444
 11
-50.6000000000001222
 21
199.9999999999998863
 31
-0.0000000000000444
210
0.0
220
1.0
230
-0.0000000000000002
  0
LINE
  5
2E4A
  8
0
  6
AUSGEZOGEN
 62
     3
 10
54.0
 20
0.0000000000000284
 30
0.0
 11
-54.0
 21
-0.0000000000000284
 31
0.0
210
0.0
220
1.0
230
-0.0000000000000002
  0
LINE
  5
2E4B
  8
0
  6
AUSGEZOGEN
 62
     3
 10
-53.9999999999999929
 20
-0.0000000000000284
 30
0.0
 11
-54.0000000000000071
 21
12.5314222700814693
 31
-0.0000000000000028
210
0.0
220
1.0
230
-0.0000000000000002
  0
LINE
  5
2E4C
  8
0
  6
AUSGEZOGEN
 62
     3
 10
54.0000000000000071
 20
0.0000000000000311
 30
0.0
 11
53.9999999999999929
 21
12.5314222700815296
 31
-0.0000000000000028
210
0.0
220
1.0
230
-0.0000000000000002
  0
ARC
  5
2E4D
  8
0
  6
AUSGEZOGEN
 62
     3
 10
-38.4000000000019313
 20
12.5314222700819204
 30
0.0
 40
15.5999999999981203
210
0.0
220
-0.0000000000000002
230
-1.0
 50
159.9999999999988063
 51
180.0000000000013074
  0
ARC
  5
2E4E
  8
0
  6
AUSGEZOGEN
 62
     3
 10
38.4000000000016897
 20
12.5314222700818405
 30
0.0
 40
15.5999999999983601
210
0.0
220
-0.0000000000000002
230
-1.0
 50
359.9999999999985789
 51
20.0000000000009308
  0
LINE
  5
2E4F
  8
0
  6
AUSGEZOGEN
 62
     3
 10
45.3443033089972474
 20
39.0634543773116008
 30
-0.0000000000000087
 11
53.0592048842602395
 21
17.8669365059620091
 31
-0.000000000000004
210
0.0
220
1.0
230
-0.0000000000000002
  0
LINE
  5
2E50
  8
0
  6
AUSGEZOGEN
 62
     3
 10
-45.3443033089972687
 20
39.0634543773115368
 30
-0.0000000000000087
 11
-53.0592048842602324
 21
17.8669365059619487
 31
-0.000000000000004
210
0.0
220
1.0
230
-0.0000000000000002
  0
ARC
  5
2E51
  8
0
  6
AUSGEZOGEN
 62
     3
 10
-58.500000000002963
 20
43.8517363838714402
 30
0.0
 40
14.0000000000029807
210
0.0
220
-0.0000000000000002
230
-1.0
 50
340.0000000000022737
 51
359.9999999999981242
  0
ARC
  5
2E52
  8
0
  6
AUSGEZOGEN
 62
     3
 10
58.5000000000027072
 20
43.8517363838713266
 30
0.0
 40
14.0000000000027303
210
0.0
220
-0.0000000000000002
230
-1.0
 50
180.0000000000015064
 51
199.9999999999978115
  0
LINE
  5
2E53
  8
0
  6
AUSGEZOGEN
 62
     3
 10
-44.4999999999988418
 20
43.8517363838709286
 30
-0.0000000000000097
 11
-44.4999999999988773
 21
110.4896868422739971
 31
-0.0000000000000245
210
0.0
220
1.0
230
-0.0000000000000002
  0
LINE
  5
2E54
  8
0
  6
AUSGEZOGEN
 62
     3
 10
44.4999999999988773
 20
43.8517363838709926
 30
-0.0000000000000097
 11
44.4999999999988418
 21
110.4896868422739971
 31
-0.0000000000000245
210
0.0
220
1.0
230
-0.0000000000000002
  0
ARC
  5
2E55
  8
0
  6
AUSGEZOGEN
 62
     3
 10
-58.499999999961517
 20
110.4896868422746934
 30
0.0
 40
13.9999999999638494
210
0.0
220
-0.0000000000000002
230
-1.0
 50
359.9999999999972147
 51
20.0000000000518412
  0
ARC
  5
2E56
  8
0
  6
AUSGEZOGEN
 62
     3
 10
58.4999999999618865
 20
110.4896868422745939
 30
0.0
 40
13.9999999999640004
210
0.0
220
-0.0000000000000002
230
-1.0
 50
159.9999999999483862
 51
180.0000000000025011
  0
LINE
  5
2E57
  8
0
  6
AUSGEZOGEN
 62
     3
 10
-45.34430330899729
 20
115.2779688488334955
 30
-0.0000000000000256
 11
-47.4524302439644288
 21
121.0699999999997942
 31
-0.0000000000000269
210
0.0
220
1.0
230
-0.0000000000000002
  0
LINE
  5
2E58
  8
0
  6
AUSGEZOGEN
 62
     3
 10
-47.9983855953637431
 20
122.5699999999998937
 30
-0.0000000000000272
 11
-49.659204884260383
 21
127.1330634940380975
 31
-0.0000000000000282
210
0.0
220
1.0
230
-0.0000000000000002
  0
LINE
  5
2E59
  8
0
  6
AUSGEZOGEN
 62
     3
 10
45.3443033089970768
 20
115.277968848833595
 30
-0.0000000000000256
 11
47.4524302439642014
 21
121.0699999999998937
 31
-0.0000000000000269
210
0.0
220
1.0
230
-0.0000000000000002
  0
LINE
  5
2E5A
  8
0
  6
AUSGEZOGEN
 62
     3
 10
47.9983855953634873
 20
122.5699999999998937
 30
-0.0000000000000272
 11
49.6592048842601415
 21
127.1330634940380975
 31
-0.0000000000000282
210
0.0
220
1.0
230
-0.0000000000000002
  0
ARC
  5
2E5B
  8
0
  6
AUSGEZOGEN
 62
     3
 10
-35.0
 20
132.468577729918394
 30
0.0
 40
15.5999999999999392
210
0.0
220
-0.0000000000000002
230
-1.0
 50
179.9999999999992042
 51
199.9999999999994884
  0
ARC
  5
2E5C
  8
0
  6
AUSGEZOGEN
 62
     3
 10
35.0000000000002132
 20
132.4685777299183087
 30
0.0
 40
15.5999999999999694
210
0.0
220
-0.0000000000000002
230
-1.0
 50
340.0000000000006253
 51
0.0000000000006984
  0
LINE
  5
2E5D
  8
0
  6
AUSGEZOGEN
 62
     3
 10
-50.6000000000001222
 20
132.4685777299185077
 30
-0.0000000000000294
 11
-50.6000000000001577
 21
184.999999999999801
 31
-0.0000000000000411
210
0.0
220
1.0
230
-0.0000000000000002
  0
LINE
  5
2E5E
  8
0
  6
AUSGEZOGEN
 62
     3
 10
-50.6000000000001577
 20
191.999999999999801
 30
-0.0000000000000426
 11
-50.6000000000001577
 21
199.9999999999998863
 31
-0.0000000000000444
210
0.0
220
1.0
230
-0.0000000000000002
  0
LINE
  5
2E5F
  8
0
  6
AUSGEZOGEN
 62
     3
 10
50.5999999999999233
 20
132.4685777299185929
 30
-0.0000000000000294
 11
50.5999999999998806
 21
184.999999999999801
 31
-0.0000000000000411
210
0.0
220
1.0
230
-0.0000000000000002
  0
LINE
  5
2E60
  8
0
  6
AUSGEZOGEN
 62
     3
 10
50.5999999999998806
 20
191.999999999999801
 30
-0.0000000000000426
 11
50.5999999999998806
 21
199.999999999999801
 31
-0.0000000000000444
210
0.0
220
1.0
230
-0.0000000000000002
  0
LINE
  5
2E61
  8
0
  6
VERDECKT
 62
     1
 10
47.9999999999997726
 20
122.5699999999998937
 30
-0.0000000000000272
 11
47.9999999999997726
 21
121.0699999999997942
 31
-0.0000000000000269
210
0.0
220
1.0
230
-0.0000000000000002
  0
LINE
  5
2E62
  8
0
  6
VERDECKT
 62
     1
 10
-48.0000000000002203
 20
122.5699999999998937
 30
-0.0000000000000272
 11
-48.0000000000002203
 21
121.0699999999997942
 31
-0.0000000000000269
210
0.0
220
1.0
230
-0.0000000000000002
  0
LINE
  5
2E63
  8
0
  6
VERDECKT
 62
     1
 10
45.1139686793717232
 20
122.5699999999998937
 30
-0.0000000000000272
 11
45.1139686793717232
 21
121.0699999999997942
 31
-0.0000000000000269
210
0.0
220
1.0
230
-0.0000000000000002
  0
LINE
  5
2E64
  8
0
  6
VERDECKT
 62
     1
 10
53.2102214288235373
 20
122.5699999999998937
 30
-0.0000000000000272
 11
53.2102214288235373
 21
121.0699999999997942
 31
-0.0000000000000269
210
0.0
220
1.0
230
-0.0000000000000002
  0
LINE
  5
2E65
  8
0
  6
VERDECKT
 62
     1
 10
55.9999999999997868
 20
122.5699999999998937
 30
-0.0000000000000272
 11
55.9999999999997868
 21
121.0699999999997942
 31
-0.0000000000000269
210
0.0
220
1.0
230
-0.0000000000000002
  0
LINE
  5
2E66
  8
0
  6
VERDECKT
 62
     1
 10
-56.0000000000002203
 20
122.5699999999998937
 30
-0.0000000000000272
 11
-56.0000000000002203
 21
121.0699999999997942
 31
-0.0000000000000269
210
0.0
220
1.0
230
-0.0000000000000002
  0
LINE
  5
2E67
  8
0
  6
VERDECKT
 62
     1
 10
-53.2102214288240276
 20
122.5699999999998937
 30
-0.0000000000000272
 11
-53.2102214288240276
 21
121.0699999999997942
 31
-0.0000000000000269
210
0.0
220
1.0
230
-0.0000000000000002
  0
LINE
  5
2E68
  8
0
  6
VERDECKT
 62
     1
 10
-45.1139686793722703
 20
122.5699999999998937
 30
-0.0000000000000272
 11
-45.1139686793722703
 21
121.0699999999997942
 31
-0.0000000000000269
210
0.0
220
1.0
230
-0.0000000000000002
  0
LINE
  5
2E69
  8
0
  6
VERDECKT
 62
     1
 10
22.2990381056764591
 20
191.9999999999996874
 30
-0.0000000000000426
 11
15.2990381056765692
 21
186.9999999999996874
 31
-0.0000000000000415
210
0.0
220
1.0
230
-0.0000000000000002
  0
LINE
  5
2E6A
  8
0
  6
VERDECKT
 62
     1
 10
12.70096189432331
 20
186.9999999999996874
 30
-0.0000000000000415
 11
15.2990381056766793
 21
186.9999999999996874
 31
-0.0000000000000415
210
0.0
220
1.0
230
-0.0000000000000002
  0
LINE
  5
2E6B
  8
0
  6
VERDECKT
 62
     1
 10
12.70096189432331
 20
186.9999999999996874
 30
-0.0000000000000415
 11
19.7009618943231999
 21
191.9999999999996874
 31
-0.0000000000000426
210
0.0
220
1.0
230
-0.0000000000000002
  0
LINE
  5
2E6C
  8
0
  6
VERDECKT
 62
     1
 10
9.2009618943233136
 20
186.999999999999801
 30
-0.0000000000000415
 11
12.70096189432331
 21
186.9999999999996874
 31
-0.0000000000000415
210
0.0
220
1.0
230
-0.0000000000000002
  0
LINE
  5
2E6D
  8
0
  6
VERDECKT
 62
     1
 10
11.7990381056766793
 20
186.999999999999801
 30
-0.0000000000000415
 11
11.7990381056765692
 21
179.7999999999998124
 31
-0.0000000000000399
210
0.0
220
1.0
230
-0.0000000000000002
  0
LINE
  5
2E6E
  8
0
  6
VERDECKT
 62
     1
 10
9.2009618943231999
 20
179.7999999999998124
 30
-0.0000000000000399
 11
9.2009618943233136
 21
186.999999999999801
 31
-0.0000000000000415
210
0.0
220
1.0
230
-0.0000000000000002
  0
LINE
  5
2E6F
  8
0
  6
VERDECKT
 62
     1
 10
12.70096189432331
 20
179.7999999999998124
 30
-0.0000000000000399
 11
15.2990381056766793
 21
179.7999999999998124
 31
-0.0000000000000399
210
0.0
220
1.0
230
-0.0000000000000002
  0
LINE
  5
2E70
  8
0
  6
VERDECKT
 62
     1
 10
12.70096189432331
 20
179.7999999999998124
 30
-0.0000000000000399
 11
9.2009618943233136
 21
179.7999999999998124
 31
-0.0000000000000399
210
0.0
220
1.0
230
-0.0000000000000002
  0
LINE
  5
2E71
  8
0
  6
VERDECKT
 62
     1
 10
15.2990381056766793
 20
179.7999999999998124
 30
-0.0000000000000399
 11
22.2990381056765692
 21
174.7999999999998124
 31
-0.0000000000000388
210
0.0
220
1.0
230
-0.0000000000000002
  0
LINE
  5
2E72
  8
0
  6
VERDECKT
 62
     1
 10
19.7009618943231999
 20
174.7999999999998124
 30
-0.0000000000000388
 11
12.70096189432331
 21
179.7999999999998124
 31
-0.0000000000000399
210
0.0
220
1.0
230
-0.0000000000000002
  0
LINE
  5
2E73
  8
0
  6
VERDECKT
 62
     1
 10
23.2009618943231999
 20
174.7999999999996987
 30
-0.0000000000000388
 11
25.7990381056765692
 21
174.7999999999996987
 31
-0.0000000000000388
210
0.0
220
1.0
230
-0.0000000000000002
  0
LINE
  5
2E74
  8
0
  6
VERDECKT
 62
     1
 10
23.2009618943231999
 20
174.7999999999996987
 30
-0.0000000000000388
 11
19.7009618943231999
 21
174.7999999999998124
 31
-0.0000000000000388
210
0.0
220
1.0
230
-0.0000000000000002
  0
LINE
  5
2E75
  8
0
  6
VERDECKT
 62
     1
 10
25.7990381056765692
 20
174.7999999999996987
 30
-0.0000000000000388
 11
25.7990381056765692
 21
177.2999999999996987
 31
-0.0000000000000394
210
0.0
220
1.0
230
-0.0000000000000002
  0
LINE
  5
2E76
  8
0
  6
VERDECKT
 62
     1
 10
23.2009618943231999
 20
177.2999999999996987
 30
-0.0000000000000394
 11
25.7990381056765692
 21
177.2999999999996987
 31
-0.0000000000000394
210
0.0
220
1.0
230
-0.0000000000000002
  0
LINE
  5
2E77
  8
0
  6
VERDECKT
 62
     1
 10
23.2009618943231999
 20
177.2999999999996987
 30
-0.0000000000000394
 11
23.2009618943231999
 21
174.7999999999996987
 31
-0.0000000000000388
210
0.0
220
1.0
230
-0.0000000000000002
  0
LINE
  5
2E78
  8
0
  6
VERDECKT
 62
     1
 10
25.7990381056765692
 20
177.2999999999996987
 30
-0.0000000000000394
 11
24.7990381056765798
 21
178.4547005383790008
 31
-0.0000000000000396
210
0.0
220
1.0
230
-0.0000000000000002
  0
LINE
  5
2E79
  8
0
  6
VERDECKT
 62
     1
 10
22.2009618943231999
 20
178.4547005383790008
 30
-0.0000000000000396
 11
24.7990381056765798
 21
178.4547005383790008
 31
-0.0000000000000396
210
0.0
220
1.0
230
-0.0000000000000002
  0
LINE
  5
2E7A
  8
0
  6
VERDECKT
 62
     1
 10
22.2009618943231999
 20
178.4547005383790008
 30
-0.0000000000000396
 11
23.2009618943231999
 21
177.2999999999996987
 31
-0.0000000000000394
210
0.0
220
1.0
230
-0.0000000000000002
  0
LINE
  5
2E7B
  8
0
  6
VERDECKT
 62
     1
 10
24.7990381056765798
 20
178.4547005383790008
 30
-0.0000000000000396
 11
24.7990381056765798
 21
188.345299461620499
 31
-0.0000000000000418
210
0.0
220
1.0
230
-0.0000000000000002
  0
LINE
  5
2E7C
  8
0
  6
VERDECKT
 62
     1
 10
22.2009618943231999
 20
188.345299461620499
 30
-0.0000000000000418
 11
24.7990381056765798
 21
188.345299461620499
 31
-0.0000000000000418
210
0.0
220
1.0
230
-0.0000000000000002
  0
LINE
  5
2E7D
  8
0
  6
VERDECKT
 62
     1
 10
22.2009618943231999
 20
188.345299461620499
 30
-0.0000000000000418
 11
22.2009618943231999
 21
178.4547005383790008
 31
-0.0000000000000396
210
0.0
220
1.0
230
-0.0000000000000002
  0
LINE
  5
2E7E
  8
0
  6
VERDECKT
 62
     1
 10
24.7990381056765798
 20
188.345299461620499
 30
-0.0000000000000418
 11
25.7990381056765692
 21
189.499999999999801
 31
-0.0000000000000421
210
0.0
220
1.0
230
-0.0000000000000002
  0
LINE
  5
2E7F
  8
0
  6
VERDECKT
 62
     1
 10
23.2009618943231999
 20
189.499999999999801
 30
-0.0000000000000421
 11
25.7990381056765692
 21
189.499999999999801
 31
-0.0000000000000421
210
0.0
220
1.0
230
-0.0000000000000002
  0
LINE
  5
2E80
  8
0
  6
VERDECKT
 62
     1
 10
23.2009618943231999
 20
189.499999999999801
 30
-0.0000000000000421
 11
22.2009618943231999
 21
188.345299461620499
 31
-0.0000000000000418
210
0.0
220
1.0
230
-0.0000000000000002
  0
LINE
  5
2E81
  8
0
  6
VERDECKT
 62
     1
 10
25.7990381056765692
 20
189.499999999999801
 30
-0.0000000000000421
 11
25.7990381056765692
 21
191.999999999999801
 31
-0.0000000000000426
210
0.0
220
1.0
230
-0.0000000000000002
  0
LINE
  5
2E82
  8
0
  6
VERDECKT
 62
     1
 10
23.2009618943231999
 20
191.999999999999801
 30
-0.0000000000000426
 11
25.7990381056765692
 21
191.999999999999801
 31
-0.0000000000000426
210
0.0
220
1.0
230
-0.0000000000000002
  0
LINE
  5
2E83
  8
0
  6
VERDECKT
 62
     1
 10
23.2009618943231999
 20
191.999999999999801
 30
-0.0000000000000426
 11
23.2009618943231999
 21
189.499999999999801
 31
-0.0000000000000421
210
0.0
220
1.0
230
-0.0000000000000002
  0
LINE
  5
2E84
  8
0
  6
VERDECKT
 62
     1
 10
19.7009618943231999
 20
191.9999999999996874
 30
-0.0000000000000426
 11
23.2009618943231999
 21
191.999999999999801
 31
-0.0000000000000426
210
0.0
220
1.0
230
-0.0000000000000002
  0
LINE
  5
2E85
  8
0
  6
VERDECKT
 62
     1
 10
26.0682864386853907
 20
2.0
 30
-0.0000000000000004
 11
-26.0682864386853907
 21
2.0
 31
-0.0000000000000004
210
0.0
220
1.0
230
-0.0000000000000002
  0
LINE
  5
2E86
  8
0
  6
VERDECKT
 62
     1
 10
49.0000000000001705
 20
138.9393398282201986
 30
-0.0000000000000309
 11
-49.0000000000001705
 21
138.9393398282201986
 31
-0.0000000000000309
210
0.0
220
1.0
230
-0.0000000000000002
  0
LINE
  5
2E87
  8
0
  6
VERDECKT
 62
     1
 10
47.9393398282204473
 20
140.0
 30
-0.0000000000000311
 11
-47.9393398282204473
 21
140.0
 31
-0.0000000000000311
210
0.0
220
1.0
230
-0.0000000000000002
  0
LINE
  5
2E88
  8
0
  6
VERDECKT
 62
     1
 10
-26.0682864386853907
 20
2.0
 30
-0.0000000000000004
 11
-26.5
 21
6.9345085856372188
 31
-0.0000000000000015
210
0.0
220
1.0
230
-0.0000000000000002
  0
LINE
  5
2E89
  8
0
  6
VERDECKT
 62
     1
 10
26.0682864386853907
 20
2.0
 30
-0.0000000000000004
 11
26.5
 21
6.9345085856372188
 31
-0.0000000000000015
210
0.0
220
1.0
230
-0.0000000000000002
  0
LINE
  5
2E8A
  8
0
  6
VERDECKT
 62
     1
 10
-26.5
 20
6.9345085856372188
 30
-0.0000000000000015
 11
-26.5
 21
113.9540584539815029
 31
-0.0000000000000253
210
0.0
220
1.0
230
-0.0000000000000002
  0
LINE
  5
2E8B
  8
0
  6
VERDECKT
 62
     1
 10
26.5
 20
6.9345085856372188
 30
-0.0000000000000015
 11
26.5
 21
113.9540584539815029
 31
-0.0000000000000253
210
0.0
220
1.0
230
-0.0000000000000002
  0
ARC
  5
2E8C
  8
0
  6
VERDECKT
 62
     1
 10
-32.5000000000008811
 20
113.9540584539814034
 30
0.0
 40
6.0000000000007656
210
0.0
220
-0.0000000000000002
230
-1.0
 50
0.0000000000016284
 51
44.9999999999947917
  0
ARC
  5
2E8D
  8
0
  6
VERDECKT
 62
     1
 10
32.5000000000009166
 20
113.9540584539814034
 30
0.0
 40
6.0000000000008136
210
0.0
220
-0.0000000000000002
230
-1.0
 50
135.0000000000054001
 51
179.9999999999982094
  0
LINE
  5
2E8E
  8
0
  6
VERDECKT
 62
     1
 10
-28.2573593128806984
 20
118.1966991411007939
 30
-0.0000000000000262
 11
-49.0000000000001918
 21
138.9393398282201986
 31
-0.0000000000000309
210
0.0
220
1.0
230
-0.0000000000000002
  0
LINE
  5
2E8F
  8
0
  6
VERDECKT
 62
     1
 10
28.2573593128806984
 20
118.1966991411007939
 30
-0.0000000000000262
 11
49.0000000000001918
 21
138.9393398282201986
 31
-0.0000000000000309
210
0.0
220
1.0
230
-0.0000000000000002
  0
LINE
  5
2E90
  8
0
  6
VERDECKT
 62
     1
 10
47.9393398282204615
 20
140.0
 30
-0.0000000000000311
 11
49.0000000000001918
 21
138.9393398282203123
 31
-0.0000000000000309
210
0.0
220
1.0
230
-0.0000000000000002
  0
LINE
  5
2E91
  8
0
  6
VERDECKT
 62
     1
 10
-47.9393398282204615
 20
140.0
 30
-0.0000000000000311
 11
-49.0000000000001918
 21
138.9393398282203123
 31
-0.0000000000000309
210
0.0
220
1.0
230
-0.0000000000000002
  0
LINE
  5
2E92
  8
0
  6
VERDECKT
 62
     1
 10
-27.1966991411008898
 20
119.2573593128805953
 30
-0.0000000000000265
 11
-47.9393398282204402
 21
140.0
 31
-0.0000000000000311
210
0.0
220
1.0
230
-0.0000000000000002
  0
LINE
  5
2E93
  8
0
  6
VERDECKT
 62
     1
 10
27.1966991411008898
 20
119.2573593128805953
 30
-0.0000000000000265
 11
47.9393398282204402
 21
140.0
 31
-0.0000000000000311
210
0.0
220
1.0
230
-0.0000000000000002
  0
ARC
  5
2E94
  8
0
  6
VERDECKT
 62
     1
 10
-32.4999999999996518
 20
113.9540584539817019
 30
0.0
 40
7.4999999999996509
210
0.0
220
-0.0000000000000002
230
-1.0
 50
359.9999999999989768
 51
45.0000000000011866
  0
ARC
  5
2E95
  8
0
  6
VERDECKT
 62
     1
 10
32.4999999999996518
 20
113.9540584539817019
 30
0.0
 40
7.4999999999996421
210
0.0
220
-0.0000000000000002
230
-1.0
 50
134.9999999999988063
 51
180.0000000000009095
  0
LINE
  5
2E96
  8
0
  6
VERDECKT
 62
     1
 10
-25.0
 20
6.999999999999944
 30
-0.0000000000000016
 11
-25.0
 21
113.9540584539815029
 31
-0.0000000000000253
210
0.0
220
1.0
230
-0.0000000000000002
  0
LINE
  5
2E97
  8
0
  6
VERDECKT
 62
     1
 10
25.0
 20
6.999999999999944
 30
-0.0000000000000016
 11
25.0
 21
113.9540584539815029
 31
-0.0000000000000253
210
0.0
220
1.0
230
-0.0000000000000002
  0
LINE
  5
2E98
  8
0
  6
VERDECKT
 62
     1
 10
-24.5625566823704808
 20
1.9999999999999949
 30
-0.0000000000000004
 11
-25.0000000000000604
 21
6.9999999999999396
 31
-0.0000000000000016
210
0.0
220
1.0
230
-0.0000000000000002
  0
LINE
  5
2E99
  8
0
  6
VERDECKT
 62
     1
 10
24.5625566823704808
 20
1.9999999999999949
 30
-0.0000000000000004
 11
25.0000000000000604
 21
6.9999999999999396
 31
-0.0000000000000016
210
0.0
220
1.0
230
-0.0000000000000002
  0
LINE
  5
2E9A
  8
0
  6
VERDECKT
 62
     1
 10
46.9999999999996589
 20
192.0
 30
-0.0000000000000426
 11
46.9999999999996589
 21
185.0
 31
-0.0000000000000411
210
0.0
220
1.0
230
-0.0000000000000002
  0
LINE
  5
2E9B
  8
0
  6
VERDECKT
 62
     1
 10
48.9999999999998792
 20
185.0
 30
-0.0000000000000411
 11
46.9999999999998792
 21
185.0
 31
-0.0000000000000411
210
0.0
220
1.0
230
-0.0000000000000002
  0
LINE
  5
2E9C
  8
0
  6
VERDECKT
 62
     1
 10
46.9999999999998792
 20
192.0
 30
-0.0000000000000426
 11
48.9999999999998792
 21
192.0
 31
-0.0000000000000426
210
0.0
220
1.0
230
-0.0000000000000002
  0
LINE
  5
2E9D
  8
0
  6
VERDECKT
 62
     1
 10
-11.5000000000017
 20
185.0
 30
-0.0000000000000411
 11
-11.5000000000017
 21
192.0
 31
-0.0000000000000426
210
0.0
220
1.0
230
-0.0000000000000002
  0
LINE
  5
2E9E
  8
0
  6
VERDECKT
 62
     1
 10
-35.4999999999989768
 20
192.0
 30
-0.0000000000000426
 11
-35.4999999999989768
 21
185.0
 31
-0.0000000000000411
210
0.0
220
1.0
230
-0.0000000000000002
  0
LINE
  5
2E9F
  8
0
  6
VERDECKT
 62
     1
 10
-13.5674797050269191
 20
192.0
 30
-0.0000000000000426
 11
-11.5000000000002292
 21
192.0
 31
-0.0000000000000426
210
0.0
220
1.0
230
-0.0000000000000002
  0
LINE
  5
2EA0
  8
0
  6
VERDECKT
 62
     1
 10
-35.5
 20
192.0
 30
-0.0000000000000426
 11
-35.4325202949733011
 21
192.0
 31
-0.0000000000000426
210
0.0
220
1.0
230
-0.0000000000000002
  0
LINE
  5
2EA1
  8
0
  6
VERDECKT
 62
     1
 10
-11.5000000000002292
 20
185.0
 30
-0.0000000000000411
 11
-13.5674797050269298
 21
185.0
 31
-0.0000000000000411
210
0.0
220
1.0
230
-0.0000000000000002
  0
LINE
  5
2EA2
  8
0
  6
VERDECKT
 62
     1
 10
-35.4325202949733011
 20
185.0
 30
-0.0000000000000411
 11
-35.5
 21
185.0
 31
-0.0000000000000411
210
0.0
220
1.0
230
-0.0000000000000002
  0
LINE
  5
2EA3
  8
0
  6
VERDECKT
 62
     1
 10
-47.0000000000003268
 20
185.0
 30
-0.0000000000000411
 11
-47.0000000000003268
 21
192.0
 31
-0.0000000000000426
210
0.0
220
1.0
230
-0.0000000000000002
  0
LINE
  5
2EA4
  8
0
  6
VERDECKT
 62
     1
 10
-47.0
 20
185.0
 30
-0.0000000000000411
 11
-49.0000000000001066
 21
185.0
 31
-0.0000000000000411
210
0.0
220
1.0
230
-0.0000000000000002
  0
LINE
  5
2EA5
  8
0
  6
VERDECKT
 62
     1
 10
-49.0000000000001066
 20
192.0
 30
-0.0000000000000426
 11
-47.0
 21
192.0
 31
-0.0000000000000426
210
0.0
220
1.0
230
-0.0000000000000002
  0
LINE
  5
2EA6
  8
0
  6
VERDECKT
 62
     1
 10
-47.4524302439644288
 20
121.0699999999997942
 30
-0.0000000000000269
 11
-47.9983855953637431
 21
122.5699999999998937
 31
-0.0000000000000272
210
0.0
220
1.0
230
-0.0000000000000002
  0
LINE
  5
2EA7
  8
0
  6
VERDECKT
 62
     1
 10
47.4524302439642014
 20
121.0699999999998937
 30
-0.0000000000000269
 11
47.9983855953634873
 21
122.5699999999998937
 31
-0.0000000000000272
210
0.0
220
1.0
230
-0.0000000000000002
  0
LINE
  5
2EA8
  8
0
  6
VERDECKT
 62
     1
 10
-49.0000000000000995
 20
132.4685777299185077
 30
-0.0000000000000294
 11
-49.0000000000001279
 21
185.0
 31
-0.0000000000000411
210
0.0
220
1.0
230
-0.0000000000000002
  0
LINE
  5
2EA9
  8
0
  6
VERDECKT
 62
     1
 10
-49.0000000000001279
 20
192.0
 30
-0.0000000000000426
 11
-49.0000000000001421
 21
200.0
 31
-0.0000000000000444
210
0.0
220
1.0
230
-0.0000000000000002
  0
LINE
  5
2EAA
  8
0
  6
VERDECKT
 62
     1
 10
48.9999999999999005
 20
132.4685777299185929
 30
-0.0000000000000294
 11
48.9999999999998721
 21
185.0
 31
-0.0000000000000411
210
0.0
220
1.0
230
-0.0000000000000002
  0
LINE
  5
2EAB
  8
0
  6
VERDECKT
 62
     1
 10
48.9999999999998721
 20
192.0
 30
-0.0000000000000426
 11
48.9999999999998579
 21
200.0
 31
-0.0000000000000444
210
0.0
220
1.0
230
-0.0000000000000002
  0
ARC
  5
2EAC
  8
0
  6
VERDECKT
 62
     1
 10
-34.9999999999983089
 20
132.4685777299187919
 30
0.0
 40
14.0000000000016698
210
0.0
220
-0.0000000000000002
230
-1.0
 50
180.0000000000005116
 51
199.9999999999974989
  0
ARC
  5
2EAD
  8
0
  6
VERDECKT
 62
     1
 10
34.9999999999983729
 20
132.4685777299187066
 30
0.0
 40
14.0000000000018403
210
0.0
220
-0.0000000000000002
230
-1.0
 50
340.0000000000026148
 51
359.9999999999992042
  0
LINE
  5
2EAE
  8
0
  6
VERDECKT
 62
     1
 10
-43.8407951157398514
 20
115.8252010781547057
 30
-0.0000000000000257
 11
-48.1556966910030013
 21
127.6802957233592934
 31
-0.0000000000000284
210
0.0
220
1.0
230
-0.0000000000000002
  0
LINE
  5
2EAF
  8
0
  6
VERDECKT
 62
     1
 10
43.840795115739617
 20
115.8252010781547057
 30
-0.0000000000000257
 11
48.1556966910027597
 21
127.6802957233593929
 31
-0.0000000000000284
210
0.0
220
1.0
230
-0.0000000000000002
  0
ARC
  5
2EB0
  8
0
  6
VERDECKT
 62
     1
 10
-58.4999999999994387
 20
110.4896868422744944
 30
0.0
 40
15.59999999999952
210
0.0
220
-0.0000000000000002
230
-1.0
 50
359.9999999999992042
 51
19.9999999999996589
  0
ARC
  5
2EB1
  8
0
  6
VERDECKT
 62
     1
 10
58.499999999999261
 20
110.4896868422745939
 30
0.0
 40
15.5999999999991097
210
0.0
220
-0.0000000000000002
230
-1.0
 50
160.0
 51
180.0000000000009095
  0
LINE
  5
2EB2
  8
0
  6
VERDECKT
 62
     1
 10
-42.9000000000000696
 20
43.8517363838709002
 30
-0.0000000000000097
 11
-42.9000000000001123
 21
110.4896868422742955
 31
-0.0000000000000245
210
0.0
220
1.0
230
-0.0000000000000002
  0
LINE
  5
2EB3
  8
0
  6
VERDECKT
 62
     1
 10
42.9000000000001123
 20
43.8517363838709571
 30
-0.0000000000000097
 11
42.9000000000000696
 21
110.4896868422742955
 31
-0.0000000000000245
210
0.0
220
1.0
230
-0.0000000000000002
  0
ARC
  5
2EB4
  8
0
  6
VERDECKT
 62
     1
 10
-58.4999999999998082
 20
43.8517363838707723
 30
0.0
 40
15.5999999999997492
210
0.0
220
-0.0000000000000002
230
-1.0
 50
340.0000000000002842
 51
0.0000000000006475
  0
ARC
  5
2EB5
  8
0
  6
VERDECKT
 62
     1
 10
58.4999999999999432
 20
43.8517363838707226
 30
0.0
 40
15.59999999999987
210
0.0
220
-0.0000000000000002
230
-1.0
 50
179.9999999999994031
 51
199.9999999999996021
  0
LINE
  5
2EB6
  8
0
  6
VERDECKT
 62
     1
 10
43.8407951157398728
 20
38.5162221479905327
 30
-0.0000000000000086
 11
51.5556966910028009
 21
17.3197042766409091
 31
-0.0000000000000038
210
0.0
220
1.0
230
-0.0000000000000002
  0
LINE
  5
2EB7
  8
0
  6
VERDECKT
 62
     1
 10
-43.840795115739887
 20
38.5162221479904616
 30
-0.0000000000000086
 11
-51.5556966910027867
 21
17.3197042766408416
 31
-0.0000000000000038
210
0.0
220
1.0
230
-0.0000000000000002
  0
ARC
  5
2EB8
  8
0
  6
VERDECKT
 62
     1
 10
-38.3999999999992667
 20
12.5314222700812508
 30
0.0
 40
14.0000000000008207
210
0.0
220
-0.0000000000000002
230
-1.0
 50
160.0
 51
179.9999999999988916
  0
ARC
  5
2EB9
  8
0
  6
VERDECKT
 62
     1
 10
38.3999999999990393
 20
12.5314222700811708
 30
0.0
 40
14.0000000000010498
210
0.0
220
-0.0000000000000002
230
-1.0
 50
0.0000000000012213
 51
19.9999999999997691
  0
LINE
  5
2EBA
  8
0
  6
VERDECKT
 62
     1
 10
-52.4000000000000909
 20
-0.0000000000000284
 30
0.0
 11
-52.4000000000000909
 21
12.5314222700814693
 31
-0.0000000000000028
210
0.0
220
1.0
230
-0.0000000000000002
  0
LINE
  5
2EBB
  8
0
  6
VERDECKT
 62
     1
 10
52.4000000000000909
 20
0.0000000000000302
 30
0.0
 11
52.4000000000000909
 21
12.5314222700815208
 31
-0.0000000000000028
210
0.0
220
1.0
230
-0.0000000000000002
  0
ENDBLK
  5
2EBD
  8
0
  0
BLOCK
  8
0
  2
A$C394B18CF
 70
     0
 10
0.0
 20
0.0
 30
0.0
  3
A$C394B18CF
  1

  0
LINE
  5
2EC1
  8
0
  6
AUSGEZOGEN
 62
     3
 10
43.2527355812501568
 20
-46.6455896928498532
 30
0.0000000000000142
 11
33.6601938457110066
 21
-45.1262803387768088
 31
0.0000000000000121
  0
ARC
  5
2EC2
  8
0
  6
AUSGEZOGEN
 62
     3
 10
43.4091700462903134
 20
-45.6579013522544699
 30
0.0000000000000142
 40
1.0000000000002229
 50
261.0000000000068212
 51
313.5537253564021967
  0
ARC
  5
2EC3
  8
0
  6
AUSGEZOGEN
 62
     3
 10
-0.0000000000692081
 20
0.0000000000685816
 30
0.0
 40
64.0000000000972449
 50
313.5537253564111779
 51
316.4462746435896179
  0
ARC
  5
2EC4
  8
0
  6
AUSGEZOGEN
 62
     3
 10
45.6579013522561823
 20
-43.4091700462909671
 30
0.0000000000000142
 40
0.9999999999985592
 50
316.4462746435494864
 51
9.0000000000446292
  0
LINE
  5
2EC5
  8
0
  6
AUSGEZOGEN
 62
     3
 10
45.1262803387766311
 20
-33.6601938457111203
 30
0.0000000000000142
 11
46.645589692849768
 21
-43.2527355812501924
 31
0.0000000000000145
  0
ARC
  5
2EC6
  8
0
  6
AUSGEZOGEN
 62
     3
 10
46.1139686793717587
 20
-33.5037593806709211
 30
0.0000000000000142
 40
1.000000000000014
 50
98.999999999998451
 51
188.9999999999986073
  0
LINE
  5
2EC7
  8
0
  6
AUSGEZOGEN
 62
     3
 10
55.5500759498706032
 20
-30.9967616860025394
 30
0.0000000000000142
 11
45.9575342143315595
 21
-32.516071040075758
 31
0.0000000000000121
  0
ARC
  5
2EC8
  8
0
  6
AUSGEZOGEN
 62
     3
 10
55.3936414848301624
 20
-30.0090733454073586
 30
0.0000000000000142
 40
1.000000000000232
 50
279.0000000000102887
 51
331.5537253564152138
  0
ARC
  5
2EC9
  8
0
  6
AUSGEZOGEN
 62
     3
 10
0.0000000001146235
 20
-0.0000000000568718
 30
0.0
 40
63.9999999998718607
 50
331.5537253564045272
 51
334.4462746435930853
  0
ARC
  5
2ECA
  8
0
  6
AUSGEZOGEN
 62
     3
 10
56.837415857439197
 20
-27.1755065941473504
 30
0.0000000000000142
 40
0.9999999999995839
 50
334.4462746435809208
 51
27.0000000000121716
  0
LINE
  5
2ECB
  8
0
  6
AUSGEZOGEN
 62
     3
 10
53.3192149046351815
 20
-18.0679591791115115
 30
0.0000000000000142
 11
57.7284223816270909
 21
-26.7215160944078001
 31
0.0000000000000152
  0
ARC
  5
2ECC
  8
0
  6
AUSGEZOGEN
 62
     3
 10
54.2102214288236368
 20
-17.6139686793719896
 30
0.0000000000000142
 40
1.000000000000079
 50
117.000000000006807
 51
206.9999999999959073
  0
LINE
  5
2ECD
  8
0
  6
AUSGEZOGEN
 62
     3
 10
62.4097878443801903
 20
-12.3137546781916303
 30
0.0000000000000142
 11
53.756230929083948
 21
-16.722962155183609
 31
0.0000000000000123
  0
ARC
  5
2ECE
  8
0
  6
AUSGEZOGEN
 62
     3
 10
61.9557973446405015
 20
-11.4227481540031004
 30
0.0000000000000142
 40
1.0000000000002101
 50
297.0000000000031264
 51
349.5537253564012872
  0
ARC
  5
2ECF
  8
0
  6
AUSGEZOGEN
 62
     3
 10
0.0000000001100761
 20
-0.0000000000164562
 30
0.0
 40
63.9999999998885301
 50
349.5537253564052094
 51
352.4462746435930853
  0
ARC
  5
2ED0
  8
0
  6
AUSGEZOGEN
 62
     3
 10
62.4532880889341016
 20
-8.2817152136811387
 30
0.0000000000000142
 40
1.0000000000004701
 50
352.4462746436071257
 51
44.9999999999896474
  0
LINE
  5
2ED1
  8
0
  6
AUSGEZOGEN
 62
     3
 10
56.2928932188132478
 20
-0.7071067811865533
 30
0.0000000000000142
 11
63.1603948701211095
 21
-7.5746084324943856
 31
0.0000000000000157
  0
ARC
  5
2ED2
  8
0
  6
AUSGEZOGEN
 62
     3
 10
56.999999999999801
 20
0.0
 30
0.0000000000000142
 40
0.9999999999999879
 50
135.0000000000011084
 51
225.0
  0
LINE
  5
2ED3
  8
0
  6
AUSGEZOGEN
 62
     3
 10
63.1603948701211095
 20
7.5746084324945278
 30
0.0000000000000142
 11
56.2928932188132478
 21
0.7071067811865249
 31
0.0000000000000127
  0
ARC
  5
2ED4
  8
0
  6
AUSGEZOGEN
 62
     3
 10
62.4532880889339879
 20
8.2817152136810535
 30
0.0000000000000142
 40
1.0000000000005109
 50
315.0000000000276259
 51
7.5537253564042404
  0
ARC
  5
2ED5
  8
0
  6
AUSGEZOGEN
 62
     3
 10
-0.0000000000760861
 20
-0.0000000000106297
 30
0.0
 40
64.0000000000765397
 50
7.5537253564090738
 51
10.4462746435885308
  0
ARC
  5
2ED6
  8
0
  6
AUSGEZOGEN
 62
     3
 10
61.9557973446406081
 20
11.4227481540032691
 30
0.0000000000000142
 40
1.0000000000000779
 50
10.4462746435966505
 51
63.0000000000004619
  0
LINE
  5
2ED7
  8
0
  6
AUSGEZOGEN
 62
     3
 10
53.756230929083948
 20
16.7229621551836409
 30
0.0000000000000142
 11
62.4097878443801903
 21
12.3137546781917102
 31
0.0000000000000161
  0
ARC
  5
2ED8
  8
0
  6
AUSGEZOGEN
 62
     3
 10
54.2102214288235302
 20
17.6139686793719896
 30
0.0000000000000142
 40
0.9999999999999893
 50
152.9999999999996874
 51
242.9999999999982094
  0
LINE
  5
2ED9
  8
0
  6
AUSGEZOGEN
 62
     3
 10
57.7284223816270909
 20
26.7215160944079493
 30
0.0000000000000142
 11
53.3192149046351815
 21
18.0679591791115399
 31
0.0000000000000132
  0
ARC
  5
2EDA
  8
0
  6
AUSGEZOGEN
 62
     3
 10
56.8374158574382804
 20
27.1755065941474996
 30
0.0000000000000142
 40
1.0000000000003919
 50
333.0000000000114824
 51
25.5537253563952405
  0
ARC
  5
2EDB
  8
0
  6
AUSGEZOGEN
 62
     3
 10
-0.0000000000622163
 20
-0.000000000030326
 30
0.0
 40
64.0000000000690505
 50
25.553725356409231
 51
28.4462746435888505
  0
ARC
  5
2EDC
  8
0
  6
AUSGEZOGEN
 62
     3
 10
55.3936414848299421
 20
30.0090733454068506
 30
0.0000000000000142
 40
1.000000000000786
 50
28.4462746436099394
 51
80.9999999999821938
  0
LINE
  5
2EDD
  8
0
  6
AUSGEZOGEN
 62
     3
 10
45.9575342143315595
 20
32.5160710400758717
 30
0.0000000000000142
 11
55.5500759498706032
 21
30.9967616860027206
 31
0.0000000000000163
  0
ARC
  5
2EDE
  8
0
  6
AUSGEZOGEN
 62
     3
 10
46.1139686793718724
 20
33.5037593806709992
 30
0.0000000000000142
 40
1.0000000000000979
 50
171.0000000000023022
 51
260.9999999999919282
  0
LINE
  5
2EDF
  8
0
  6
AUSGEZOGEN
 62
     3
 10
46.6455896928496472
 20
43.2527355812503629
 30
0.0000000000000142
 11
45.1262803387766311
 21
33.6601938457112126
 31
0.0000000000000139
  0
ARC
  5
2EE0
  8
0
  6
AUSGEZOGEN
 62
     3
 10
45.6579013522549815
 20
43.409170046290761
 30
0.0000000000000142
 40
0.9999999999995518
 50
350.9999999999860165
 51
43.5537253564208484
  0
ARC
  5
2EE1
  8
0
  6
AUSGEZOGEN
 62
     3
 10
0.0000000000187287
 20
0.0000000000196394
 30
0.0
 40
63.9999999999727294
 50
43.5537253564076394
 51
46.4462746435916785
  0
ARC
  5
2EE2
  8
0
  6
AUSGEZOGEN
 62
     3
 10
43.4091700462902566
 20
45.657901352254747
 30
0.0000000000000142
 40
1.0000000000000979
 50
46.4462746435956575
 51
98.9999999999976836
  0
LINE
  5
2EE3
  8
0
  6
AUSGEZOGEN
 62
     3
 10
33.6601938457110066
 20
45.1262803387769225
 30
0.0000000000000142
 11
43.2527355812500502
 21
46.6455896928499882
 31
0.0000000000000163
  0
ARC
  5
2EE4
  8
0
  6
AUSGEZOGEN
 62
     3
 10
33.5037593806706866
 20
46.1139686793719576
 30
0.0000000000000142
 40
0.9999999999999211
 50
188.9999999999959073
 51
279.0000000000059117
  0
LINE
  5
2EE5
  8
0
  6
AUSGEZOGEN
 62
     3
 10
30.9967616860024293
 20
55.5500759498709371
 30
0.0
 11
32.516071040075623
 21
45.9575342143318082
 31
0.0000000000000003
  0
ARC
  5
2EE6
  8
0
  6
AUSGEZOGEN
 62
     3
 10
30.0090733454070815
 20
55.393641484830539
 30
0.0
 40
1.0000000000002269
 50
9.0000000000079385
 51
61.5537253564019977
  0
ARC
  5
2EE7
  8
0
  6
AUSGEZOGEN
 62
     3
 10
0.0000000000035515
 20
0.0000000000081855
 30
0.0
 40
63.999999999991033
 50
61.5537253564081084
 51
64.446274643591309
  0
ARC
  5
2EE8
  8
0
  6
AUSGEZOGEN
 62
     3
 10
27.1755065941471017
 20
56.8374158574388275
 30
0.0
 40
1.0000000000001019
 50
64.4462746435912237
 51
116.9999999999950973
  0
LINE
  5
2EE9
  8
0
  6
AUSGEZOGEN
 62
     3
 10
18.067959179111341
 20
53.3192149046354302
 30
0.0
 11
26.7215160944075798
 21
57.7284223816273183
 31
0.0000000000000019
  0
ARC
  5
2EEA
  8
0
  6
AUSGEZOGEN
 62
     3
 10
17.6139686793717587
 20
54.2102214288238713
 30
0.0
 40
1.00000000000004
 50
207.0000000000061107
 51
297.0000000000002274
  0
LINE
  5
2EEB
  8
0
  6
AUSGEZOGEN
 62
     3
 10
12.3137546781913692
 20
62.409787844380503
 30
0.0
 11
16.72296215518341
 21
53.7562309290842109
 31
0.000000000000001
  0
ARC
  5
2EEC
  8
0
  6
AUSGEZOGEN
 62
     3
 10
11.4227481540030098
 20
61.9557973446409775
 30
0.0
 40
0.9999999999999613
 50
26.9999999999988809
 51
79.5537253564069857
  0
ARC
  5
2EED
  8
0
  6
AUSGEZOGEN
 62
     3
 10
-0.0000000000044634
 20
-0.0000000000227942
 30
0.0
 40
64.0000000000232063
 50
79.5537253564085773
 51
82.4462746435903711
  0
ARC
  5
2EEE
  8
0
  6
AUSGEZOGEN
 62
     3
 10
8.2817152136807675
 20
62.4532880889349329
 30
0.0
 40
0.9999999999999278
 50
82.4462746435896463
 51
135.0000000000046043
  0
LINE
  5
2EEF
  8
0
  6
AUSGEZOGEN
 62
     3
 10
0.7071067811863531
 20
56.2928932188134823
 30
0.0
 11
7.5746084324942151
 21
63.1603948701213724
 31
0.0000000000000015
  0
ARC
  5
2EF0
  8
0
  6
AUSGEZOGEN
 62
     3
 10
-0.0000000000002002
 20
57.0
 30
0.0
 40
0.9999999999999879
 50
224.9999999999988063
 51
315.0
  0
LINE
  5
2EF1
  8
0
  6
AUSGEZOGEN
 62
     3
 10
-7.5746084324947276
 20
63.1603948701213724
 30
0.0
 11
-0.7071067811867531
 21
56.2928932188134823
 31
0.0000000000000015
  0
ARC
  5
2EF2
  8
0
  6
AUSGEZOGEN
 62
     3
 10
-8.2817152136812826
 20
62.4532880889346984
 30
0.0
 40
1.000000000000121
 50
45.0000000000057483
 51
97.5537253564088758
  0
ARC
  5
2EF3
  8
0
  6
AUSGEZOGEN
 62
     3
 10
0.0000000000028125
 20
-0.0000000000225953
 30
0.0
 40
64.0000000000228226
 50
97.5537253564086626
 51
100.4462746435903995
  0
ARC
  5
2EF4
  8
0
  6
AUSGEZOGEN
 62
     3
 10
-11.4227481540034699
 20
61.9557973446410131
 30
0.0
 40
1.0000000000000011
 50
100.4462746435958991
 51
153.0000000000055138
  0
LINE
  5
2EF5
  8
0
  6
AUSGEZOGEN
 62
     3
 10
-16.7229621551839216
 20
53.7562309290842109
 30
0.0
 11
-12.3137546781918807
 21
62.4097878443804674
 31
0.000000000000001
  0
ARC
  5
2EF6
  8
0
  6
AUSGEZOGEN
 62
     3
 10
-17.6139686793722809
 20
54.2102214288234734
 30
0.0
 40
0.999999999999672
 50
242.9999999999959073
 51
333.0000000000126761
  0
LINE
  5
2EF7
  8
0
  6
AUSGEZOGEN
 62
     3
 10
-26.7215160944080914
 20
57.7284223816273467
 30
0.0
 11
-18.0679591791117389
 21
53.3192149046354302
 31
0.0000000000000019
  0
ARC
  5
2EF8
  8
0
  6
AUSGEZOGEN
 62
     3
 10
-27.1755065941476097
 20
56.8374158574389696
 30
0.0
 40
1.00000000000002
 50
63.0000000000026219
 51
115.5537253564071989
  0
ARC
  5
2EF9
  8
0
  6
AUSGEZOGEN
 62
     3
 10
-0.000000000002815
 20
0.0000000000059117
 30
0.0
 40
63.9999999999935909
 50
115.5537253564087052
 51
118.4462746435918064
  0
ARC
  5
2EFA
  8
0
  6
AUSGEZOGEN
 62
     3
 10
-30.0090733454079306
 20
55.3936414848307308
 30
0.0
 40
0.9999999999998088
 50
118.4462746435841041
 51
171.0000000000030127
  0
LINE
  5
2EFB
  8
0
  6
AUSGEZOGEN
 62
     3
 10
-32.5160710400760706
 20
45.9575342143317869
 30
-0.0000000000000142
 11
-30.9967616860028805
 21
55.5500759498708803
 31
-0.0000000000000139
  0
ARC
  5
2EFC
  8
0
  6
AUSGEZOGEN
 62
     3
 10
-33.5037593806710277
 20
46.1139686793717587
 30
-0.0000000000000142
 40
0.9999999999997601
 50
260.9999999999894271
 51
351.0000000000126761
  0
LINE
  5
2EFD
  8
0
  6
AUSGEZOGEN
 62
     3
 10
-43.2527355812505618
 20
46.6455896928499385
 30
-0.0000000000000142
 11
-33.6601938457114116
 21
45.1262803387768869
 31
-0.0000000000000121
  0
ARC
  5
2EFE
  8
0
  6
AUSGEZOGEN
 62
     3
 10
-43.409170046290761
 20
45.6579013522547186
 30
-0.0000000000000142
 40
1.00000000000006
 50
81.0000000000017906
 51
133.5537253564064883
  0
ARC
  5
2EFF
  8
0
  6
AUSGEZOGEN
 62
     3
 10
0.0000000000236741
 20
-0.0000000000244427
 30
0.0
 40
64.0000000000341771
 50
133.5537253564089895
 51
136.4462746435901863
  0
ARC
  5
2F00
  8
0
  6
AUSGEZOGEN
 62
     3
 10
-45.6579013522550383
 20
43.4091700462905905
 30
-0.0000000000000142
 40
0.999999999999995
 50
136.4462746435912095
 51
189.0000000000019043
  0
LINE
  5
2F01
  8
0
  6
AUSGEZOGEN
 62
     3
 10
-45.1262803387771498
 20
33.6601938457112269
 30
-0.0000000000000142
 11
-46.645589692850173
 21
43.2527355812503274
 31
-0.0000000000000145
  0
ARC
  5
2F02
  8
0
  6
AUSGEZOGEN
 62
     3
 10
-46.1139686793721566
 20
33.5037593806709424
 30
-0.0000000000000142
 40
0.9999999999999299
 50
278.9999999999992042
 51
9.0000000000045528
  0
LINE
  5
2F03
  8
0
  6
AUSGEZOGEN
 62
     3
 10
-55.5500759498710579
 20
30.9967616860026816
 30
-0.0000000000000142
 11
-45.9575342143319574
 21
32.5160710400758717
 31
-0.0000000000000121
  0
ARC
  5
2F04
  8
0
  6
AUSGEZOGEN
 62
     3
 10
-55.3936414848309084
 20
30.0090733454075895
 30
-0.0000000000000142
 40
0.9999999999999557
 50
98.9999999999957225
 51
151.5537253564102116
  0
ARC
  5
2F05
  8
0
  6
AUSGEZOGEN
 62
     3
 10
-0.0000000000097499
 20
0.0000000000050306
 30
0.0
 40
63.9999999999892495
 50
151.5537253564083926
 51
154.4462746435916927
  0
ARC
  5
2F06
  8
0
  6
AUSGEZOGEN
 62
     3
 10
-56.8374158574390194
 20
27.1755065941474605
 30
-0.0000000000000142
 40
1.000000000000103
 50
154.4462746435949043
 51
206.9999999999986926
  0
LINE
  5
2F07
  8
0
  6
AUSGEZOGEN
 62
     3
 10
-53.3192149046356292
 20
18.0679591791115399
 30
-0.0000000000000142
 11
-57.7284223816274888
 21
26.7215160944078889
 31
-0.0000000000000152
  0
ARC
  5
2F08
  8
0
  6
AUSGEZOGEN
 62
     3
 10
-54.2102214288237505
 20
17.6139686793718795
 30
-0.0000000000000142
 40
0.9999999999997724
 50
296.9999999999938041
 51
27.0000000000134683
  0
LINE
  5
2F09
  8
0
  6
AUSGEZOGEN
 62
     3
 10
-62.4097878443807588
 20
12.3137546781916303
 30
-0.0000000000000142
 11
-53.7562309290844027
 21
16.7229621551836587
 31
-0.0000000000000123
  0
ARC
  5
2F0A
  8
0
  6
AUSGEZOGEN
 62
     3
 10
-61.9557973446412404
 20
11.4227481540033793
 30
-0.0000000000000142
 40
0.9999999999999406
 50
117.0000000000002984
 51
169.5537253564133096
  0
ARC
  5
2F0B
  8
0
  6
AUSGEZOGEN
 62
     3
 10
0.0000000000658519
 20
-0.000000000009436
 30
0.0
 40
64.0000000000667484
 50
169.5537253564110074
 51
172.4462746435908116
  0
ARC
  5
2F0C
  8
0
  6
AUSGEZOGEN
 62
     3
 10
-62.4532880889347908
 20
8.2817152136811103
 30
-0.0000000000000142
 40
1.0000000000002081
 50
172.4462746435968086
 51
224.9999999999930935
  0
LINE
  5
2F0D
  8
0
  6
AUSGEZOGEN
 62
     3
 10
-56.2928932188136528
 20
0.7071067811865817
 30
-0.0000000000000142
 11
-63.1603948701215572
 21
7.5746084324945002
 31
-0.0000000000000157
  0
ARC
  5
2F0E
  8
0
  6
AUSGEZOGEN
 62
     3
 10
-57.000000000000199
 20
0.0000000000000568
 30
-0.0000000000000142
 40
1.0000000000000071
 50
315.0
 51
44.9999999999999929
  0
LINE
  5
2F0F
  8
0
  6
AUSGEZOGEN
 62
     3
 10
-63.1603948701216211
 20
-7.5746084324945278
 30
-0.0000000000000142
 11
-56.2928932188136528
 21
-0.7071067811864964
 31
-0.0000000000000127
  0
ARC
  5
2F10
  8
0
  6
AUSGEZOGEN
 62
     3
 10
-62.4532880889350679
 20
-8.2817152136811103
 30
-0.0000000000000142
 40
0.9999999999999936
 50
135.0
 51
187.5537253564031914
  0
ARC
  5
2F11
  8
0
  6
AUSGEZOGEN
 62
     3
 10
0.0000000000740373
 20
0.0000000000129035
 30
0.0
 40
64.0000000000753602
 50
187.5537253564112063
 51
190.4462746435906979
  0
ARC
  5
2F12
  8
0
  6
AUSGEZOGEN
 62
     3
 10
-61.9557973446413612
 20
-11.4227481540035001
 30
-0.0000000000000142
 40
0.9999999999996969
 50
190.4462746435825125
 51
243.0000000000003126
  0
LINE
  5
2F13
  8
0
  6
AUSGEZOGEN
 62
     3
 10
-53.7562309290844667
 20
-16.7229621551835805
 30
-0.0000000000000142
 11
-62.4097878443807588
 21
-12.3137546781916001
 31
-0.0000000000000161
  0
ARC
  5
2F14
  8
0
  6
AUSGEZOGEN
 62
     3
 10
-54.210221428823921
 20
-17.6139686793719612
 30
-0.0000000000000142
 40
0.9999999999999255
 50
332.9999999999997158
 51
63.0000000000040501
  0
LINE
  5
2F15
  8
0
  6
AUSGEZOGEN
 62
     3
 10
-57.7284223816274888
 20
-26.7215160944078391
 30
-0.0000000000000142
 11
-53.3192149046356292
 21
-18.0679591791114795
 31
-0.0000000000000132
  0
ARC
  5
2F16
  8
0
  6
AUSGEZOGEN
 62
     3
 10
-56.8374158574391402
 20
-27.1755065941473788
 30
-0.0000000000000142
 40
0.9999999999999946
 50
152.9999999999996874
 51
205.5537253564079947
  0
ARC
  5
2F17
  8
0
  6
AUSGEZOGEN
 62
     3
 10
-0.0000000000070782
 20
-0.000000000004178
 30
0.0
 40
63.9999999999919922
 50
205.5537253564077957
 51
208.4462746435910105
  0
ARC
  5
2F18
  8
0
  6
AUSGEZOGEN
 62
     3
 10
-55.3936414848309084
 20
-30.0090733454075007
 30
-0.0000000000000142
 40
0.9999999999999772
 50
208.4462746435926022
 51
261.0000000000046043
  0
LINE
  5
2F19
  8
0
  6
AUSGEZOGEN
 62
     3
 10
-45.9575342143319574
 20
-32.5160710400757935
 30
-0.0000000000000142
 11
-55.5500759498710579
 21
-30.9967616860026283
 31
-0.0000000000000163
  0
ARC
  5
2F1A
  8
0
  6
AUSGEZOGEN
 62
     3
 10
-46.1139686793722205
 20
-33.5037593806709211
 30
-0.0000000000000142
 40
0.9999999999999861
 50
351.0000000000013074
 51
80.9999999999980957
  0
LINE
  5
2F1B
  8
0
  6
AUSGEZOGEN
 62
     3
 10
-46.645589692850173
 20
-43.2527355812502989
 30
-0.0000000000000142
 11
-45.126280338777093
 21
-33.6601938457111203
 31
-0.0000000000000139
  0
ARC
  5
2F1C
  8
0
  6
AUSGEZOGEN
 62
     3
 10
-45.6579013522550881
 20
-43.4091700462905408
 30
-0.0000000000000142
 40
0.999999999999938
 50
170.9999999999990905
 51
223.5537253564110074
  0
ARC
  5
2F1D
  8
0
  6
AUSGEZOGEN
 62
     3
 10
0.0000000000025283
 20
0.0000000000027569
 30
0.0
 40
64.0000000000038654
 50
223.5537253564085916
 51
226.4462746435912948
  0
ARC
  5
2F1E
  8
0
  6
AUSGEZOGEN
 62
     3
 10
-43.4091700462907113
 20
-45.6579013522544273
 30
-0.0000000000000142
 40
1.0000000000003131
 50
226.4462746435987981
 51
278.999999999992383
  0
LINE
  5
2F1F
  8
0
  6
AUSGEZOGEN
 62
     3
 10
-33.6601938457114116
 20
-45.1262803387768585
 30
-0.0000000000000142
 11
-43.2527355812505618
 21
-46.6455896928499101
 31
-0.0000000000000163
  0
ARC
  5
2F20
  8
0
  6
AUSGEZOGEN
 62
     3
 10
-33.5037593806711413
 20
-46.1139686793719576
 30
-0.0000000000000142
 40
0.9999999999999299
 50
8.9999999999992113
 51
99.0000000000024301
  0
LINE
  5
2F21
  8
0
  6
AUSGEZOGEN
 62
     3
 10
-30.9967616860028805
 20
-55.5500759498708589
 30
0.0
 11
-32.5160710400760706
 21
-45.9575342143317513
 31
-0.0000000000000003
  0
ARC
  5
2F22
  8
0
  6
AUSGEZOGEN
 62
     3
 10
-30.0090733454074083
 20
-55.3936414848304182
 30
0.0
 40
1.0000000000003311
 50
189.0000000000084128
 51
241.5537253563977913
  0
ARC
  5
2F23
  8
0
  6
AUSGEZOGEN
 62
     3
 10
0.0000000000682393
 20
0.0000000001357705
 30
0.0
 40
64.0000000001519567
 50
241.553725356412599
 51
244.4462746435885094
  0
ARC
  5
2F24
  8
0
  6
AUSGEZOGEN
 62
     3
 10
-27.1755065941475493
 20
-56.8374158574387067
 30
0.0
 40
1.0000000000001521
 50
244.4462746435933127
 51
296.9999999999901092
  0
LINE
  5
2F25
  8
0
  6
AUSGEZOGEN
 62
     3
 10
-18.0679591791117389
 20
-53.3192149046353734
 30
0.0
 11
-26.7215160944080914
 21
-57.728422381627297
 31
-0.0000000000000019
  0
ARC
  5
2F26
  8
0
  6
AUSGEZOGEN
 62
     3
 10
-17.6139686793722205
 20
-54.2102214288235587
 30
0.0
 40
0.9999999999999246
 50
26.9999999999930616
 51
117.0000000000047038
  0
LINE
  5
2F27
  8
0
  6
AUSGEZOGEN
 62
     3
 10
-12.3137546781918807
 20
-62.409787844380503
 30
0.0
 11
-16.7229621551838612
 21
-53.7562309290841611
 31
-0.000000000000001
  0
ARC
  5
2F28
  8
0
  6
AUSGEZOGEN
 62
     3
 10
-11.4227481540036404
 20
-61.9557973446410983
 30
0.0
 40
0.9999999999998291
 50
206.9999999999959925
 51
259.5537253564122011
  0
ARC
  5
2F29
  8
0
  6
AUSGEZOGEN
 62
     3
 10
-0.0000000000034971
 20
-0.00000000002089
 30
0.0
 40
63.99999999997884
 50
259.5537253564079947
 51
262.4462746435917779
  0
ARC
  5
2F2A
  8
0
  6
AUSGEZOGEN
 62
     3
 10
-8.2817152136815082
 20
-62.4532880889342366
 30
0.0
 40
1.00000000000053
 50
262.4462746436075804
 51
314.9999999999885745
  0
LINE
  5
2F2B
  8
0
  6
AUSGEZOGEN
 62
     3
 10
-0.7071067811867535
 20
-56.2928932188134397
 30
0.0
 11
-7.5746084324947276
 21
-63.1603948701213085
 31
-0.0000000000000015
  0
ARC
  5
2F2C
  8
0
  6
AUSGEZOGEN
 62
     3
 10
-0.0000000000002002
 20
-57.0
 30
0.0
 40
1.0000000000000071
 50
45.0
 51
135.0
  0
LINE
  5
2F2D
  8
0
  6
AUSGEZOGEN
 62
     3
 10
7.5746084324942151
 20
-63.1603948701213085
 30
0.0
 11
0.7071067811863534
 21
-56.2928932188134397
 31
-0.0000000000000015
  0
ARC
  5
2F2E
  8
0
  6
AUSGEZOGEN
 62
     3
 10
8.2817152136807106
 20
-62.4532880889349826
 30
0.0
 40
0.9999999999997905
 50
224.9999999999930935
 51
277.5537253564145885
  0
ARC
  5
2F2F
  8
0
  6
AUSGEZOGEN
 62
     3
 10
0.0000000000029831
 20
-0.00000000002089
 30
0.0
 40
63.99999999997884
 50
277.5537253564082221
 51
280.4462746435920053
  0
ARC
  5
2F30
  8
0
  6
AUSGEZOGEN
 62
     3
 10
11.4227481540030702
 20
-61.955797344640871
 30
0.0
 40
1.0000000000000011
 50
280.44627464358922
 51
332.999999999998181
  0
LINE
  5
2F31
  8
0
  6
AUSGEZOGEN
 62
     3
 10
16.72296215518341
 20
-53.7562309290842109
 30
0.0
 11
12.3137546781914295
 21
-62.4097878443804532
 31
-0.000000000000001
  0
ARC
  5
2F32
  8
0
  6
AUSGEZOGEN
 62
     3
 10
17.6139686793718795
 20
-54.2102214288239566
 30
0.0
 40
1.0000000000001521
 50
63.0000000000099618
 51
152.9999999999924967
  0
LINE
  5
2F33
  8
0
  6
AUSGEZOGEN
 62
     3
 10
26.7215160944076402
 20
-57.728422381627297
 30
0.0
 11
18.067959179111341
 21
-53.3192149046353734
 31
-0.0000000000000019
  0
ARC
  5
2F34
  8
0
  6
AUSGEZOGEN
 62
     3
 10
27.1755065941472083
 20
-56.8374158574389412
 30
0.0
 40
0.9999999999999946
 50
242.9999999999982094
 51
295.553725356407881
  0
ARC
  5
2F35
  8
0
  6
AUSGEZOGEN
 62
     3
 10
0.000000000019695
 20
-0.0000000000408136
 30
0.0
 40
63.9999999999545892
 50
295.5537253564082789
 51
298.446274643593199
  0
ARC
  5
2F36
  8
0
  6
AUSGEZOGEN
 62
     3
 10
30.0090733454076997
 20
-55.3936414848308232
 30
0.0
 40
0.9999999999996786
 50
298.4462746435814893
 51
351.0000000000084128
  0
LINE
  5
2F37
  8
0
  6
AUSGEZOGEN
 62
     3
 10
32.5160710400756727
 20
-45.9575342143317016
 30
0.0000000000000142
 11
30.9967616860025394
 21
-55.5500759498708589
 31
0.0000000000000139
  0
ARC
  5
2F38
  8
0
  6
AUSGEZOGEN
 62
     3
 10
33.5037593806708003
 20
-46.1139686793719434
 30
0.0000000000000142
 40
0.9999999999999861
 50
81.0000000000012932
 51
170.9999999999996874
  0
LINE
  5
2F39
  8
0
  6
AUSGEZOGEN
 62
     3
 10
19.7009618943233491
 20
37.1230669589465094
 30
0.0
 11
12.7009618943233509
 21
24.9987113059644592
 31
-0.0000000000000018
  0
LINE
  5
2F3A
  8
0
  6
AUSGEZOGEN
 62
     3
 10
15.29903810567661
 20
23.4987113059644699
 30
0.0
 11
12.7009618943233509
 21
24.9987113059644699
 31
-0.0000000000000006
  0
LINE
  5
2F3B
  8
0
  6
AUSGEZOGEN
 62
     3
 10
15.29903810567661
 20
23.4987113059644699
 30
0.0
 11
22.2990381056766189
 21
35.6230669589465094
 31
0.0000000000000018
  0
LINE
  5
2F3C
  8
0
  6
AUSGEZOGEN
 62
     3
 10
22.2990381056766189
 20
35.6230669589464526
 30
0.0
 11
19.7009618943233491
 21
37.1230669589464526
 31
-0.0000000000000006
  0
LINE
  5
2F3D
  8
0
  6
AUSGEZOGEN
 62
     3
 10
12.7009618943233509
 20
24.9987113059644805
 30
0.0
 11
9.2009618943233544
 21
18.936533479473411
 31
-0.0000000000000008
  0
LINE
  5
2F3E
  8
0
  6
AUSGEZOGEN
 62
     3
 10
11.79903810567661
 20
17.436533479473411
 30
0.0
 11
9.2009618943233544
 21
18.936533479473411
 31
-0.0000000000000006
  0
LINE
  5
2F3F
  8
0
  6
AUSGEZOGEN
 62
     3
 10
11.79903810567661
 20
17.436533479473411
 30
0.0
 11
15.29903810567661
 21
23.4987113059644912
 31
0.0000000000000008
  0
LINE
  5
2F40
  8
0
  6
AUSGEZOGEN
 62
     3
 10
23.1894796118169104
 20
43.1653568887496633
 30
0.0
 11
19.700961894323239
 21
37.1230669589464526
 31
-0.0000000000000008
  0
LINE
  5
2F41
  8
0
  6
AUSGEZOGEN
 62
     3
 10
22.2990381056766189
 20
35.6230669589464526
 30
0.0
 11
25.7875558231702797
 21
41.6653568887496419
 31
0.0000000000000008
  0
LINE
  5
2F42
  8
0
  6
AUSGEZOGEN
 62
     3
 10
22.2990381056765017
 20
-35.6230669589463389
 30
0.0
 11
15.29903810567661
 21
-23.4987113059642887
 31
-0.0000000000000018
  0
LINE
  5
2F43
  8
0
  6
AUSGEZOGEN
 62
     3
 10
12.7009618943233509
 20
-24.9987113059642887
 30
0.0
 11
15.2990381056767202
 21
-23.4987113059642887
 31
0.0000000000000006
  0
LINE
  5
2F44
  8
0
  6
AUSGEZOGEN
 62
     3
 10
12.7009618943233509
 20
-24.9987113059642887
 30
0.0
 11
19.700961894323239
 21
-37.1230669589463389
 31
0.0000000000000018
  0
LINE
  5
2F45
  8
0
  6
AUSGEZOGEN
 62
     3
 10
19.700961894323239
 20
-37.1230669589463389
 30
0.0
 11
22.2990381056766189
 21
-35.6230669589463389
 31
0.0000000000000006
  0
LINE
  5
2F46
  8
0
  6
AUSGEZOGEN
 62
     3
 10
15.29903810567661
 20
-23.4987113059644201
 30
0.0
 11
11.79903810567661
 21
-17.4365334794733506
 31
-0.0000000000000008
  0
LINE
  5
2F47
  8
0
  6
AUSGEZOGEN
 62
     3
 10
9.2009618943233544
 20
-18.9365334794732405
 30
0.0
 11
11.7990381056767202
 21
-17.4365334794732405
 31
0.0000000000000006
  0
LINE
  5
2F48
  8
0
  6
AUSGEZOGEN
 62
     3
 10
9.2009618943233544
 20
-18.9365334794732405
 30
0.0
 11
12.7009618943233509
 21
-24.99871130596431
 31
0.0000000000000008
  0
LINE
  5
2F49
  8
0
  6
AUSGEZOGEN
 62
     3
 10
25.7875558231702797
 20
-41.665356888749578
 30
0.0
 11
22.2990381056766189
 21
-35.6230669589463389
 31
-0.0000000000000008
  0
LINE
  5
2F4A
  8
0
  6
AUSGEZOGEN
 62
     3
 10
19.700961894323239
 20
-37.1230669589463389
 30
0.0
 11
23.1894796118169104
 21
-43.1653568887495922
 31
0.0000000000000008
  0
ARC
  5
2F4B
  8
0
  6
AUSGEZOGEN
 62
     3
 10
-0.0000000000001963
 20
-0.0000000000001145
 30
0.0
 40
47.9393398282202128
 50
191.3609507808183992
 51
228.6390492191825956
  0
ARC
  5
2F4C
  8
0
  6
AUSGEZOGEN
 62
     3
 10
0.0000000000000311
 20
0.0000000000000774
 30
0.0
 40
47.939339828220497
 50
251.3609507808176033
 51
298.2069486269630829
  0
ARC
  5
2F4D
  8
0
  6
AUSGEZOGEN
 62
     3
 10
-0.00000000000031
 20
0.0000000000002053
 30
0.0
 40
47.9393398282208025
 50
301.7930513730369739
 51
348.6390492191771955
  0
ARC
  5
2F4E
  8
0
  6
AUSGEZOGEN
 62
     3
 10
-0.00000000000031
 20
-0.0000000000001642
 30
0.0
 40
47.9393398282208167
 50
11.3609507808228205
 51
58.2069486269630119
  0
ARC
  5
2F4F
  8
0
  6
AUSGEZOGEN
 62
     3
 10
0.0000000000000311
 20
0.0000000000000276
 30
0.0
 40
47.9393398282204473
 50
61.7930513730370308
 51
108.6390492191788013
  0
ARC
  5
2F50
  8
0
  6
AUSGEZOGEN
 62
     3
 10
-0.000000000000651
 20
0.0000000000004184
 30
0.0
 40
47.939339828219687
 50
131.3609507808207866
 51
168.6390492191816861
  0
ARC
  5
2F51
  8
0
  6
AUSGEZOGEN
 62
     3
 10
0.0000000000000253
 20
0.0000000000000012
 30
0.0
 40
25.0
 50
179.9999999999998863
 51
296.5601872324847932
  0
ARC
  5
2F52
  8
0
  6
AUSGEZOGEN
 62
     3
 10
0.000000000000139
 20
0.0000000000000225
 30
0.0
 40
24.9999999999999289
 50
303.4398127675145247
 51
56.5601872324855108
  0
ARC
  5
2F53
  8
0
  6
AUSGEZOGEN
 62
     3
 10
0.0000000000000253
 20
-0.000000000000029
 30
0.0
 40
25.0000000000000391
 50
63.4398127675155692
 51
179.9999999999998863
  0
ARC
  5
2F54
  8
0
  6
AUSGEZOGEN
 62
     3
 10
0.0000000000000004
 20
0.0000000000000192
 30
0.0
 40
24.5625566823704311
 50
180.0
 51
296.4988506893246836
  0
ARC
  5
2F55
  8
0
  6
AUSGEZOGEN
 62
     3
 10
0.0000000000000004
 20
0.0000000000000121
 30
0.0
 40
24.5625566823704311
 50
303.5011493106746912
 51
56.4988506893252591
  0
ARC
  5
2F56
  8
0
  6
AUSGEZOGEN
 62
     3
 10
0.0000000000000004
 20
-0.0000000000000075
 30
0.0
 40
24.5625566823704489
 50
63.5011493106753093
 51
180.0
  0
LINE
  5
2F57
  8
0
  6
AUSGEZOGEN
 62
     3
 10
46.9999999999996874
 20
-13.8564064605510495
 30
0.0
 11
46.9999999999996874
 21
13.8564064605504207
 31
0.0
  0
LINE
  5
2F58
  8
0
  6
AUSGEZOGEN
 62
     3
 10
-35.5000000000002984
 20
-33.7749907475934918
 30
0.0
 11
-11.5000000000003002
 21
-47.6313972081444774
 31
0.0000000000000053
  0
LINE
  5
2F59
  8
0
  6
AUSGEZOGEN
 62
     3
 10
-47.0000000000002984
 20
13.8564064605508506
 30
0.0
 11
-47.0000000000002984
 21
-13.8564064605514794
 31
0.0
  0
LINE
  5
2F5A
  8
0
  6
AUSGEZOGEN
 62
     3
 10
-11.5000000000004103
 20
47.6313972081437811
 30
0.0
 11
-35.5000000000001776
 21
33.7749907475929092
 31
-0.0000000000000053
  0
CIRCLE
  5
2F5B
  8
0
  6
AUSGEZOGEN
 62
     3
 10
-0.0000000000000693
 20
0.0000000000000273
 30
0.0
 40
50.6000000000000014
  0
CIRCLE
  5
2F5C
  8
0
  6
AUSGEZOGEN
 62
     3
 10
-0.0000000000000693
 20
0.0000000000000242
 30
0.0
 40
49.0
  0
CIRCLE
  5
2F5D
  8
0
  6
VERDECKT
 62
     1
 10
-0.0000000000002002
 20
0.0000000000000284
 30
0.0
 40
48.0
  0
LINE
  5
2F5E
  8
0
  6
VERDECKT
 62
     1
 10
24.7990381056766189
 20
39.953193977868672
 30
0.0
 11
22.2009618943233598
 21
41.4531939778686578
 31
-0.0000000000000006
  0
LINE
  5
2F5F
  8
0
  6
VERDECKT
 62
     1
 10
25.7990381056766189
 20
41.6852447854374972
 30
0.0
 11
23.2009618943233491
 21
43.1852447854374972
 31
-0.0000000000000006
  0
LINE
  5
2F60
  8
0
  6
VERDECKT
 62
     1
 10
23.200961894323239
 20
43.1852447854375185
 30
0.0
 11
23.1894796118169104
 21
43.1653568887496633
 31
0.0
  0
LINE
  5
2F61
  8
0
  6
VERDECKT
 62
     1
 10
25.7875558231702797
 20
41.6653568887496419
 30
0.0
 11
25.7990381056766189
 21
41.6852447854375114
 31
0.0
  0
LINE
  5
2F62
  8
0
  6
VERDECKT
 62
     1
 10
22.200961894323239
 20
-41.4531939778685512
 30
0.0
 11
24.7990381056766189
 21
-39.9531939778685512
 31
0.0000000000000006
  0
LINE
  5
2F63
  8
0
  6
VERDECKT
 62
     1
 10
23.200961894323239
 20
-43.1852447854374475
 30
0.0
 11
25.7990381056766189
 21
-41.6852447854374404
 31
0.0000000000000006
  0
LINE
  5
2F64
  8
0
  6
VERDECKT
 62
     1
 10
25.7990381056766189
 20
-41.685244785437412
 30
0.0
 11
25.7875558231702797
 21
-41.665356888749578
 31
0.0
  0
LINE
  5
2F65
  8
0
  6
VERDECKT
 62
     1
 10
23.1894796118169104
 20
-43.1653568887495922
 30
0.0
 11
23.200961894323239
 21
-43.185244785437412
 31
0.0
  0
CIRCLE
  5
2F66
  8
0
  6
VERDECKT
 62
     1
 10
0.0000000000000004
 20
0.0000000000000121
 30
0.0
 40
26.0682864386853907
  0
CIRCLE
  5
2F67
  8
0
  6
VERDECKT
 62
     1
 10
0.0000000000000253
 20
0.0000000000000189
 30
0.0
 40
26.5000000000001101
  0
ARC
  5
2F68
  8
0
  6
VERDECKT
 62
     1
 10
-0.0000000000028111
 20
-0.0000000000002575
 30
0.0
 40
47.9393398282176122
 50
179.9999999999996874
 51
191.3609507808189107
  0
ARC
  5
2F69
  8
0
  6
VERDECKT
 62
     1
 10
-0.000000000000651
 20
-0.0000000000012585
 30
0.0
 40
47.9393398282190333
 50
228.6390492191819988
 51
251.3609507808178876
  0
ARC
  5
2F6A
  8
0
  6
VERDECKT
 62
     1
 10
0.000000000010945
 20
-0.0000000000186241
 30
0.0
 40
47.939339828198861
 50
298.2069486269621734
 51
301.7930513730373718
  0
ARC
  5
2F6B
  8
0
  6
VERDECKT
 62
     1
 10
0.0000000000002585
 20
0.0000000000000152
 30
0.0
 40
47.9393398282202199
 50
348.6390492191773092
 51
11.3609507808227406
  0
ARC
  5
2F6C
  8
0
  6
VERDECKT
 62
     1
 10
-0.0000000000114513
 20
-0.0000000000201802
 30
0.0
 40
47.939339828243682
 50
58.2069486269642766
 51
61.7930513730363415
  0
ARC
  5
2F6D
  8
0
  6
VERDECKT
 62
     1
 10
-0.0000000000001963
 20
0.0000000000004184
 30
0.0
 40
47.9393398282199996
 50
108.6390492191787018
 51
131.3609507808212129
  0
ARC
  5
2F6E
  8
0
  6
VERDECKT
 62
     1
 10
-0.0000000000023563
 20
0.0000000000002768
 30
0.0
 40
47.9393398282180669
 50
168.6390492191810893
 51
180.0000000000003126
  0
ARC
  5
2F6F
  8
0
  6
VERDECKT
 62
     1
 10
-0.0000000000025895
 20
0.0000000000043213
 30
0.0
 40
25.0000000000050306
 50
296.5601872324858164
 51
303.4398127675142973
  0
ARC
  5
2F70
  8
0
  6
VERDECKT
 62
     1
 10
0.0000000000043454
 20
0.0000000000076253
 30
0.0
 40
24.999999999991271
 50
56.5601872324839405
 51
63.4398127675165568
  0
ARC
  5
2F71
  8
0
  6
VERDECKT
 62
     1
 10
0.0000000000057985
 20
-0.0000000000099675
 30
0.0
 40
24.5625566823589097
 50
296.4988506893229783
 51
303.5011493106762828
  0
ARC
  5
2F72
  8
0
  6
VERDECKT
 62
     1
 10
0.0000000000053437
 20
0.0000000000092491
 30
0.0
 40
24.5625566823597801
 50
56.4988506893237599
 51
63.5011493106768228
  0
LINE
  5
2F73
  8
0
  6
VERDECKT
 62
     1
 10
-24.5000000000000711
 20
-42.4352447854374617
 30
0.0
 11
-13.5674797050268801
 21
-48.7471383206612714
 31
0.0000000000000024
  0
LINE
  5
2F74
  8
0
  6
VERDECKT
 62
     1
 10
-35.4325202949732585
 20
-36.123351250213652
 30
0.0
 11
-24.5000000000000711
 21
-42.4352447854374617
 31
0.0000000000000024
  0
LINE
  5
2F75
  8
0
  6
VERDECKT
 62
     1
 10
-24.5000000000000711
 20
42.4352447854375114
 30
0.0
 11
-35.4325202949732585
 21
36.1233512502137017
 31
-0.0000000000000024
  0
LINE
  5
2F76
  8
0
  6
VERDECKT
 62
     1
 10
-13.5674797050268801
 20
48.7471383206613282
 30
0.0
 11
-24.5000000000000711
 21
42.4352447854375114
 31
-0.0000000000000024
  0
LINE
  5
2F77
  8
0
  6
VERDECKT
 62
     1
 10
49.0000000000000426
 20
0.0000000000000237
 30
0.0
 11
49.0000000000000426
 21
12.6237870704471806
 31
0.0
  0
LINE
  5
2F78
  8
0
  6
VERDECKT
 62
     1
 10
49.0000000000000426
 20
-12.6237870704471202
 30
0.0
 11
49.0000000000000426
 21
0.0000000000000231
 31
0.0
  0
LINE
  5
2F79
  8
0
  6
VERDECKT
 62
     1
 10
-49.0000000000000711
 20
12.62378707044763
 30
0.0
 11
-49.0000000000000711
 21
0.0000000000000231
 31
0.0
  0
LINE
  5
2F7A
  8
0
  6
VERDECKT
 62
     1
 10
-49.0000000000000711
 20
0.0000000000000237
 30
0.0
 11
-49.0000000000000711
 21
-12.6237870704475803
 31
0.0
  0
CIRCLE
  5
2F7B
  8
0
  6
VERDECKT
 62
     1
 10
0.0000000000000028
 20
0.0000000000000127
 30
0.0
 40
54.0000000000000497
  0
CIRCLE
  5
2F7C
  8
0
  6
VERDECKT
 62
     1
 10
-0.0000000000000892
 20
0.0000000000000187
 30
0.0
 40
44.4999999999977831
  0
CIRCLE
  5
2F7D
  8
0
  6
VERDECKT
 62
     1
 10
-0.0000000000000892
 20
0.0000000000000187
 30
0.0
 40
42.9000000000000199
  0
CIRCLE
  5
2F7E
  8
0
  6
VERDECKT
 62
     1
 10
0.0000000000000028
 20
0.0000000000000127
 30
0.0
 40
52.4000000000000909
  0
ENDBLK
  5
2F80
  8
0
  0
ENDSEC
  0
SECTION
  2
ENTITIES
  0
TEXT
  5
12C8
  8
TEXT35
 10
35.2868559635740482
 20
181.2157724913357981
 30
0.0
 40
3.5
  1

 41
0.8
  0
INSERT
  5
2EBE
  8
0
  2
A$C165F57EA
 10
0.0
 20
0.0000000000000119
 30
0.0
  0
INSERT
  5
2F81
  8
0
  2
A$C394B18CF
 10
0.0
 20
-111.2089002418041019
 30
0.0
  0
VIEWPORT
  5
29DE
 67
     1
  8
0
 10
9.4575330000325621
 20
11.1555482315521104
 30
0.0
 40
44.3731621798228488
 41
23.5072109166918715
 68
     1
 69
     1
1001
ACAD
1000
MVIEW
1002
{
1070
    16
1010
0.0
1020
0.0
1030
0.0
1010
0.0
1020
0.0
1030
1.0
1040
0.0
1040
23.5072109166918715
1040
9.4575330000325621
1040
11.1555482315521104
1040
50.0
1040
0.0
1040
0.0
1070
     0
1070
  1500
1070
     1
1070
     1
1070
     0
1070
     0
1070
     0
1070
     0
1040
0.0
1040
0.0
1040
0.0
1040
10.0
1040
10.0
1040
10.0
1040
10.0
1070
     0
1002
{
1002
}
1002
}
  0
ENDSEC
  0
EOF
