  0
SECTION
  2
HEADER
  9
$ACADVER
  1
AC1009
  9
$INSBASE
 10
0.0
 20
0.0
 30
0.0
  9
$EXTMIN
 10
-75.5982009141517892
 20
-191.9611316116564126
 30
-0.0054927449737647
  9
$EXTMAX
 10
73.0334364512830234
 20
180.0015250115540937
 30
2.0132448407975398
  9
$LIMMIN
 10
0.0
 20
0.0
  9
$LIMMAX
 10
297.0
 20
420.0
  9
$ORTHOMODE
 70
     1
  9
$REGENMODE
 70
     1
  9
$FILLMODE
 70
     1
  9
$QTEXTMODE
 70
     0
  9
$MIRRTEXT
 70
     1
  9
$DRAGMODE
 70
     2
  9
$LTSCALE
 40
20.0
  9
$OSMODE
 70
  1327
  9
$ATTMODE
 70
     1
  9
$TEXTSIZE
 40
3.5
  9
$TRACEWID
 40
0.5
  9
$TEXTSTYLE
  7
STANDARD
  9
$CLAYER
  8
0
  9
$CELTYPE
  6
BYLAYER
  9
$CECOLOR
 62
   256
  9
$DIMSCALE
 40
1.0
  9
$DIMASZ
 40
3.5
  9
$DIMEXO
 40
1.0
  9
$DIMDLI
 40
8.0
  9
$DIMRND
 40
0.0
  9
$DIMDLE
 40
0.0
  9
$DIMEXE
 40
1.0
  9
$DIMTP
 40
1.0
  9
$DIMTM
 40
0.0
  9
$DIMTXT
 40
3.5
  9
$DIMCEN
 40
0.0
  9
$DIMTSZ
 40
0.0
  9
$DIMTOL
 70
     0
  9
$DIMLIM
 70
     0
  9
$DIMTIH
 70
     0
  9
$DIMTOH
 70
     0
  9
$DIMSE1
 70
     0
  9
$DIMSE2
 70
     0
  9
$DIMTAD
 70
     1
  9
$DIMZIN
 70
     8
  9
$DIMBLK
  1

  9
$DIMASO
 70
     1
  9
$DIMSHO
 70
     0
  9
$DIMPOST
  1

  9
$DIMAPOST
  1

  9
$DIMALT
 70
     0
  9
$DIMALTD
 70
     2
  9
$DIMALTF
 40
25.3999999999999986
  9
$DIMLFAC
 40
1.0
  9
$DIMTOFL
 70
     1
  9
$DIMTVP
 40
0.0
  9
$DIMTIX
 70
     0
  9
$DIMSOXD
 70
     0
  9
$DIMSAH
 70
     0
  9
$DIMBLK1
  1

  9
$DIMBLK2
  1

  9
$DIMSTYLE
  2
STANDARD
  9
$DIMCLRD
 70
     0
  9
$DIMCLRE
 70
     0
  9
$DIMCLRT
 70
     1
  9
$DIMTFAC
 40
0.5
  9
$DIMGAP
 40
1.5
  9
$LUNITS
 70
     2
  9
$LUPREC
 70
     2
  9
$SKETCHINC
 40
1.0
  9
$FILLETRAD
 40
0.0
  9
$AUNITS
 70
     0
  9
$AUPREC
 70
     0
  9
$MENU
  1
ACAD
  9
$ELEVATION
 40
0.0
  9
$PELEVATION
 40
0.0
  9
$THICKNESS
 40
0.0
  9
$LIMCHECK
 70
     0
  9
$BLIPMODE
 70
     0
  9
$CHAMFERA
 40
0.0
  9
$CHAMFERB
 40
0.0
  9
$SKPOLY
 70
     0
  9
$TDCREATE
 40
2451880.4638425931334496
  9
$TDUPDATE
 40
2458401.6276620370335877
  9
$TDINDWG
 40
0.0883250347
  9
$TDUSRTIMER
 40
0.0883250347
  9
$USRTIMER
 70
     1
  9
$ANGBASE
 50
0.0
  9
$ANGDIR
 70
     0
  9
$PDMODE
 70
     0
  9
$PDSIZE
 40
0.0
  9
$PLINEWID
 40
0.0
  9
$COORDS
 70
     1
  9
$SPLFRAME
 70
     0
  9
$SPLINETYPE
 70
     6
  9
$SPLINESEGS
 70
     8
  9
$ATTDIA
 70
     0
  9
$ATTREQ
 70
     0
  9
$HANDLING
 70
     1
  9
$HANDSEED
  5
37E6
  9
$SURFTAB1
 70
     6
  9
$SURFTAB2
 70
     6
  9
$SURFTYPE
 70
     6
  9
$SURFU
 70
     6
  9
$SURFV
 70
     6
  9
$UCSNAME
  2

  9
$UCSORG
 10
0.0
 20
0.0
 30
0.0
  9
$UCSXDIR
 10
1.0
 20
0.0
 30
0.0
  9
$UCSYDIR
 10
0.0
 20
1.0
 30
0.0
  9
$PUCSNAME
  2

  9
$PUCSORG
 10
0.0
 20
0.0
 30
0.0
  9
$PUCSXDIR
 10
1.0
 20
0.0
 30
0.0
  9
$PUCSYDIR
 10
0.0
 20
1.0
 30
0.0
  9
$USERI1
 70
     0
  9
$USERI2
 70
     0
  9
$USERI3
 70
     0
  9
$USERI4
 70
     0
  9
$USERI5
 70
     0
  9
$USERR1
 40
0.0
  9
$USERR2
 40
0.0
  9
$USERR3
 40
0.0
  9
$USERR4
 40
0.0
  9
$USERR5
 40
0.0
  9
$WORLDVIEW
 70
     1
  9
$SHADEDGE
 70
     3
  9
$SHADEDIF
 70
    70
  9
$TILEMODE
 70
     1
  9
$MAXACTVP
 70
    16
  9
$PLIMCHECK
 70
     0
  9
$PEXTMIN
 10
-0.1168978004450167
 20
-0.1252048780041122
 30
-0.0000000000000058
  9
$PEXTMAX
 10
9.8850856224771206
 20
13.4259137269105295
 30
0.0000000000000104
  9
$PLIMMIN
 10
-0.2500002402958907
 20
-0.2499999962453767
  9
$PLIMMAX
 10
10.7499995194082203
 20
8.2499997634587334
  9
$UNITMODE
 70
     0
  9
$VISRETAIN
 70
     0
  9
$PLINEGEN
 70
     0
  9
$PSLTSCALE
 70
     0
  0
ENDSEC
  0
SECTION
  2
TABLES
  0
TABLE
  2
VPORT
 70
     1
  0
VPORT
  2
*ACTIVE
 70
     0
 10
0.0
 20
0.0
 11
1.0
 21
1.0
 12
-1.2823822314344391
 22
-59.4718687297386666
 13
0.0
 23
0.0
 14
1.0
 24
1.0
 15
10.0
 25
10.0
 16
-0.0000000000001975
 26
0.0
 36
889.3228571149558093
 17
0.0
 27
53.4920654296875
 37
89.9999999999999858
 40
374.7454196403418223
 41
1.8876404494382011
 42
50.0
 43
0.0
 44
0.0
 50
0.0
 51
0.0
 71
     0
 72
  1500
 73
     1
 74
     0
 75
     0
 76
     0
 77
     0
 78
     0
  0
ENDTAB
  0
TABLE
  2
LTYPE
 70
     4
  0
LTYPE
  2
AUSGEZOGEN
 70
     0
  3
Ausgezogene Linie
 72
    65
 73
     0
 40
0.0
  0
LTYPE
  2
CONTINUOUS
 70
     0
  3
Solid line
 72
    65
 73
     0
 40
0.0
  0
LTYPE
  2
VERDECKT
 70
     0
  3
Verdeckt __ __ __ __ __ __ __ __ __ __ __ __ __
 72
    65
 73
     2
 40
0.375
 49
0.25
 49
-0.125
  0
ENDTAB
  0
TABLE
  2
LAYER
 70
    12
  0
LAYER
  2
0
 70
     0
 62
     7
  6
AUSGEZOGEN
  0
LAYER
  2
DEFPOINTS
 70
     0
 62
     7
  6
AUSGEZOGEN
  0
LAYER
  2
TEXT35
 70
     0
 62
     1
  6
AUSGEZOGEN
  0
ENDTAB
  0
TABLE
  2
STYLE
 70
     4
  0
STYLE
  2
STANDARD
 70
     0
 40
0.0
 41
0.8
 50
0.0
 71
     0
 42
3.5
  3
simplex.shx
  4

  0
ENDTAB
  0
TABLE
  2
VIEW
 70
     2
  0
ENDTAB
  0
TABLE
  2
UCS
 70
     0
  0
ENDTAB
  0
TABLE
  2
APPID
 70
    10
  0
APPID
  2
ACAD
 70
     0
  0
APPID
  2
ACAD_NAV_VCDISPLAY
 70
     0
  0
APPID
  2
ACAECLAYERSTANDARD
 70
     0
  0
APPID
  2
ACCMTRANSPARENCY
 70
     0
  0
APPID
  2
ACAD_PSEXT
 70
     0
  0
APPID
  2
ACAD_EXEMPT_FROM_CAD_STANDARDS
 70
     0
  0
APPID
  2
ACAD_DSTYLE_DIMRADIAL_EXTENSION
 70
     0
  0
APPID
  2
ACAD_MLEADERVER
 70
     0
  0
APPID
  2
ACAD_OBJECT_CHANGE_GUID
 70
     0
  0
APPID
  2
ACADANNOMONITORALERTICONDI
 70
     0
  0
ENDTAB
  0
TABLE
  2
DIMSTYLE
 70
     2
  0
DIMSTYLE
  2
STANDARD
 70
     0
  3

  4

  5

  6

  7

 40
0.0
 41
3.5
 42
1.0
 43
8.0
 44
1.5
 45
0.0
 46
0.0
 47
0.5
 48
0.0
140
3.5
141
1.5
142
0.0
143
25.3999999999999986
144
1.0
145
0.0
146
1.0
147
1.0
 71
     0
 72
     0
 73
     0
 74
     0
 75
     0
 76
     0
 77
     1
 78
     8
170
     0
171
     2
172
     1
173
     0
174
     0
175
     0
176
     0
177
     0
178
     1
  0
ENDTAB
  0
ENDSEC
  0
SECTION
  2
BLOCKS
  0
BLOCK
  8
0
  2
$MODEL_SPACE
 70
     0
 10
0.0
 20
0.0
 30
0.0
  3
$MODEL_SPACE
  1

  0
ENDBLK
  5
2723
  8
0
  0
BLOCK
 67
     1
  8
0
  2
$PAPER_SPACE
 70
     0
 10
0.0
 20
0.0
 30
0.0
  3
$PAPER_SPACE
  1

  0
ENDBLK
  5
2721
 67
     1
  8
0
  0
BLOCK
  8
0
  2
A$C05E72377
 70
     0
 10
0.0
 20
0.0
 30
0.0
  3
A$C05E72377
  1

  0
LINE
  5
35E7
  8
0
  6
AUSGEZOGEN
 62
     3
 10
-15.4919333848296201
 20
165.0000000000001137
 30
-0.0000000000000366
 11
15.4919333848296201
 21
165.0000000000001137
 31
-0.0000000000000366
210
0.0
220
1.0
230
-0.0000000000000002
  0
LINE
  5
35E8
  8
0
  6
AUSGEZOGEN
 62
     3
 10
15.4919333848296201
 20
172.0000000000001137
 30
-0.0000000000000382
 11
-15.4919333848296201
 21
172.0000000000001137
 31
-0.0000000000000382
210
0.0
220
1.0
230
-0.0000000000000002
  0
LINE
  5
35E9
  8
0
  6
AUSGEZOGEN
 62
     3
 10
15.4919333848296201
 20
172.000000000000199
 30
-0.0000000000000382
 11
15.4919333848296201
 21
165.000000000000199
 31
-0.0000000000000366
210
0.0
220
1.0
230
-0.0000000000000002
  0
LINE
  5
35EA
  8
0
  6
AUSGEZOGEN
 62
     3
 10
-15.4919333848296201
 20
165.000000000000199
 30
-0.0000000000000366
 11
-15.4919333848296201
 21
172.000000000000199
 31
-0.0000000000000382
210
0.0
220
1.0
230
-0.0000000000000002
  0
LINE
  5
35EB
  8
0
  6
AUSGEZOGEN
 62
     3
 10
59.0
 20
165.0000000000001137
 30
-0.0000000000000366
 11
61.0
 21
165.0000000000001137
 31
-0.0000000000000366
210
0.0
220
1.0
230
-0.0000000000000002
  0
LINE
  5
35EC
  8
0
  6
AUSGEZOGEN
 62
     3
 10
61.0
 20
172.0000000000001137
 30
-0.0000000000000382
 11
59.0
 21
172.0000000000001137
 31
-0.0000000000000382
210
0.0
220
1.0
230
-0.0000000000000002
  0
LINE
  5
35ED
  8
0
  6
AUSGEZOGEN
 62
     3
 10
59.0
 20
165.0000000000001137
 30
-0.0000000000000366
 11
59.0
 21
172.0000000000001137
 31
-0.0000000000000382
210
0.0
220
1.0
230
-0.0000000000000002
  0
LINE
  5
35EE
  8
0
  6
AUSGEZOGEN
 62
     3
 10
-60.9999999999999929
 20
165.0000000000001137
 30
-0.0000000000000366
 11
-59.0
 21
165.0000000000001137
 31
-0.0000000000000366
210
0.0
220
1.0
230
-0.0000000000000002
  0
LINE
  5
35EF
  8
0
  6
AUSGEZOGEN
 62
     3
 10
-59.0
 20
172.0000000000001137
 30
-0.0000000000000382
 11
-61.0
 21
172.0000000000001137
 31
-0.0000000000000382
210
0.0
220
1.0
230
-0.0000000000000002
  0
LINE
  5
35F0
  8
0
  6
AUSGEZOGEN
 62
     3
 10
-59.0
 20
172.0000000000001137
 30
-0.0000000000000382
 11
-59.0
 21
165.0000000000001137
 31
-0.0000000000000366
210
0.0
220
1.0
230
-0.0000000000000002
  0
LINE
  5
35F1
  8
0
  6
AUSGEZOGEN
 62
     3
 10
-61.0
 20
180.0
 30
-0.00000000000004
 11
61.0
 21
180.0
 31
-0.00000000000004
210
0.0
220
1.0
230
-0.0000000000000002
  0
LINE
  5
35F2
  8
0
  6
AUSGEZOGEN
 62
     3
 10
-64.0
 20
0.0
 30
0.0
 11
64.0
 21
0.0
 31
0.0
210
0.0
220
1.0
230
-0.0000000000000002
  0
LINE
  5
35F3
  8
0
  6
AUSGEZOGEN
 62
     3
 10
61.0000000000001208
 20
180.0
 30
-0.00000000000004
 11
61.0000000000001208
 21
172.0000000000001137
 31
-0.0000000000000382
210
0.0
220
1.0
230
-0.0000000000000002
  0
LINE
  5
35F4
  8
0
  6
AUSGEZOGEN
 62
     3
 10
61.0000000000001208
 20
165.0000000000001137
 30
-0.0000000000000366
 11
61.0000000000001208
 21
111.094838965116594
 31
-0.0000000000000247
210
0.0
220
1.0
230
-0.0000000000000002
  0
LINE
  5
35F5
  8
0
  6
AUSGEZOGEN
 62
     3
 10
-61.0000000000001208
 20
180.0
 30
-0.00000000000004
 11
-61.0000000000001208
 21
172.0000000000001137
 31
-0.0000000000000382
210
0.0
220
1.0
230
-0.0000000000000002
  0
LINE
  5
35F6
  8
0
  6
AUSGEZOGEN
 62
     3
 10
-61.0000000000001208
 20
165.0000000000001137
 30
-0.0000000000000366
 11
-61.0000000000001208
 21
111.094838965116594
 31
-0.0000000000000247
210
0.0
220
1.0
230
-0.0000000000000002
  0
ARC
  5
35F7
  8
0
  6
AUSGEZOGEN
 62
     3
 10
45.0000000000017408
 20
111.0948389651158976
 30
0.0
 40
15.9999999999983604
210
0.0
220
-0.0000000000000002
230
-1.0
 50
340.0000002745870233
 51
0.0000000000026589
  0
ARC
  5
35F8
  8
0
  6
AUSGEZOGEN
 62
     3
 10
-45.0000000000017408
 20
111.0948389651158976
 30
0.0
 40
15.9999999999983604
210
0.0
220
-0.0000000000000002
230
-1.0
 50
179.9999999999972999
 51
199.9999997254130051
  0
LINE
  5
35F9
  8
0
  6
AUSGEZOGEN
 62
     3
 10
-51.7230723441830804
 20
82.7854576769765913
 30
-0.0000000000000184
 11
-57.954044656741921
 21
99.9049136622541312
 31
-0.0000000000000222
210
0.0
220
1.0
230
-0.0000000000000002
  0
LINE
  5
35FA
  8
0
  6
AUSGEZOGEN
 62
     3
 10
-58.5000000000002629
 20
101.4049136622541027
 30
-0.0000000000000225
 11
-60.0350819588006104
 21
105.6225167439606025
 31
-0.0000000000000235
210
0.0
220
1.0
230
-0.0000000000000002
  0
LINE
  5
35FB
  8
0
  6
AUSGEZOGEN
 62
     3
 10
51.7230723441830804
 20
82.7854576769765913
 30
-0.0000000000000184
 11
57.954044656741921
 21
99.9049136622541312
 31
-0.0000000000000222
210
0.0
220
1.0
230
-0.0000000000000002
  0
LINE
  5
35FC
  8
0
  6
AUSGEZOGEN
 62
     3
 10
58.5000000000002629
 20
101.4049136622541027
 30
-0.0000000000000225
 11
60.0350819588006104
 21
105.6225167439606025
 31
-0.0000000000000235
210
0.0
220
1.0
230
-0.0000000000000002
  0
ARC
  5
35FD
  8
0
  6
AUSGEZOGEN
 62
     3
 10
63.0000000000025722
 20
78.6829093658077454
 30
0.0
 40
12.0000000000025704
210
0.0
220
-0.0000000000000002
230
-1.0
 50
160.0086041010038116
 51
180.0000000000001137
  0
ARC
  5
35FE
  8
0
  6
AUSGEZOGEN
 62
     3
 10
-63.0000000000023377
 20
78.6829093658078023
 30
0.0
 40
12.0000000000023306
210
0.0
220
-0.0000000000000002
230
-1.0
 50
359.9999999999993747
 51
19.9913958989962097
  0
LINE
  5
35FF
  8
0
  6
AUSGEZOGEN
 62
     3
 10
51.0
 20
78.6829093658077028
 30
-0.0000000000000175
 11
51.0
 21
53.5384381442452266
 31
-0.0000000000000119
210
0.0
220
1.0
230
-0.0000000000000002
  0
LINE
  5
3600
  8
0
  6
AUSGEZOGEN
 62
     3
 10
-51.0
 20
78.6829093658077028
 30
-0.0000000000000175
 11
-51.0
 21
53.5384381442452266
 31
-0.0000000000000119
210
0.0
220
1.0
230
-0.0000000000000002
  0
ARC
  5
3601
  8
0
  6
AUSGEZOGEN
 62
     3
 10
65.0000000000025437
 20
53.5384381442457027
 30
0.0
 40
14.0000000000025597
210
0.0
220
-0.0000000000000002
230
-1.0
 50
180.0000000000017906
 51
199.9999999999980105
  0
ARC
  5
3602
  8
0
  6
AUSGEZOGEN
 62
     3
 10
-65.0000000000023306
 20
53.5384381442456387
 30
0.0
 40
14.0000000000023199
210
0.0
220
-0.0000000000000002
230
-1.0
 50
340.0000000000018758
 51
359.9999999999984084
  0
LINE
  5
3603
  8
0
  6
AUSGEZOGEN
 62
     3
 10
51.8443033089973184
 20
48.7501561376859271
 30
-0.0000000000000108
 11
63.0350819325746485
 21
18.0037445632921411
 31
-0.000000000000004
210
0.0
220
1.0
230
-0.0000000000000002
  0
LINE
  5
3604
  8
0
  6
AUSGEZOGEN
 62
     3
 10
-51.8443033089973184
 20
48.7501561376859271
 30
-0.0000000000000108
 11
-63.0350819325746485
 21
18.0037445632921411
 31
-0.000000000000004
210
0.0
220
1.0
230
-0.0000000000000002
  0
ARC
  5
3605
  8
0
  6
AUSGEZOGEN
 62
     3
 10
48.000000000002558
 20
12.5314222700820501
 30
0.0
 40
15.9999999999974403
210
0.0
220
-0.0000000000000002
230
-1.0
 50
359.9999999999977263
 51
20.0000000000009486
  0
ARC
  5
3606
  8
0
  6
AUSGEZOGEN
 62
     3
 10
-48.0000000000026077
 20
12.5314222700820608
 30
0.0
 40
15.9999999999973799
210
0.0
220
-0.0000000000000002
230
-1.0
 50
159.9999999999990052
 51
180.0000000000021885
  0
LINE
  5
3607
  8
0
  6
AUSGEZOGEN
 62
     3
 10
64.0
 20
12.5314222700814106
 30
-0.0000000000000028
 11
64.0
 21
0.0
 31
0.0
210
0.0
220
1.0
230
-0.0000000000000002
  0
LINE
  5
3608
  8
0
  6
AUSGEZOGEN
 62
     3
 10
-64.0
 20
12.5314222700814106
 30
-0.0000000000000028
 11
-64.0
 21
0.0
 31
0.0
210
0.0
220
1.0
230
-0.0000000000000002
  0
LINE
  5
3609
  8
0
  6
AUSGEZOGEN
 62
     3
 10
29.7386787763913993
 20
101.4049136622541027
 30
-0.0000000000000225
 11
21.0036206256737614
 21
101.4049136622541027
 31
-0.0000000000000225
210
0.0
220
1.0
230
-0.0000000000000002
  0
LINE
  5
360A
  8
0
  6
AUSGEZOGEN
 62
     3
 10
29.7386787763913993
 20
99.904913662254117
 30
-0.0000000000000222
 11
21.0036206256737614
 21
99.904913662254117
 31
-0.0000000000000222
210
0.0
220
1.0
230
-0.0000000000000002
  0
LINE
  5
360B
  8
0
  6
AUSGEZOGEN
 62
     3
 10
29.7386787763913993
 20
101.4049136622541027
 30
-0.0000000000000225
 11
30.6091198868362007
 21
101.4049136622541027
 31
-0.0000000000000225
210
0.0
220
1.0
230
-0.0000000000000002
  0
LINE
  5
360C
  8
0
  6
AUSGEZOGEN
 62
     3
 10
29.7386787763913993
 20
99.904913662254117
 30
-0.0000000000000222
 11
30.6091198868362007
 21
99.904913662254117
 31
-0.0000000000000222
210
0.0
220
1.0
230
-0.0000000000000002
  0
LINE
  5
360D
  8
0
  6
AUSGEZOGEN
 62
     3
 10
30.60911988683619
 20
101.4049136622541027
 30
-0.0000000000000225
 11
36.0694650502508694
 21
101.4049136622541027
 31
-0.0000000000000225
210
0.0
220
1.0
230
-0.0000000000000002
  0
LINE
  5
360E
  8
0
  6
AUSGEZOGEN
 62
     3
 10
30.60911988683619
 20
99.9049136622541312
 30
-0.0000000000000222
 11
36.0694650502508694
 21
99.9049136622541312
 31
-0.0000000000000222
210
0.0
220
1.0
230
-0.0000000000000002
  0
LINE
  5
360F
  8
0
  6
AUSGEZOGEN
 62
     3
 10
36.069465050250848
 20
101.4049136622541027
 30
-0.0000000000000225
 11
36.5664123697541683
 21
101.4049136622541027
 31
-0.0000000000000225
210
0.0
220
1.0
230
-0.0000000000000002
  0
LINE
  5
3610
  8
0
  6
AUSGEZOGEN
 62
     3
 10
36.069465050250848
 20
99.904913662254117
 30
-0.0000000000000222
 11
36.5664123697541683
 21
99.904913662254117
 31
-0.0000000000000222
210
0.0
220
1.0
230
-0.0000000000000002
  0
LINE
  5
3611
  8
0
  6
AUSGEZOGEN
 62
     3
 10
38.1000309368545231
 20
101.4049136622541027
 30
-0.0000000000000225
 11
36.5664123697541683
 21
101.4049136622541027
 31
-0.0000000000000225
210
0.0
220
1.0
230
-0.0000000000000002
  0
LINE
  5
3612
  8
0
  6
AUSGEZOGEN
 62
     3
 10
38.1000309368545231
 20
99.904913662254117
 30
-0.0000000000000222
 11
36.5664123697541683
 21
99.904913662254117
 31
-0.0000000000000222
210
0.0
220
1.0
230
-0.0000000000000002
  0
LINE
  5
3613
  8
0
  6
AUSGEZOGEN
 62
     3
 10
39.244153742489857
 20
101.4049136622541027
 30
-0.0000000000000225
 11
38.1000309368545302
 21
101.4049136622541027
 31
-0.0000000000000225
210
0.0
220
1.0
230
-0.0000000000000002
  0
LINE
  5
3614
  8
0
  6
AUSGEZOGEN
 62
     3
 10
39.244153742489857
 20
99.904913662254117
 30
-0.0000000000000222
 11
38.1000309368545302
 21
99.904913662254117
 31
-0.0000000000000222
210
0.0
220
1.0
230
-0.0000000000000002
  0
LINE
  5
3615
  8
0
  6
AUSGEZOGEN
 62
     3
 10
48.9270402934535014
 20
101.4049136622541027
 30
-0.0000000000000225
 11
39.244153742489857
 21
101.4049136622541027
 31
-0.0000000000000225
210
0.0
220
1.0
230
-0.0000000000000002
  0
LINE
  5
3616
  8
0
  6
AUSGEZOGEN
 62
     3
 10
48.9270402934535014
 20
99.904913662254117
 30
-0.0000000000000222
 11
39.244153742489857
 21
99.904913662254117
 31
-0.0000000000000222
210
0.0
220
1.0
230
-0.0000000000000002
  0
LINE
  5
3617
  8
0
  6
AUSGEZOGEN
 62
     3
 10
48.9270402934535014
 20
101.4049136622541027
 30
-0.0000000000000225
 11
49.7604882034384488
 21
101.4049136622541027
 31
-0.0000000000000225
210
0.0
220
1.0
230
-0.0000000000000002
  0
LINE
  5
3618
  8
0
  6
AUSGEZOGEN
 62
     3
 10
48.9270402934535014
 20
99.904913662254117
 30
-0.0000000000000222
 11
49.7604882034384488
 21
99.904913662254117
 31
-0.0000000000000222
210
0.0
220
1.0
230
-0.0000000000000002
  0
LINE
  5
3619
  8
0
  6
AUSGEZOGEN
 62
     3
 10
49.7604882034384417
 20
101.4049136622541027
 30
-0.0000000000000225
 11
54.093842660283471
 21
101.4049136622541027
 31
-0.0000000000000225
210
0.0
220
1.0
230
-0.0000000000000002
  0
LINE
  5
361A
  8
0
  6
AUSGEZOGEN
 62
     3
 10
49.7604882034384417
 20
99.904913662254117
 30
-0.0000000000000222
 11
54.093842660283471
 21
99.904913662254117
 31
-0.0000000000000222
210
0.0
220
1.0
230
-0.0000000000000002
  0
LINE
  5
361B
  8
0
  6
AUSGEZOGEN
 62
     3
 10
54.093842660283542
 20
101.4049136622541027
 30
-0.0000000000000225
 11
54.3578720118442789
 21
101.4049136622541027
 31
-0.0000000000000225
210
0.0
220
1.0
230
-0.0000000000000002
  0
LINE
  5
361C
  8
0
  6
AUSGEZOGEN
 62
     3
 10
54.093842660283542
 20
99.904913662254117
 30
-0.0000000000000222
 11
54.3578720118442789
 21
99.904913662254117
 31
-0.0000000000000222
210
0.0
220
1.0
230
-0.0000000000000002
  0
LINE
  5
361D
  8
0
  6
AUSGEZOGEN
 62
     3
 10
63.3260822118575675
 20
101.4049136622541027
 30
-0.0000000000000225
 11
54.3578720118442789
 21
101.4049136622541027
 31
-0.0000000000000225
210
0.0
220
1.0
230
-0.0000000000000002
  0
LINE
  5
361E
  8
0
  6
AUSGEZOGEN
 62
     3
 10
63.3260822118575675
 20
99.904913662254117
 30
-0.0000000000000222
 11
54.3578720118442789
 21
99.904913662254117
 31
-0.0000000000000222
210
0.0
220
1.0
230
-0.0000000000000002
  0
LINE
  5
361F
  8
0
  6
AUSGEZOGEN
 62
     3
 10
63.3260822118575675
 20
101.4049136622541027
 30
-0.0000000000000225
 11
64.0409532329803142
 21
101.4049136622541027
 31
-0.0000000000000225
210
0.0
220
1.0
230
-0.0000000000000002
  0
LINE
  5
3620
  8
0
  6
AUSGEZOGEN
 62
     3
 10
63.3260822118575675
 20
99.904913662254117
 30
-0.0000000000000222
 11
64.0409532329803142
 21
99.904913662254117
 31
-0.0000000000000222
210
0.0
220
1.0
230
-0.0000000000000002
  0
LINE
  5
3621
  8
0
  6
AUSGEZOGEN
 62
     3
 10
64.0409532329803142
 20
101.4049136622541027
 30
-0.0000000000000225
 11
66.8231380567639235
 21
101.4049136622541027
 31
-0.0000000000000225
210
0.0
220
1.0
230
-0.0000000000000002
  0
LINE
  5
3622
  8
0
  6
AUSGEZOGEN
 62
     3
 10
64.0409532329803142
 20
99.904913662254117
 30
-0.0000000000000222
 11
66.8231380567639235
 21
99.904913662254117
 31
-0.0000000000000222
210
0.0
220
1.0
230
-0.0000000000000002
  0
LINE
  5
3623
  8
0
  6
AUSGEZOGEN
 62
     3
 10
66.8231380567639235
 20
101.4049136622541027
 30
-0.0000000000000225
 11
66.9139797158555751
 21
101.4049136622541027
 31
-0.0000000000000225
210
0.0
220
1.0
230
-0.0000000000000002
  0
LINE
  5
3624
  8
0
  6
AUSGEZOGEN
 62
     3
 10
66.8231380567639235
 20
99.904913662254117
 30
-0.0000000000000222
 11
66.9139797158555751
 21
99.904913662254117
 31
-0.0000000000000222
210
0.0
220
1.0
230
-0.0000000000000002
  0
LINE
  5
3625
  8
0
  6
AUSGEZOGEN
 62
     3
 10
71.5263259846060464
 20
101.4049136622541027
 30
-0.0000000000000225
 11
66.9139797158555751
 21
101.4049136622541027
 31
-0.0000000000000225
210
0.0
220
1.0
230
-0.0000000000000002
  0
LINE
  5
3626
  8
0
  6
AUSGEZOGEN
 62
     3
 10
71.5263259846060464
 20
99.904913662254117
 30
-0.0000000000000222
 11
66.9139797158555751
 21
99.904913662254117
 31
-0.0000000000000222
210
0.0
220
1.0
230
-0.0000000000000002
  0
LINE
  5
3627
  8
0
  6
AUSGEZOGEN
 62
     3
 10
71.5263259846060322
 20
101.4049136622541027
 30
-0.0000000000000225
 11
72.0526435605198117
 21
101.4049136622541027
 31
-0.0000000000000225
210
0.0
220
1.0
230
-0.0000000000000002
  0
LINE
  5
3628
  8
0
  6
AUSGEZOGEN
 62
     3
 10
71.5263259846060322
 20
99.904913662254117
 30
-0.0000000000000222
 11
72.0526435605198117
 21
99.904913662254117
 31
-0.0000000000000222
210
0.0
220
1.0
230
-0.0000000000000002
  0
LINE
  5
3629
  8
0
  6
AUSGEZOGEN
 62
     3
 10
72.0526435605198543
 20
101.4049136622541027
 30
-0.0000000000000225
 11
73.0113191160685346
 21
101.4049136622541027
 31
-0.0000000000000225
210
0.0
220
1.0
230
-0.0000000000000002
  0
LINE
  5
362A
  8
0
  6
AUSGEZOGEN
 62
     3
 10
72.0526435605198543
 20
99.904913662254117
 30
-0.0000000000000222
 11
73.0113191160685346
 21
99.904913662254117
 31
-0.0000000000000222
210
0.0
220
1.0
230
-0.0000000000000002
  0
LINE
  5
362B
  8
0
  6
AUSGEZOGEN
 62
     3
 10
73.0113191160685346
 20
101.4049136622541027
 30
-0.0000000000000225
 11
73.0179678355777924
 21
101.4049136622541027
 31
-0.0000000000000225
210
0.0
220
1.0
230
-0.0000000000000002
  0
LINE
  5
362C
  8
0
  6
AUSGEZOGEN
 62
     3
 10
73.0113191160685346
 20
99.904913662254117
 30
-0.0000000000000222
 11
73.0179678355777924
 21
99.904913662254117
 31
-0.0000000000000222
210
0.0
220
1.0
230
-0.0000000000000002
  0
LINE
  5
362D
  8
0
  6
AUSGEZOGEN
 62
     3
 10
-73.0179678355773234
 20
101.4049136622541027
 30
-0.0000000000000225
 11
-73.0113191160680799
 21
101.4049136622541027
 31
-0.0000000000000225
210
0.0
220
1.0
230
-0.0000000000000002
  0
LINE
  5
362E
  8
0
  6
AUSGEZOGEN
 62
     3
 10
-73.0179678355773234
 20
99.904913662254117
 30
-0.0000000000000222
 11
-73.0113191160680799
 21
99.904913662254117
 31
-0.0000000000000222
210
0.0
220
1.0
230
-0.0000000000000002
  0
LINE
  5
362F
  8
0
  6
AUSGEZOGEN
 62
     3
 10
-73.011319116068023
 20
101.4049136622541027
 30
-0.0000000000000225
 11
-72.0526435605193996
 21
101.4049136622541027
 31
-0.0000000000000225
210
0.0
220
1.0
230
-0.0000000000000002
  0
LINE
  5
3630
  8
0
  6
AUSGEZOGEN
 62
     3
 10
-73.011319116068023
 20
99.904913662254117
 30
-0.0000000000000222
 11
-72.0526435605193996
 21
99.904913662254117
 31
-0.0000000000000222
210
0.0
220
1.0
230
-0.0000000000000002
  0
LINE
  5
3631
  8
0
  6
AUSGEZOGEN
 62
     3
 10
-72.0526435605193996
 20
101.4049136622541027
 30
-0.0000000000000225
 11
-71.5263259846055917
 21
101.4049136622541027
 31
-0.0000000000000225
210
0.0
220
1.0
230
-0.0000000000000002
  0
LINE
  5
3632
  8
0
  6
AUSGEZOGEN
 62
     3
 10
-72.0526435605193996
 20
99.904913662254117
 30
-0.0000000000000222
 11
-71.5263259846055917
 21
99.904913662254117
 31
-0.0000000000000222
210
0.0
220
1.0
230
-0.0000000000000002
  0
LINE
  5
3633
  8
0
  6
AUSGEZOGEN
 62
     3
 10
-66.9139797158551346
 20
101.4049136622541027
 30
-0.0000000000000225
 11
-71.5263259846055917
 21
101.4049136622541027
 31
-0.0000000000000225
210
0.0
220
1.0
230
-0.0000000000000002
  0
LINE
  5
3634
  8
0
  6
AUSGEZOGEN
 62
     3
 10
-66.9139797158551346
 20
99.904913662254117
 30
-0.0000000000000222
 11
-71.5263259846055917
 21
99.904913662254117
 31
-0.0000000000000222
210
0.0
220
1.0
230
-0.0000000000000002
  0
LINE
  5
3635
  8
0
  6
AUSGEZOGEN
 62
     3
 10
-66.9139797158551346
 20
101.4049136622541027
 30
-0.0000000000000225
 11
-66.8231380567634687
 21
101.4049136622541027
 31
-0.0000000000000225
210
0.0
220
1.0
230
-0.0000000000000002
  0
LINE
  5
3636
  8
0
  6
AUSGEZOGEN
 62
     3
 10
-66.9139797158551346
 20
99.904913662254117
 30
-0.0000000000000222
 11
-66.8231380567634687
 21
99.904913662254117
 31
-0.0000000000000222
210
0.0
220
1.0
230
-0.0000000000000002
  0
LINE
  5
3637
  8
0
  6
AUSGEZOGEN
 62
     3
 10
-66.8231380567634687
 20
101.4049136622541027
 30
-0.0000000000000225
 11
-64.0409532329798594
 21
101.4049136622541027
 31
-0.0000000000000225
210
0.0
220
1.0
230
-0.0000000000000002
  0
LINE
  5
3638
  8
0
  6
AUSGEZOGEN
 62
     3
 10
-66.8231380567634687
 20
99.904913662254117
 30
-0.0000000000000222
 11
-64.0409532329798594
 21
99.904913662254117
 31
-0.0000000000000222
210
0.0
220
1.0
230
-0.0000000000000002
  0
LINE
  5
3639
  8
0
  6
AUSGEZOGEN
 62
     3
 10
-64.0409532329797742
 20
101.4049136622541027
 30
-0.0000000000000225
 11
-63.3260822118571696
 21
101.4049136622541027
 31
-0.0000000000000225
210
0.0
220
1.0
230
-0.0000000000000002
  0
LINE
  5
363A
  8
0
  6
AUSGEZOGEN
 62
     3
 10
-64.0409532329797742
 20
99.904913662254117
 30
-0.0000000000000222
 11
-63.3260822118571696
 21
99.904913662254117
 31
-0.0000000000000222
210
0.0
220
1.0
230
-0.0000000000000002
  0
LINE
  5
363B
  8
0
  6
AUSGEZOGEN
 62
     3
 10
-54.357872011843881
 20
101.4049136622541027
 30
-0.0000000000000225
 11
-63.3260822118571696
 21
101.4049136622541027
 31
-0.0000000000000225
210
0.0
220
1.0
230
-0.0000000000000002
  0
LINE
  5
363C
  8
0
  6
AUSGEZOGEN
 62
     3
 10
-54.357872011843881
 20
99.904913662254117
 30
-0.0000000000000222
 11
-63.3260822118571696
 21
99.904913662254117
 31
-0.0000000000000222
210
0.0
220
1.0
230
-0.0000000000000002
  0
LINE
  5
363D
  8
0
  6
AUSGEZOGEN
 62
     3
 10
-54.3578720118438881
 20
101.4049136622541027
 30
-0.0000000000000225
 11
-54.0938426602830802
 21
101.4049136622541027
 31
-0.0000000000000225
210
0.0
220
1.0
230
-0.0000000000000002
  0
LINE
  5
363E
  8
0
  6
AUSGEZOGEN
 62
     3
 10
-54.3578720118438881
 20
99.904913662254117
 30
-0.0000000000000222
 11
-54.0938426602830802
 21
99.904913662254117
 31
-0.0000000000000222
210
0.0
220
1.0
230
-0.0000000000000002
  0
LINE
  5
363F
  8
0
  6
AUSGEZOGEN
 62
     3
 10
-54.0938426602830873
 20
101.4049136622541027
 30
-0.0000000000000225
 11
-49.7604882034380509
 21
101.4049136622541027
 31
-0.0000000000000225
210
0.0
220
1.0
230
-0.0000000000000002
  0
LINE
  5
3640
  8
0
  6
AUSGEZOGEN
 62
     3
 10
-54.0938426602830873
 20
99.904913662254117
 30
-0.0000000000000222
 11
-49.7604882034380509
 21
99.904913662254117
 31
-0.0000000000000222
210
0.0
220
1.0
230
-0.0000000000000002
  0
LINE
  5
3641
  8
0
  6
AUSGEZOGEN
 62
     3
 10
-49.760488203438058
 20
101.4049136622541027
 30
-0.0000000000000225
 11
-48.9270402934531035
 21
101.4049136622541027
 31
-0.0000000000000225
210
0.0
220
1.0
230
-0.0000000000000002
  0
LINE
  5
3642
  8
0
  6
AUSGEZOGEN
 62
     3
 10
-49.760488203438058
 20
99.904913662254117
 30
-0.0000000000000222
 11
-48.9270402934531035
 21
99.904913662254117
 31
-0.0000000000000222
210
0.0
220
1.0
230
-0.0000000000000002
  0
LINE
  5
3643
  8
0
  6
AUSGEZOGEN
 62
     3
 10
-39.2441537424895088
 20
101.4049136622541027
 30
-0.0000000000000225
 11
-48.9270402934531035
 21
101.4049136622541027
 31
-0.0000000000000225
210
0.0
220
1.0
230
-0.0000000000000002
  0
LINE
  5
3644
  8
0
  6
AUSGEZOGEN
 62
     3
 10
-39.2441537424895088
 20
99.904913662254117
 30
-0.0000000000000222
 11
-48.9270402934531035
 21
99.904913662254117
 31
-0.0000000000000222
210
0.0
220
1.0
230
-0.0000000000000002
  0
LINE
  5
3645
  8
0
  6
AUSGEZOGEN
 62
     3
 10
-38.1000309368541821
 20
101.4049136622541027
 30
-0.0000000000000225
 11
-39.2441537424895088
 21
101.4049136622541027
 31
-0.0000000000000225
210
0.0
220
1.0
230
-0.0000000000000002
  0
LINE
  5
3646
  8
0
  6
AUSGEZOGEN
 62
     3
 10
-38.1000309368541821
 20
99.904913662254117
 30
-0.0000000000000222
 11
-39.2441537424895088
 21
99.904913662254117
 31
-0.0000000000000222
210
0.0
220
1.0
230
-0.0000000000000002
  0
LINE
  5
3647
  8
0
  6
AUSGEZOGEN
 62
     3
 10
-36.5664123697537207
 20
101.4049136622541027
 30
-0.0000000000000225
 11
-38.1000309368541821
 21
101.4049136622541027
 31
-0.0000000000000225
210
0.0
220
1.0
230
-0.0000000000000002
  0
LINE
  5
3648
  8
0
  6
AUSGEZOGEN
 62
     3
 10
-36.5664123697537207
 20
99.904913662254117
 30
-0.0000000000000222
 11
-38.1000309368541821
 21
99.904913662254117
 31
-0.0000000000000222
210
0.0
220
1.0
230
-0.0000000000000002
  0
LINE
  5
3649
  8
0
  6
AUSGEZOGEN
 62
     3
 10
-36.5664123697537278
 20
101.4049136622541027
 30
-0.0000000000000225
 11
-36.0694650502505283
 21
101.4049136622541027
 31
-0.0000000000000225
210
0.0
220
1.0
230
-0.0000000000000002
  0
LINE
  5
364A
  8
0
  6
AUSGEZOGEN
 62
     3
 10
-36.5664123697537278
 20
99.904913662254117
 30
-0.0000000000000222
 11
-36.0694650502505283
 21
99.904913662254117
 31
-0.0000000000000222
210
0.0
220
1.0
230
-0.0000000000000002
  0
LINE
  5
364B
  8
0
  6
AUSGEZOGEN
 62
     3
 10
-36.0694650502505283
 20
101.4049136622541027
 30
-0.0000000000000225
 11
-30.6091198868357388
 21
101.4049136622541027
 31
-0.0000000000000225
210
0.0
220
1.0
230
-0.0000000000000002
  0
LINE
  5
364C
  8
0
  6
AUSGEZOGEN
 62
     3
 10
-36.0694650502505283
 20
99.9049136622541312
 30
-0.0000000000000222
 11
-30.6091198868357388
 21
99.9049136622541312
 31
-0.0000000000000222
210
0.0
220
1.0
230
-0.0000000000000002
  0
LINE
  5
364D
  8
0
  6
AUSGEZOGEN
 62
     3
 10
-30.6091198868357388
 20
101.4049136622541027
 30
-0.0000000000000225
 11
-29.738678776390941
 21
101.4049136622541027
 31
-0.0000000000000225
210
0.0
220
1.0
230
-0.0000000000000002
  0
LINE
  5
364E
  8
0
  6
AUSGEZOGEN
 62
     3
 10
-30.6091198868357388
 20
99.904913662254117
 30
-0.0000000000000222
 11
-29.738678776390941
 21
99.904913662254117
 31
-0.0000000000000222
210
0.0
220
1.0
230
-0.0000000000000002
  0
LINE
  5
364F
  8
0
  6
AUSGEZOGEN
 62
     3
 10
-21.0036206256734204
 20
101.4049136622541027
 30
-0.0000000000000225
 11
-29.738678776390941
 21
101.4049136622541027
 31
-0.0000000000000225
210
0.0
220
1.0
230
-0.0000000000000002
  0
LINE
  5
3650
  8
0
  6
AUSGEZOGEN
 62
     3
 10
-21.0036206256734204
 20
99.904913662254117
 30
-0.0000000000000222
 11
-29.738678776390941
 21
99.904913662254117
 31
-0.0000000000000222
210
0.0
220
1.0
230
-0.0000000000000002
  0
LINE
  5
3651
  8
0
  6
AUSGEZOGEN
 62
     3
 10
-19.6586236017454894
 20
101.4049136622541027
 30
-0.0000000000000225
 11
-21.003620625673431
 21
101.4049136622541027
 31
-0.0000000000000225
210
0.0
220
1.0
230
-0.0000000000000002
  0
LINE
  5
3652
  8
0
  6
AUSGEZOGEN
 62
     3
 10
-19.6586236017454894
 20
99.904913662254117
 30
-0.0000000000000222
 11
-21.003620625673431
 21
99.904913662254117
 31
-0.0000000000000222
210
0.0
220
1.0
230
-0.0000000000000002
  0
LINE
  5
3653
  8
0
  6
AUSGEZOGEN
 62
     3
 10
-15.2078891711409998
 20
101.4049136622541027
 30
-0.0000000000000225
 11
-19.6586236017454894
 21
101.4049136622541027
 31
-0.0000000000000225
210
0.0
220
1.0
230
-0.0000000000000002
  0
LINE
  5
3654
  8
0
  6
AUSGEZOGEN
 62
     3
 10
-15.2078891711409998
 20
99.904913662254117
 30
-0.0000000000000222
 11
-19.6586236017454894
 21
99.904913662254117
 31
-0.0000000000000222
210
0.0
220
1.0
230
-0.0000000000000002
  0
LINE
  5
3655
  8
0
  6
AUSGEZOGEN
 62
     3
 10
-15.2078891711409891
 20
101.4049136622541027
 30
-0.0000000000000225
 11
-14.51435689035889
 21
101.4049136622541027
 31
-0.0000000000000225
210
0.0
220
1.0
230
-0.0000000000000002
  0
LINE
  5
3656
  8
0
  6
AUSGEZOGEN
 62
     3
 10
-15.2078891711409891
 20
99.904913662254117
 30
-0.0000000000000222
 11
-14.51435689035889
 21
99.904913662254117
 31
-0.0000000000000222
210
0.0
220
1.0
230
-0.0000000000000002
  0
LINE
  5
3657
  8
0
  6
AUSGEZOGEN
 62
     3
 10
-14.51435689035889
 20
101.4049136622541027
 30
-0.0000000000000225
 11
-8.4615176494314692
 21
101.4049136622541027
 31
-0.0000000000000225
210
0.0
220
1.0
230
-0.0000000000000002
  0
LINE
  5
3658
  8
0
  6
AUSGEZOGEN
 62
     3
 10
-14.51435689035889
 20
99.9049136622541312
 30
-0.0000000000000222
 11
-8.4615176494314692
 21
99.9049136622541312
 31
-0.0000000000000222
210
0.0
220
1.0
230
-0.0000000000000002
  0
LINE
  5
3659
  8
0
  6
AUSGEZOGEN
 62
     3
 10
-8.4615176494314692
 20
101.4049136622541027
 30
-0.0000000000000225
 11
-7.6392881791369973
 21
101.4049136622541027
 31
-0.0000000000000225
210
0.0
220
1.0
230
-0.0000000000000002
  0
LINE
  5
365A
  8
0
  6
AUSGEZOGEN
 62
     3
 10
-8.4615176494314692
 20
99.904913662254117
 30
-0.0000000000000222
 11
-7.6392881791369973
 21
99.904913662254117
 31
-0.0000000000000222
210
0.0
220
1.0
230
-0.0000000000000002
  0
LINE
  5
365B
  8
0
  6
AUSGEZOGEN
 62
     3
 10
-0.7071067811863827
 20
101.4049136622541027
 30
-0.0000000000000225
 11
-7.6392881791369973
 21
101.4049136622541027
 31
-0.0000000000000225
210
0.0
220
1.0
230
-0.0000000000000002
  0
LINE
  5
365C
  8
0
  6
AUSGEZOGEN
 62
     3
 10
-0.7071067811863827
 20
99.904913662254117
 30
-0.0000000000000222
 11
-7.6392881791369973
 21
99.904913662254117
 31
-0.0000000000000222
210
0.0
220
1.0
230
-0.0000000000000002
  0
LINE
  5
365D
  8
0
  6
AUSGEZOGEN
 62
     3
 10
0.7071067811867238
 20
101.4049136622541027
 30
-0.0000000000000225
 11
-0.7071067811863827
 21
101.4049136622541027
 31
-0.0000000000000225
210
0.0
220
1.0
230
-0.0000000000000002
  0
LINE
  5
365E
  8
0
  6
AUSGEZOGEN
 62
     3
 10
0.7071067811867238
 20
99.904913662254117
 30
-0.0000000000000222
 11
-0.7071067811863827
 21
99.904913662254117
 31
-0.0000000000000222
210
0.0
220
1.0
230
-0.0000000000000002
  0
LINE
  5
365F
  8
0
  6
AUSGEZOGEN
 62
     3
 10
7.6392881791373952
 20
101.4049136622541027
 30
-0.0000000000000225
 11
0.7071067811867238
 21
101.4049136622541027
 31
-0.0000000000000225
210
0.0
220
1.0
230
-0.0000000000000002
  0
LINE
  5
3660
  8
0
  6
AUSGEZOGEN
 62
     3
 10
7.6392881791373952
 20
99.904913662254117
 30
-0.0000000000000222
 11
0.7071067811867238
 21
99.904913662254117
 31
-0.0000000000000222
210
0.0
220
1.0
230
-0.0000000000000002
  0
LINE
  5
3661
  8
0
  6
AUSGEZOGEN
 62
     3
 10
7.639288179137389
 20
101.4049136622541027
 30
-0.0000000000000225
 11
8.4615176494318671
 21
101.4049136622541027
 31
-0.0000000000000225
210
0.0
220
1.0
230
-0.0000000000000002
  0
LINE
  5
3662
  8
0
  6
AUSGEZOGEN
 62
     3
 10
7.639288179137389
 20
99.904913662254117
 30
-0.0000000000000222
 11
8.4615176494318671
 21
99.904913662254117
 31
-0.0000000000000222
210
0.0
220
1.0
230
-0.0000000000000002
  0
LINE
  5
3663
  8
0
  6
AUSGEZOGEN
 62
     3
 10
8.4615176494318671
 20
101.4049136622541027
 30
-0.0000000000000225
 11
14.5143568903592897
 21
101.4049136622541027
 31
-0.0000000000000225
210
0.0
220
1.0
230
-0.0000000000000002
  0
LINE
  5
3664
  8
0
  6
AUSGEZOGEN
 62
     3
 10
8.4615176494318671
 20
99.9049136622541312
 30
-0.0000000000000222
 11
14.5143568903592897
 21
99.9049136622541312
 31
-0.0000000000000222
210
0.0
220
1.0
230
-0.0000000000000002
  0
LINE
  5
3665
  8
0
  6
AUSGEZOGEN
 62
     3
 10
14.5143568903592897
 20
101.4049136622541027
 30
-0.0000000000000225
 11
15.2078891711414599
 21
101.4049136622541027
 31
-0.0000000000000225
210
0.0
220
1.0
230
-0.0000000000000002
  0
LINE
  5
3666
  8
0
  6
AUSGEZOGEN
 62
     3
 10
14.5143568903592897
 20
99.904913662254117
 30
-0.0000000000000222
 11
15.2078891711414599
 21
99.904913662254117
 31
-0.0000000000000222
210
0.0
220
1.0
230
-0.0000000000000002
  0
LINE
  5
3667
  8
0
  6
AUSGEZOGEN
 62
     3
 10
19.6586236017458305
 20
101.4049136622541027
 30
-0.0000000000000225
 11
15.2078891711414599
 21
101.4049136622541027
 31
-0.0000000000000225
210
0.0
220
1.0
230
-0.0000000000000002
  0
LINE
  5
3668
  8
0
  6
AUSGEZOGEN
 62
     3
 10
19.6586236017458305
 20
99.904913662254117
 30
-0.0000000000000222
 11
15.2078891711414599
 21
99.904913662254117
 31
-0.0000000000000222
210
0.0
220
1.0
230
-0.0000000000000002
  0
LINE
  5
3669
  8
0
  6
AUSGEZOGEN
 62
     3
 10
21.0036206256737614
 20
101.4049136622541027
 30
-0.0000000000000225
 11
19.6586236017459512
 21
101.4049136622541027
 31
-0.0000000000000225
210
0.0
220
1.0
230
-0.0000000000000002
  0
LINE
  5
366A
  8
0
  6
AUSGEZOGEN
 62
     3
 10
21.0036206256737614
 20
99.904913662254117
 30
-0.0000000000000222
 11
19.6586236017459512
 21
99.904913662254117
 31
-0.0000000000000222
210
0.0
220
1.0
230
-0.0000000000000002
  0
LINE
  5
366B
  8
0
  6
AUSGEZOGEN
 62
     3
 10
54.3578720118442504
 20
101.4049136622541027
 30
-0.0000000000000225
 11
54.3578720118442504
 21
99.904913662254117
 31
-0.0000000000000222
210
0.0
220
1.0
230
-0.0000000000000002
  0
LINE
  5
366C
  8
0
  6
AUSGEZOGEN
 62
     3
 10
66.9139797158556036
 20
101.4049136622541027
 30
-0.0000000000000225
 11
66.9139797158556036
 21
99.904913662254117
 31
-0.0000000000000222
210
0.0
220
1.0
230
-0.0000000000000002
  0
LINE
  5
366D
  8
0
  6
AUSGEZOGEN
 62
     3
 10
73.0179678355777924
 20
101.4049136622541027
 30
-0.0000000000000225
 11
73.0179678355777924
 21
99.904913662254117
 31
-0.0000000000000222
210
0.0
220
1.0
230
-0.0000000000000002
  0
LINE
  5
366E
  8
0
  6
AUSGEZOGEN
 62
     3
 10
-73.0179678355773234
 20
101.4049136622541027
 30
-0.0000000000000225
 11
-73.0179678355773234
 21
99.904913662254117
 31
-0.0000000000000222
210
0.0
220
1.0
230
-0.0000000000000002
  0
LINE
  5
366F
  8
0
  6
AUSGEZOGEN
 62
     3
 10
-66.9139797158551488
 20
101.4049136622541027
 30
-0.0000000000000225
 11
-66.9139797158551488
 21
99.904913662254117
 31
-0.0000000000000222
210
0.0
220
1.0
230
-0.0000000000000002
  0
LINE
  5
3670
  8
0
  6
AUSGEZOGEN
 62
     3
 10
-54.3578720118438881
 20
101.4049136622541027
 30
-0.0000000000000225
 11
-54.3578720118438881
 21
99.904913662254117
 31
-0.0000000000000222
210
0.0
220
1.0
230
-0.0000000000000002
  0
LINE
  5
3671
  8
0
  6
VERDECKT
 62
     1
 10
-15.2315462117281903
 20
172.0
 30
-0.0000000000000382
 11
-15.2315462117281903
 21
165.0
 31
-0.0000000000000366
210
0.0
220
1.0
230
-0.0000000000000002
  0
LINE
  5
3672
  8
0
  6
VERDECKT
 62
     1
 10
15.2315462117281903
 20
165.0
 30
-0.0000000000000366
 11
15.2315462117281903
 21
172.0
 31
-0.0000000000000382
210
0.0
220
1.0
230
-0.0000000000000002
  0
LINE
  5
3673
  8
0
  6
VERDECKT
 62
     1
 10
59.0
 20
165.0
 30
-0.0000000000000366
 11
57.0
 21
165.0
 31
-0.0000000000000366
210
0.0
220
1.0
230
-0.0000000000000002
  0
LINE
  5
3674
  8
0
  6
VERDECKT
 62
     1
 10
57.0
 20
172.0
 30
-0.0000000000000382
 11
57.0
 21
165.0
 31
-0.0000000000000366
210
0.0
220
1.0
230
-0.0000000000000002
  0
LINE
  5
3675
  8
0
  6
VERDECKT
 62
     1
 10
57.0
 20
172.0
 30
-0.0000000000000382
 11
59.0
 21
172.0
 31
-0.0000000000000382
210
0.0
220
1.0
230
-0.0000000000000002
  0
LINE
  5
3676
  8
0
  6
VERDECKT
 62
     1
 10
-57.0
 20
165.0
 30
-0.0000000000000366
 11
-59.0
 21
165.0
 31
-0.0000000000000366
210
0.0
220
1.0
230
-0.0000000000000002
  0
LINE
  5
3677
  8
0
  6
VERDECKT
 62
     1
 10
-57.0
 20
165.0
 30
-0.0000000000000366
 11
-57.0
 21
172.0
 31
-0.0000000000000382
210
0.0
220
1.0
230
-0.0000000000000002
  0
LINE
  5
3678
  8
0
  6
VERDECKT
 62
     1
 10
-59.0000000000000071
 20
172.0
 30
-0.0000000000000382
 11
-57.0000000000000071
 21
172.0
 31
-0.0000000000000382
210
0.0
220
1.0
230
-0.0000000000000002
  0
LINE
  5
3679
  8
0
  6
VERDECKT
 62
     1
 10
62.0000000000002274
 20
12.5314222700816398
 30
-0.0000000000000028
 11
62.0000000000002274
 21
0.0
 31
0.0
210
0.0
220
1.0
230
-0.0000000000000002
  0
LINE
  5
367A
  8
0
  6
VERDECKT
 62
     1
 10
-62.0000000000002274
 20
12.5314222700816398
 30
-0.0000000000000028
 11
-62.0000000000002274
 21
0.0
 31
0.0
210
0.0
220
1.0
230
-0.0000000000000002
  0
ARC
  5
367B
  8
0
  6
VERDECKT
 62
     1
 10
47.999999999997442
 20
12.5314222700811708
 30
0.0
 40
14.0000000000025597
210
0.0
220
-0.0000000000000002
230
-1.0
 50
0.0000000000018956
 51
19.9999999999979785
  0
ARC
  5
367C
  8
0
  6
VERDECKT
 62
     1
 10
-47.9999999999976623
 20
12.5314222700812401
 30
0.0
 40
14.0000000000023306
210
0.0
220
-0.0000000000000002
230
-1.0
 50
160.0000000000019043
 51
179.9999999999984084
  0
LINE
  5
367D
  8
0
  6
VERDECKT
 62
     1
 10
49.9649180674255007
 20
48.0661158510345032
 30
-0.0000000000000107
 11
61.1556966910027313
 21
17.319704276640941
 31
-0.0000000000000038
210
0.0
220
1.0
230
-0.0000000000000002
  0
LINE
  5
367E
  8
0
  6
VERDECKT
 62
     1
 10
-49.9649180674255007
 20
48.0661158510345032
 30
-0.0000000000000107
 11
-61.1556966910027313
 21
17.319704276640941
 31
-0.0000000000000038
210
0.0
220
1.0
230
-0.0000000000000002
  0
ARC
  5
367F
  8
0
  6
VERDECKT
 62
     1
 10
65.0000000000013642
 20
53.5384381442455677
 30
0.0
 40
16.0000000000013607
210
0.0
220
-0.0000000000000002
230
-1.0
 50
180.0000000000011084
 51
199.9999999999996021
  0
ARC
  5
3680
  8
0
  6
VERDECKT
 62
     1
 10
-65.00000000000135
 20
53.5384381442455606
 30
0.0
 40
16.00000000000135
210
0.0
220
-0.0000000000000002
230
-1.0
 50
340.0000000000002842
 51
359.9999999999988063
  0
LINE
  5
3681
  8
0
  6
VERDECKT
 62
     1
 10
49.0
 20
78.6829093658077028
 30
-0.0000000000000175
 11
49.0
 21
53.5384381442452266
 31
-0.0000000000000119
210
0.0
220
1.0
230
-0.0000000000000002
  0
LINE
  5
3682
  8
0
  6
VERDECKT
 62
     1
 10
-49.0
 20
78.6829093658077028
 30
-0.0000000000000175
 11
-49.0
 21
53.5384381442452266
 31
-0.0000000000000119
210
0.0
220
1.0
230
-0.0000000000000002
  0
ARC
  5
3683
  8
0
  6
VERDECKT
 62
     1
 10
62.9999999999996376
 20
78.6829093658085412
 30
0.0
 40
13.9999999999996199
210
0.0
220
-0.0000000000000002
230
-1.0
 50
160.0000000000001137
 51
180.0000000000032969
  0
ARC
  5
3684
  8
0
  6
VERDECKT
 62
     1
 10
-62.999999999999801
 20
78.6829093658084986
 30
0.0
 40
13.9999999999997904
210
0.0
220
-0.0000000000000002
230
-1.0
 50
359.9999999999967031
 51
19.9999999999998614
  0
LINE
  5
3685
  8
0
  6
VERDECKT
 62
     1
 10
-49.8443033089973184
 20
83.4711913723677412
 30
-0.0000000000000185
 11
-58.1556966910026603
 21
106.306557013631604
 31
-0.0000000000000236
210
0.0
220
1.0
230
-0.0000000000000002
  0
LINE
  5
3686
  8
0
  6
VERDECKT
 62
     1
 10
49.8443033089973184
 20
83.4711913723677412
 30
-0.0000000000000185
 11
58.1556966910026603
 21
106.306557013631604
 31
-0.0000000000000236
210
0.0
220
1.0
230
-0.0000000000000002
  0
ARC
  5
3687
  8
0
  6
VERDECKT
 62
     1
 10
44.9999999999997513
 20
111.0948390201912019
 30
0.0
 40
14.0000000000002398
210
0.0
220
-0.0000000000000002
230
-1.0
 50
339.9999999999989768
 51
359.9999999999994884
  0
ARC
  5
3688
  8
0
  6
VERDECKT
 62
     1
 10
-44.9999999999997513
 20
111.0948390201912019
 30
0.0
 40
14.0000000000002505
210
0.0
220
-0.0000000000000002
230
-1.0
 50
180.0000000000003979
 51
200.0000000000009095
  0
LINE
  5
3689
  8
0
  6
VERDECKT
 62
     1
 10
59.0
 20
180.0
 30
-0.00000000000004
 11
59.0
 21
172.0000000000001137
 31
-0.0000000000000382
210
0.0
220
1.0
230
-0.0000000000000002
  0
LINE
  5
368A
  8
0
  6
VERDECKT
 62
     1
 10
59.0
 20
165.0000000000001137
 30
-0.0000000000000366
 11
59.0
 21
111.0948390201911025
 31
-0.0000000000000247
210
0.0
220
1.0
230
-0.0000000000000002
  0
LINE
  5
368B
  8
0
  6
VERDECKT
 62
     1
 10
-59.0
 20
180.0
 30
-0.00000000000004
 11
-59.0
 21
172.0000000000001137
 31
-0.0000000000000382
210
0.0
220
1.0
230
-0.0000000000000002
  0
LINE
  5
368C
  8
0
  6
VERDECKT
 62
     1
 10
-59.0
 20
165.0000000000001137
 30
-0.0000000000000366
 11
-59.0
 21
111.0948390201911025
 31
-0.0000000000000247
210
0.0
220
1.0
230
-0.0000000000000002
  0
LINE
  5
368D
  8
0
  6
VERDECKT
 62
     1
 10
-57.954044656741921
 20
99.9049136622541312
 30
-0.0000000000000222
 11
-58.5000000000002629
 21
101.4049136622541027
 31
-0.0000000000000225
210
0.0
220
1.0
230
-0.0000000000000002
  0
LINE
  5
368E
  8
0
  6
VERDECKT
 62
     1
 10
57.954044656741921
 20
99.9049136622541312
 30
-0.0000000000000222
 11
58.5000000000002629
 21
101.4049136622541027
 31
-0.0000000000000225
210
0.0
220
1.0
230
-0.0000000000000002
  0
LINE
  5
368F
  8
0
  6
VERDECKT
 62
     1
 10
24.6914264549235405
 20
172.0000000000001137
 30
-0.0000000000000382
 11
17.6914264549235405
 21
167.0000000000001137
 31
-0.0000000000000371
210
0.0
220
1.0
230
-0.0000000000000002
  0
LINE
  5
3690
  8
0
  6
VERDECKT
 62
     1
 10
20.2895026662766895
 20
167.0000000000001137
 30
-0.0000000000000371
 11
27.2895026662766895
 21
172.0000000000001137
 31
-0.0000000000000382
210
0.0
220
1.0
230
-0.0000000000000002
  0
LINE
  5
3691
  8
0
  6
VERDECKT
 62
     1
 10
20.2895026662766895
 20
167.0000000000001137
 30
-0.0000000000000371
 11
17.6914264549234304
 21
167.0000000000001137
 31
-0.0000000000000371
210
0.0
220
1.0
230
-0.0000000000000002
  0
LINE
  5
3692
  8
0
  6
VERDECKT
 62
     1
 10
17.6914264549234304
 20
167.0000000000001137
 30
-0.0000000000000371
 11
14.1914264549234304
 21
167.000000000000199
 31
-0.0000000000000371
210
0.0
220
1.0
230
-0.0000000000000002
  0
LINE
  5
3693
  8
0
  6
VERDECKT
 62
     1
 10
14.1914264549235405
 20
167.000000000000199
 30
-0.0000000000000371
 11
14.1914264549235405
 21
159.8000000000002956
 31
-0.0000000000000355
210
0.0
220
1.0
230
-0.0000000000000002
  0
LINE
  5
3694
  8
0
  6
VERDECKT
 62
     1
 10
16.7895026662766895
 20
159.8000000000002103
 30
-0.0000000000000355
 11
16.7895026662766895
 21
167.0000000000001137
 31
-0.0000000000000371
210
0.0
220
1.0
230
-0.0000000000000002
  0
LINE
  5
3695
  8
0
  6
VERDECKT
 62
     1
 10
14.1914264549234304
 20
159.8000000000002956
 30
-0.0000000000000355
 11
17.6914264549235405
 21
159.8000000000002956
 31
-0.0000000000000355
210
0.0
220
1.0
230
-0.0000000000000002
  0
LINE
  5
3696
  8
0
  6
VERDECKT
 62
     1
 10
20.2895026662767997
 20
159.8000000000002956
 30
-0.0000000000000355
 11
17.6914264549235405
 21
159.8000000000002956
 31
-0.0000000000000355
210
0.0
220
1.0
230
-0.0000000000000002
  0
LINE
  5
3697
  8
0
  6
VERDECKT
 62
     1
 10
17.6914264549233202
 20
159.8000000000004093
 30
-0.0000000000000355
 11
24.6914264549233202
 21
154.8000000000004093
 31
-0.0000000000000344
210
0.0
220
1.0
230
-0.0000000000000002
  0
LINE
  5
3698
  8
0
  6
VERDECKT
 62
     1
 10
27.2895026662766895
 20
154.8000000000002103
 30
-0.0000000000000344
 11
20.2895026662766895
 21
159.8000000000002103
 31
-0.0000000000000355
210
0.0
220
1.0
230
-0.0000000000000002
  0
LINE
  5
3699
  8
0
  6
VERDECKT
 62
     1
 10
24.6914264549233202
 20
154.8000000000002956
 30
-0.0000000000000344
 11
28.1914264549233202
 21
154.8000000000002103
 31
-0.0000000000000344
210
0.0
220
1.0
230
-0.0000000000000002
  0
LINE
  5
369A
  8
0
  6
VERDECKT
 62
     1
 10
30.7895026662765794
 20
154.8000000000002103
 30
-0.0000000000000344
 11
28.1914264549233202
 21
154.8000000000002103
 31
-0.0000000000000344
210
0.0
220
1.0
230
-0.0000000000000002
  0
LINE
  5
369B
  8
0
  6
VERDECKT
 62
     1
 10
28.1914264549233202
 20
154.8000000000000966
 30
-0.0000000000000344
 11
28.1914264549233202
 21
157.3000000000000966
 31
-0.0000000000000349
210
0.0
220
1.0
230
-0.0000000000000002
  0
LINE
  5
369C
  8
0
  6
VERDECKT
 62
     1
 10
30.7895026662765794
 20
157.3000000000002103
 30
-0.0000000000000349
 11
30.7895026662765794
 21
154.8000000000002103
 31
-0.0000000000000344
210
0.0
220
1.0
230
-0.0000000000000002
  0
LINE
  5
369D
  8
0
  6
VERDECKT
 62
     1
 10
30.7895026662765794
 20
157.3000000000002103
 30
-0.0000000000000349
 11
28.1914264549233202
 21
157.3000000000002103
 31
-0.0000000000000349
210
0.0
220
1.0
230
-0.0000000000000002
  0
LINE
  5
369E
  8
0
  6
VERDECKT
 62
     1
 10
28.1914264549233202
 20
157.3000000000002103
 30
-0.0000000000000349
 11
27.1914264549233202
 21
158.4547005383795124
 31
-0.0000000000000352
210
0.0
220
1.0
230
-0.0000000000000002
  0
LINE
  5
369F
  8
0
  6
VERDECKT
 62
     1
 10
29.7895026662766895
 20
158.4547005383795124
 30
-0.0000000000000352
 11
30.7895026662766895
 21
157.3000000000002103
 31
-0.0000000000000349
210
0.0
220
1.0
230
-0.0000000000000002
  0
LINE
  5
36A0
  8
0
  6
VERDECKT
 62
     1
 10
29.7895026662766895
 20
158.4547005383795124
 30
-0.0000000000000352
 11
27.1914264549234304
 21
158.4547005383795124
 31
-0.0000000000000352
210
0.0
220
1.0
230
-0.0000000000000002
  0
LINE
  5
36A1
  8
0
  6
VERDECKT
 62
     1
 10
27.1914264549233202
 20
158.4547005383795124
 30
-0.0000000000000352
 11
27.1914264549233202
 21
168.3452994616208969
 31
-0.0000000000000374
210
0.0
220
1.0
230
-0.0000000000000002
  0
LINE
  5
36A2
  8
0
  6
VERDECKT
 62
     1
 10
29.7895026662766895
 20
168.3452994616208116
 30
-0.0000000000000374
 11
29.7895026662766895
 21
158.4547005383793987
 31
-0.0000000000000352
210
0.0
220
1.0
230
-0.0000000000000002
  0
LINE
  5
36A3
  8
0
  6
VERDECKT
 62
     1
 10
29.7895026662766895
 20
168.3452994616208116
 30
-0.0000000000000374
 11
27.1914264549234304
 21
168.3452994616208116
 31
-0.0000000000000374
210
0.0
220
1.0
230
-0.0000000000000002
  0
LINE
  5
36A4
  8
0
  6
VERDECKT
 62
     1
 10
27.1914264549233202
 20
168.3452994616208969
 30
-0.0000000000000374
 11
28.1914264549233202
 21
169.500000000000199
 31
-0.0000000000000376
210
0.0
220
1.0
230
-0.0000000000000002
  0
LINE
  5
36A5
  8
0
  6
VERDECKT
 62
     1
 10
30.7895026662766895
 20
169.5000000000001137
 30
-0.0000000000000376
 11
29.7895026662766895
 21
168.3452994616208116
 31
-0.0000000000000374
210
0.0
220
1.0
230
-0.0000000000000002
  0
LINE
  5
36A6
  8
0
  6
VERDECKT
 62
     1
 10
30.7895026662766895
 20
169.5000000000001137
 30
-0.0000000000000376
 11
28.1914264549234304
 21
169.5000000000001137
 31
-0.0000000000000376
210
0.0
220
1.0
230
-0.0000000000000002
  0
LINE
  5
36A7
  8
0
  6
VERDECKT
 62
     1
 10
28.1914264549233202
 20
169.500000000000199
 30
-0.0000000000000376
 11
28.1914264549233202
 21
172.000000000000199
 31
-0.0000000000000382
210
0.0
220
1.0
230
-0.0000000000000002
  0
LINE
  5
36A8
  8
0
  6
VERDECKT
 62
     1
 10
30.7895026662766895
 20
172.0000000000001137
 30
-0.0000000000000382
 11
30.7895026662766895
 21
169.5000000000001137
 31
-0.0000000000000376
210
0.0
220
1.0
230
-0.0000000000000002
  0
LINE
  5
36A9
  8
0
  6
VERDECKT
 62
     1
 10
30.7895026662766895
 20
172.0000000000001137
 30
-0.0000000000000382
 11
28.1914264549234304
 21
172.0000000000001137
 31
-0.0000000000000382
210
0.0
220
1.0
230
-0.0000000000000002
  0
LINE
  5
36AA
  8
0
  6
VERDECKT
 62
     1
 10
28.1914264549233202
 20
172.000000000000199
 30
-0.0000000000000382
 11
24.6914264549233202
 21
172.0000000000001137
 31
-0.0000000000000382
210
0.0
220
1.0
230
-0.0000000000000002
  0
LINE
  5
36AB
  8
0
  6
VERDECKT
 62
     1
 10
-57.8686291501016967
 20
119.9999999999999005
 30
-0.0000000000000266
 11
57.3686291501016967
 21
119.9999999999999005
 31
-0.0000000000000266
210
0.0
220
1.0
230
-0.0000000000000002
  0
LINE
  5
36AC
  8
0
  6
VERDECKT
 62
     1
 10
-59.0000000000001066
 20
118.8686291501014978
 30
-0.0000000000000264
 11
58.5000000000001066
 21
118.8686291501014978
 31
-0.0000000000000264
210
0.0
220
1.0
230
-0.0000000000000002
  0
LINE
  5
36AD
  8
0
  6
VERDECKT
 62
     1
 10
-35.8875793553185076
 20
2.000000000000028
 30
-0.0000000000000004
 11
35.3875793553185076
 21
2.000000000000028
 31
-0.0000000000000004
210
0.0
220
1.0
230
-0.0000000000000002
  0
LINE
  5
36AE
  8
0
  6
VERDECKT
 62
     1
 10
-34.2814676152490918
 20
2.0000000000000289
 30
-0.0000000000000004
 11
-34.9000000000000909
 21
9.0698575086549642
 31
-0.000000000000002
210
0.0
220
1.0
230
-0.0000000000000002
  0
LINE
  5
36AF
  8
0
  6
VERDECKT
 62
     1
 10
33.7814676152490918
 20
2.0000000000000289
 30
-0.0000000000000004
 11
34.4000000000000909
 21
9.0698575086549642
 31
-0.000000000000002
210
0.0
220
1.0
230
-0.0000000000000002
  0
LINE
  5
36B0
  8
0
  6
VERDECKT
 62
     1
 10
34.4000000000000909
 20
91.3980664016244901
 30
-0.0000000000000203
 11
34.4000000000000909
 21
9.0698575086549642
 31
-0.000000000000002
210
0.0
220
1.0
230
-0.0000000000000002
  0
LINE
  5
36B1
  8
0
  6
VERDECKT
 62
     1
 10
-34.9000000000000909
 20
91.3980664016244901
 30
-0.0000000000000203
 11
-34.9000000000000909
 21
9.0698575086549642
 31
-0.000000000000002
210
0.0
220
1.0
230
-0.0000000000000002
  0
ARC
  5
36B2
  8
0
  6
VERDECKT
 62
     1
 10
48.4999999999987281
 20
91.398066401625357
 30
0.0
 40
13.5999999999983796
210
0.0
220
-0.0000000000000002
230
-1.0
 50
134.9999999999986073
 51
180.0000000000034959
  0
ARC
  5
36B3
  8
0
  6
VERDECKT
 62
     1
 10
-47.9999999999987068
 20
91.3980664016253854
 30
0.0
 40
13.5999999999983601
210
0.0
220
-0.0000000000000002
230
-1.0
 50
359.9999999999961915
 51
45.0000000000014069
  0
LINE
  5
36B4
  8
0
  6
VERDECKT
 62
     1
 10
-38.8833477758630579
 20
101.0147186257615033
 30
-0.0000000000000224
 11
-57.8686291501016967
 21
119.9999999999999005
 31
-0.0000000000000266
210
0.0
220
1.0
230
-0.0000000000000002
  0
LINE
  5
36B5
  8
0
  6
VERDECKT
 62
     1
 10
38.3833477758630579
 20
101.0147186257615033
 30
-0.0000000000000224
 11
57.3686291501016967
 21
119.9999999999999005
 31
-0.0000000000000266
210
0.0
220
1.0
230
-0.0000000000000002
  0
LINE
  5
36B6
  8
0
  6
VERDECKT
 62
     1
 10
57.3686291501016825
 20
119.9999999999999005
 30
-0.0000000000000266
 11
58.5000000000000995
 21
118.8686291501014978
 31
-0.0000000000000264
210
0.0
220
1.0
230
-0.0000000000000002
  0
LINE
  5
36B7
  8
0
  6
VERDECKT
 62
     1
 10
-57.8686291501016825
 20
119.9999999999999005
 30
-0.0000000000000266
 11
-59.0000000000000995
 21
118.8686291501014978
 31
-0.0000000000000264
210
0.0
220
1.0
230
-0.0000000000000002
  0
LINE
  5
36B8
  8
0
  6
VERDECKT
 62
     1
 10
-40.014718625761482
 20
99.8833477758628447
 30
-0.0000000000000222
 11
-59.0000000000001208
 21
118.8686291501014978
 31
-0.0000000000000264
210
0.0
220
1.0
230
-0.0000000000000002
  0
LINE
  5
36B9
  8
0
  6
VERDECKT
 62
     1
 10
39.5147186257614891
 20
99.8833477758628447
 30
-0.0000000000000222
 11
58.5000000000001208
 21
118.8686291501014978
 31
-0.0000000000000264
210
0.0
220
1.0
230
-0.0000000000000002
  0
ARC
  5
36BA
  8
0
  6
VERDECKT
 62
     1
 10
48.500000000001009
 20
91.3980664016241633
 30
0.0
 40
12.00000000000089
210
0.0
220
-0.0000000000000002
230
-1.0
 50
135.000000000002899
 51
179.9999999999992895
  0
ARC
  5
36BB
  8
0
  6
VERDECKT
 62
     1
 10
-48.0000000000007816
 20
91.3980664016242343
 30
0.0
 40
12.0000000000006697
210
0.0
220
-0.0000000000000002
230
-1.0
 50
0.0000000000002799
 51
44.9999999999975273
  0
LINE
  5
36BC
  8
0
  6
VERDECKT
 62
     1
 10
36.0
 20
91.3980664016243054
 30
-0.0000000000000203
 11
36.0
 21
9.0000000000001155
 31
-0.000000000000002
210
0.0
220
1.0
230
-0.0000000000000002
  0
LINE
  5
36BD
  8
0
  6
VERDECKT
 62
     1
 10
-36.5
 20
91.3980664016243054
 30
-0.0000000000000203
 11
-36.5
 21
9.0000000000001155
 31
-0.000000000000002
210
0.0
220
1.0
230
-0.0000000000000002
  0
LINE
  5
36BE
  8
0
  6
VERDECKT
 62
     1
 10
-35.8875793553184508
 20
2.000000000000032
 30
-0.0000000000000004
 11
-36.4999999999999503
 21
9.0000000000001208
 31
-0.000000000000002
210
0.0
220
1.0
230
-0.0000000000000002
  0
LINE
  5
36BF
  8
0
  6
VERDECKT
 62
     1
 10
35.3875793553184508
 20
2.000000000000032
 30
-0.0000000000000004
 11
35.9999999999999432
 21
9.0000000000001208
 31
-0.000000000000002
210
0.0
220
1.0
230
-0.0000000000000002
  0
LINE
  5
36C0
  8
0
  6
VERDECKT
 62
     1
 10
58.5000000000002203
 20
101.4049136622541027
 30
-0.0000000000000225
 11
58.5000000000002203
 21
99.904913662254117
 31
-0.0000000000000222
210
0.0
220
1.0
230
-0.0000000000000002
  0
LINE
  5
36C1
  8
0
  6
VERDECKT
 62
     1
 10
-58.4999999999997726
 20
101.4049136622541027
 30
-0.0000000000000225
 11
-58.4999999999997726
 21
99.904913662254117
 31
-0.0000000000000222
210
0.0
220
1.0
230
-0.0000000000000002
  0
LINE
  5
36C2
  8
0
  6
VERDECKT
 62
     1
 10
52.799630125934172
 20
101.4049136622541027
 30
-0.0000000000000225
 11
52.799630125934172
 21
99.904913662254117
 31
-0.0000000000000222
210
0.0
220
1.0
230
-0.0000000000000002
  0
LINE
  5
36C3
  8
0
  6
VERDECKT
 62
     1
 10
62.2452583336279588
 20
101.4049136622541027
 30
-0.0000000000000225
 11
62.2452583336279588
 21
99.904913662254117
 31
-0.0000000000000222
210
0.0
220
1.0
230
-0.0000000000000002
  0
LINE
  5
36C4
  8
0
  6
VERDECKT
 62
     1
 10
65.5000000000002132
 20
101.4049136622541027
 30
-0.0000000000000225
 11
65.5000000000002132
 21
99.904913662254117
 31
-0.0000000000000222
210
0.0
220
1.0
230
-0.0000000000000002
  0
LINE
  5
36C5
  8
0
  6
VERDECKT
 62
     1
 10
-65.4999999999997442
 20
101.4049136622541027
 30
-0.0000000000000225
 11
-65.4999999999997442
 21
99.904913662254117
 31
-0.0000000000000222
210
0.0
220
1.0
230
-0.0000000000000002
  0
LINE
  5
36C6
  8
0
  6
VERDECKT
 62
     1
 10
-62.2452583336275396
 20
101.4049136622541027
 30
-0.0000000000000225
 11
-62.2452583336275396
 21
99.904913662254117
 31
-0.0000000000000222
210
0.0
220
1.0
230
-0.0000000000000002
  0
LINE
  5
36C7
  8
0
  6
VERDECKT
 62
     1
 10
-52.7996301259338523
 20
101.4049136622541027
 30
-0.0000000000000225
 11
-52.7996301259338523
 21
99.904913662254117
 31
-0.0000000000000222
210
0.0
220
1.0
230
-0.0000000000000002
  0
ENDBLK
  5
36C9
  8
0
  0
BLOCK
  8
0
  2
A$C74785137
 70
     0
 10
0.0
 20
0.0
 30
0.0
  3
A$C74785137
  1

  0
LINE
  5
36CD
  8
0
  6
AUSGEZOGEN
 62
     3
 10
-15.2315462117277995
 20
-56.999999999999801
 30
0.0
 11
15.2315462117277693
 21
-56.999999999999801
 31
0.0000000000000068
  0
LINE
  5
36CE
  8
0
  6
AUSGEZOGEN
 62
     3
 10
57.0000000000000284
 20
-15.2315462117275295
 30
0.0
 11
57.0000000000000284
 21
15.2315462117280394
 31
0.0
  0
LINE
  5
36CF
  8
0
  6
AUSGEZOGEN
 62
     3
 10
-56.9999999999999574
 20
15.2315462117278706
 30
0.0
 11
-56.9999999999999574
 21
-15.2315462117277001
 31
0.0
  0
LINE
  5
36D0
  8
0
  6
AUSGEZOGEN
 62
     3
 10
15.2315462117276592
 20
57.0000000000001421
 30
0.0
 11
-15.2315462117279203
 21
57.0000000000001421
 31
-0.0000000000000068
  0
CIRCLE
  5
36D1
  8
0
  6
AUSGEZOGEN
 62
     3
 10
0.00000000000004
 20
0.0000000000000287
 30
0.0
 40
61.0
  0
CIRCLE
  5
36D2
  8
0
  6
AUSGEZOGEN
 62
     3
 10
0.00000000000004
 20
0.0000000000000287
 30
0.0
 40
59.0
  0
LINE
  5
36D3
  8
0
  6
AUSGEZOGEN
 62
     3
 10
24.6914264549235796
 20
-45.7668051312775432
 30
0.0
 11
17.6914264549235796
 21
-33.6424494782954895
 31
-0.0000000000000018
  0
LINE
  5
36D4
  8
0
  6
AUSGEZOGEN
 62
     3
 10
27.2895026662767286
 20
-44.2668051312774793
 30
0.0
 11
24.6914264549234694
 21
-45.7668051312774722
 31
-0.0000000000000006
  0
LINE
  5
36D5
  8
0
  6
AUSGEZOGEN
 62
     3
 10
20.2895026662767215
 20
-32.1424494782954966
 30
0.0
 11
27.2895026662767286
 21
-44.2668051312775432
 31
0.0000000000000018
  0
LINE
  5
36D6
  8
0
  6
AUSGEZOGEN
 62
     3
 10
20.2895026662767215
 20
-32.1424494782954966
 30
0.0
 11
17.6914264549234588
 21
-33.6424494782954966
 31
-0.0000000000000006
  0
LINE
  5
36D7
  8
0
  6
AUSGEZOGEN
 62
     3
 10
17.6914264549234588
 20
-33.6424494782953971
 30
0.0
 11
14.1914264549234606
 21
-27.5802716518043312
 31
-0.0000000000000008
  0
LINE
  5
36D8
  8
0
  6
AUSGEZOGEN
 62
     3
 10
16.7895026662767215
 20
-26.0802716518043312
 30
0.0
 11
20.2895026662767215
 21
-32.1424494782953971
 31
0.0000000000000008
  0
LINE
  5
36D9
  8
0
  6
AUSGEZOGEN
 62
     3
 10
16.7895026662767215
 20
-26.0802716518043312
 30
0.0
 11
14.1914264549234606
 21
-27.5802716518043312
 31
-0.0000000000000006
  0
LINE
  5
36DA
  8
0
  6
AUSGEZOGEN
 62
     3
 10
30.7895026662767286
 20
-50.3289829577684174
 30
0.0
 11
28.1914264549234694
 21
-51.8289829577684102
 31
-0.0000000000000006
  0
LINE
  5
36DB
  8
0
  6
AUSGEZOGEN
 62
     3
 10
28.1914264549233593
 20
-51.8289829577684387
 30
0.0
 11
24.6914264549233593
 21
-45.7668051312773585
 31
-0.0000000000000008
  0
LINE
  5
36DC
  8
0
  6
AUSGEZOGEN
 62
     3
 10
27.2895026662767286
 20
-44.2668051312774793
 30
0.0
 11
30.7895026662767286
 21
-50.3289829577685524
 31
0.0000000000000008
  0
ARC
  5
36DD
  8
0
  6
AUSGEZOGEN
 62
     3
 10
-0.2499999999999996
 20
0.0000000000000439
 30
0.0
 40
34.0314676152490776
 50
62.1614176293597183
 51
180.0
  0
ARC
  5
36DE
  8
0
  6
AUSGEZOGEN
 62
     3
 10
-0.2499999999999996
 20
0.000000000000012
 30
0.0
 40
34.0314676152490776
 50
302.8911570703552911
 51
57.1088429296447231
  0
ARC
  5
36DF
  8
0
  6
AUSGEZOGEN
 62
     3
 10
-0.2499999999999996
 20
-0.0000000000000324
 30
0.0
 40
34.0314676152490492
 50
179.999999999999801
 51
297.8385823706403812
  0
ARC
  5
36E0
  8
0
  6
AUSGEZOGEN
 62
     3
 10
-0.2499999999999797
 20
-0.0000000000000145
 30
0.0
 40
34.6500000000000909
 50
62.1228166354900821
 51
179.9999999999998863
  0
ARC
  5
36E1
  8
0
  6
AUSGEZOGEN
 62
     3
 10
-0.2499999999999797
 20
0.0000000000000192
 30
0.0
 40
34.6500000000000909
 50
302.8395047438825145
 51
57.1604952561174784
  0
ARC
  5
36E2
  8
0
  6
AUSGEZOGEN
 62
     3
 10
-0.2499999999999797
 20
0.0000000000000512
 30
0.0
 40
34.6500000000001123
 50
180.0000000000001137
 51
297.8771833645099036
  0
ARC
  5
36E3
  8
0
  6
AUSGEZOGEN
 62
     3
 10
-0.2499999999998597
 20
0.000000000000005
 30
0.0
 40
57.6186291501018104
 50
98.4035095496613081
 51
170.038597608016488
  0
ARC
  5
36E4
  8
0
  6
AUSGEZOGEN
 62
     3
 10
-0.2500000000002007
 20
-0.0000000000006629
 30
0.0
 40
57.6186291501024002
 50
61.2764075315556411
 51
81.5964904503387061
  0
ARC
  5
36E5
  8
0
  6
AUSGEZOGEN
 62
     3
 10
-0.2500000000004281
 20
-0.0000000000002402
 30
0.0
 40
57.6186291501021515
 50
6.4845944623750711
 51
58.2928590291045126
  0
ARC
  5
36E6
  8
0
  6
AUSGEZOGEN
 62
     3
 10
-0.2500000000004281
 20
0.0000000000002892
 30
0.0
 40
57.6186291501021799
 50
301.707140970895523
 51
353.5154055376248721
  0
ARC
  5
36E7
  8
0
  6
AUSGEZOGEN
 62
     3
 10
-0.2499999999998597
 20
-0.0000000000001513
 30
0.0
 40
57.618629150101512
 50
278.4035095496632266
 51
298.7235924684445081
  0
ARC
  5
36E8
  8
0
  6
AUSGEZOGEN
 62
     3
 10
-0.2499999999998597
 20
0.0000000000001364
 30
0.0
 40
57.6186291501018175
 50
189.961402391983512
 51
261.5964904503367734
  0
ARC
  5
36E9
  8
0
  6
AUSGEZOGEN
 62
     3
 10
-0.250000000000201
 20
0.0000000000002394
 30
0.0
 40
58.7499999999998366
 50
104.0196344853268045
 51
165.0070015540493102
  0
ARC
  5
36EA
  8
0
  6
AUSGEZOGEN
 62
     3
 10
-0.2499999999998599
 20
0.0000000000003318
 30
0.0
 40
58.7499999999997726
 50
61.2518233212376728
 51
75.9803655146730534
  0
ARC
  5
36EB
  8
0
  6
AUSGEZOGEN
 62
     3
 10
-0.2499999999996326
 20
0.0000000000003069
 30
0.0
 40
58.7499999999996803
 50
12.9750102932756093
 51
58.32574353729715
  0
ARC
  5
36EC
  8
0
  6
AUSGEZOGEN
 62
     3
 10
-0.2499999999995189
 20
-0.0000000000002935
 30
0.0
 40
58.7499999999996021
 50
301.6742564627027718
 51
347.0249897067243978
  0
ARC
  5
36ED
  8
0
  6
AUSGEZOGEN
 62
     3
 10
-0.250000000000201
 20
0.0000000000005591
 30
0.0
 40
58.7500000000007034
 50
284.0196344853283108
 51
298.7481766787622064
  0
ARC
  5
36EE
  8
0
  6
AUSGEZOGEN
 62
     3
 10
-0.250000000000201
 20
-0.0000000000002225
 30
0.0
 40
58.7499999999998295
 50
194.9929984459506045
 51
255.9803655146718881
  0
LINE
  5
36EF
  8
0
  6
AUSGEZOGEN
 62
     3
 10
29.7386787763914207
 20
-66.8049862400437036
 30
0.0
 11
21.0036206256737792
 21
-62.3542518094393401
 31
-0.0000000000000019
  0
ARC
  5
36F0
  8
0
  6
AUSGEZOGEN
 62
     3
 10
30.1926692761309887
 20
-65.9139797158551346
 30
0.0
 40
1.000000000000181
 50
243.0000000000040927
 51
294.6107016166262156
  0
ARC
  5
36F1
  8
0
  6
AUSGEZOGEN
 62
     3
 10
-0.0000000000332877
 20
0.0000000000666489
 30
0.0
 40
73.5000000000745501
 50
294.6107016166346853
 51
299.3892983833645758
  0
ARC
  5
36F2
  8
0
  6
AUSGEZOGEN
 62
     3
 10
35.5787240291589626
 20
-63.1696477468170201
 30
0.0000000000000142
 40
1.0000000000001159
 50
299.3892983833682138
 51
350.9999999999957936
  0
LINE
  5
36F3
  8
0
  6
AUSGEZOGEN
 62
     3
 10
38.1000309368545373
 20
-53.6431956608938094
 30
0.0000000000000142
 11
36.5664123697541967
 21
-63.3260822118573401
 31
0.0000000000000139
  0
ARC
  5
36F4
  8
0
  6
AUSGEZOGEN
 62
     3
 10
39.087719277449672
 20
-53.799630125934037
 30
0.0000000000000142
 40
0.9999999999999861
 50
81.0000000000012932
 51
170.9999999999996874
  0
LINE
  5
36F5
  8
0
  6
AUSGEZOGEN
 62
     3
 10
48.9270402934535227
 20
-54.3455603524392075
 30
0.0000000000000142
 11
39.2441537424898783
 21
-52.8119417853389095
 31
0.0000000000000121
  0
ARC
  5
36F6
  8
0
  6
AUSGEZOGEN
 62
     3
 10
49.0834747584937787
 20
-53.3578720118442504
 30
0.0000000000000142
 40
0.9999999999998268
 50
260.9999999999964757
 51
312.6107016166380959
  0
ARC
  5
36F7
  8
0
  6
AUSGEZOGEN
 62
     3
 10
-0.0000000000181105
 20
0.000000000018332
 30
0.0
 40
73.5000000000259064
 50
312.6107016166333779
 51
317.3892983833665085
  0
ARC
  5
36F8
  8
0
  6
AUSGEZOGEN
 62
     3
 10
53.3578720118439591
 20
-49.0834747584934519
 30
0.0000000000000142
 40
1.000000000000318
 50
317.3892983833791277
 51
8.9999999999940457
  0
LINE
  5
36F9
  8
0
  6
AUSGEZOGEN
 62
     3
 10
52.81194178533908
 20
-39.244153742489722
 30
0.0000000000000142
 11
54.3455603524394277
 21
-48.9270402934532811
 31
0.0000000000000146
  0
ARC
  5
36FA
  8
0
  6
AUSGEZOGEN
 62
     3
 10
53.7996301259342573
 20
-39.0877192774495086
 30
0.0000000000000142
 40
1.0000000000000231
 50
99.0000000000016342
 51
188.9999999999980957
  0
LINE
  5
36FB
  8
0
  6
AUSGEZOGEN
 62
     3
 10
63.3260822118575888
 20
-36.5664123697539765
 30
0.0000000000000142
 11
53.6431956608940013
 21
-38.1000309368543526
 31
0.0000000000000121
  0
ARC
  5
36FC
  8
0
  6
AUSGEZOGEN
 62
     3
 10
63.1696477468174393
 20
-35.5787240291589626
 30
0.0000000000000142
 40
0.9999999999998603
 50
278.9999999999968736
 51
330.6107016166354811
  0
ARC
  5
36FD
  8
0
  6
AUSGEZOGEN
 62
     3
 10
-0.0000000000359025
 20
0.0000000000181046
 30
0.0
 40
73.5000000000404015
 50
330.6107016166341168
 51
335.3892983833662811
  0
ARC
  5
36FE
  8
0
  6
AUSGEZOGEN
 62
     3
 10
65.9139797158559588
 20
-30.1926692761307187
 30
0.0000000000000142
 40
0.9999999999996724
 50
335.3892983833587209
 51
27.0000000000077307
  0
LINE
  5
36FF
  8
0
  6
AUSGEZOGEN
 62
     3
 10
62.3542518094395888
 20
-21.0036206256735589
 30
0.0000000000000142
 11
66.8049862400439736
 21
-29.7386787763912004
 31
0.0000000000000152
  0
ARC
  5
3700
  8
0
  6
AUSGEZOGEN
 62
     3
 10
63.2452583336280583
 20
-20.5496301259340406
 30
0.0000000000000142
 40
1.0000000000000531
 50
117.0000000000038938
 51
206.9999999999959073
  0
LINE
  5
3701
  8
0
  6
AUSGEZOGEN
 62
     3
 10
71.5263259846060748
 20
-15.2078891711412307
 30
0.0000000000000142
 11
62.7912678338884405
 21
-19.6586236017456599
 31
0.0000000000000123
  0
ARC
  5
3702
  8
0
  6
AUSGEZOGEN
 62
     3
 10
71.0723354848666133
 20
-14.3168826469528803
 30
0.0000000000000142
 40
0.9999999999999012
 50
296.9999999999967031
 51
348.6107016166313883
  0
ARC
  5
3703
  8
0
  6
AUSGEZOGEN
 62
     3
 10
-0.0000000000602884
 20
0.0000000000092939
 30
0.0
 40
73.5000000000612346
 50
348.6107016166347989
 51
353.3892983833657127
  0
ARC
  5
3704
  8
0
  6
AUSGEZOGEN
 62
     3
 10
72.0179678355775934
 20
-8.3463949603238348
 30
0.0000000000000142
 40
1.0000000000002289
 50
353.3892983833752055
 51
44.9999999999942517
  0
LINE
  5
3705
  8
0
  6
AUSGEZOGEN
 62
     3
 10
65.7928932188137026
 20
-0.7071067811865817
 30
0.0000000000000142
 11
72.725074616764374
 21
-7.6392881791371963
 31
0.0000000000000158
  0
ARC
  5
3706
  8
0
  6
AUSGEZOGEN
 62
     3
 10
66.5000000000002558
 20
-0.0000000000000284
 30
0.0000000000000142
 40
1.0000000000000071
 50
135.0
 51
225.0
  0
LINE
  5
3707
  8
0
  6
AUSGEZOGEN
 62
     3
 10
72.7250746167643172
 20
7.6392881791372238
 30
0.0000000000000142
 11
65.7928932188137026
 21
0.7071067811865249
 31
0.0000000000000127
  0
ARC
  5
3708
  8
0
  6
AUSGEZOGEN
 62
     3
 10
72.0179678355779913
 20
8.3463949603237211
 30
0.0000000000000142
 40
0.9999999999997989
 50
314.9999999999931219
 51
6.6107016166375896
  0
ARC
  5
3709
  8
0
  6
AUSGEZOGEN
 62
     3
 10
0.00000000000457
 20
0.0000000000008811
 30
0.0
 40
73.4999999999955946
 50
6.6107016166322978
 51
11.3892983833674002
  0
ARC
  5
370A
  8
0
  6
AUSGEZOGEN
 62
     3
 10
71.0723354848665565
 20
14.3168826469528998
 30
0.0000000000000142
 40
0.9999999999999761
 50
11.3892983833663806
 51
63.0000000000011369
  0
LINE
  5
370B
  8
0
  6
AUSGEZOGEN
 62
     3
 10
62.7912678338884334
 20
19.6586236017456599
 30
0.0000000000000142
 11
71.5263259846060748
 21
15.2078891711412592
 31
0.0000000000000162
  0
ARC
  5
370C
  8
0
  6
AUSGEZOGEN
 62
     3
 10
63.2452583336279517
 20
20.5496301259340193
 30
0.0000000000000142
 40
0.9999999999999761
 50
153.0000000000011084
 51
243.0000000000011937
  0
LINE
  5
370D
  8
0
  6
AUSGEZOGEN
 62
     3
 10
66.8049862400439167
 20
29.7386787763912217
 30
0.0000000000000142
 11
62.354251809439603
 21
21.0036206256735412
 31
0.0000000000000132
  0
ARC
  5
370E
  8
0
  6
AUSGEZOGEN
 62
     3
 10
65.9139797158556036
 20
30.1926692761307187
 30
0.0000000000000142
 40
0.9999999999999591
 50
333.0000000000026148
 51
24.6107016166374102
  0
ARC
  5
370F
  8
0
  6
AUSGEZOGEN
 62
     3
 10
-0.0000000000220327
 20
-0.0000000000113687
 30
0.0
 40
73.5000000000250111
 50
24.6107016166334205
 51
29.3892983833666293
  0
ARC
  5
3710
  8
0
  6
AUSGEZOGEN
 62
     3
 10
63.169647746817212
 20
35.5787240291586784
 30
0.0000000000000142
 40
1.0000000000002001
 50
29.3892983833739407
 51
80.9999999999966462
  0
LINE
  5
3711
  8
0
  6
AUSGEZOGEN
 62
     3
 10
53.6431956608940013
 20
38.1000309368543526
 30
0.0000000000000142
 11
63.3260822118575319
 21
36.566412369754012
 31
0.0000000000000164
  0
ARC
  5
3712
  8
0
  6
AUSGEZOGEN
 62
     3
 10
53.7996301259343213
 20
39.087719277449537
 30
0.0000000000000142
 40
1.000000000000093
 50
171.0000000000038938
 51
260.9999999999956799
  0
LINE
  5
3713
  8
0
  6
AUSGEZOGEN
 62
     3
 10
54.3455603524394277
 20
48.9270402934532811
 30
0.0000000000000142
 11
52.81194178533908
 21
39.244153742489722
 31
0.0000000000000139
  0
ARC
  5
3714
  8
0
  6
AUSGEZOGEN
 62
     3
 10
53.3578720118443002
 20
49.0834747584934803
 30
0.0000000000000142
 40
0.9999999999999909
 50
351.0000000000013074
 51
42.6107016166338965
  0
ARC
  5
3715
  8
0
  6
AUSGEZOGEN
 62
     3
 10
0.0000000000128691
 20
0.0000000000126761
 30
0.0
 40
73.4999999999820943
 50
42.6107016166319994
 51
47.3892983833680006
  0
ARC
  5
3716
  8
0
  6
AUSGEZOGEN
 62
     3
 10
49.0834747584937787
 20
53.3578720118443925
 30
0.0000000000000142
 40
0.9999999999997141
 50
47.389298383359872
 51
99.0000000000044338
  0
LINE
  5
3717
  8
0
  6
AUSGEZOGEN
 62
     3
 10
39.2441537424898783
 20
52.8119417853388882
 30
0.0000000000000142
 11
48.9270402934535227
 21
54.3455603524392288
 31
0.0000000000000164
  0
ARC
  5
3718
  8
0
  6
AUSGEZOGEN
 62
     3
 10
39.0877192774496081
 20
53.7996301259340086
 30
0.0000000000000142
 40
0.9999999999999299
 50
188.9999999999992042
 51
279.0000000000023874
  0
LINE
  5
3719
  8
0
  6
AUSGEZOGEN
 62
     3
 10
36.5664123697541967
 20
63.3260822118573969
 30
0.0000000000000142
 11
38.1000309368545373
 21
53.6431956608938094
 31
0.0000000000000146
  0
ARC
  5
371A
  8
0
  6
AUSGEZOGEN
 62
     3
 10
35.5787240291591829
 20
63.1696477468171906
 30
0.0000000000000142
 40
0.999999999999896
 50
8.9999999999997442
 51
60.6107016166383303
  0
ARC
  5
371B
  8
0
  6
AUSGEZOGEN
 62
     3
 10
-0.0000000000000343
 20
-0.0000000000006537
 30
0.0
 40
73.5000000000007248
 50
60.6107016166326815
 51
65.3892983833674464
  0
ARC
  5
371C
  8
0
  6
AUSGEZOGEN
 62
     3
 10
30.1926692761309887
 20
65.9139797158552483
 30
0.0
 40
1.000000000000129
 50
65.3892983833724344
 51
117.0000000000017053
  0
LINE
  5
371D
  8
0
  6
AUSGEZOGEN
 62
     3
 10
21.0036206256737792
 20
62.3542518094393401
 30
0.0
 11
29.7386787763913603
 21
66.8049862400437036
 31
0.0000000000000019
  0
ARC
  5
371E
  8
0
  6
AUSGEZOGEN
 62
     3
 10
20.5496301259342111
 20
63.245258333627703
 30
0.0
 40
0.9999999999999893
 50
207.0000000000003126
 51
297.000000000001819
  0
LINE
  5
371F
  8
0
  6
AUSGEZOGEN
 62
     3
 10
15.2078891711414794
 20
71.5263259846057906
 30
0.0
 11
19.6586236017458518
 21
62.7912678338881491
 31
0.000000000000001
  0
ARC
  5
3720
  8
0
  6
AUSGEZOGEN
 62
     3
 10
14.3168826469530703
 20
71.0723354848661018
 30
0.0
 40
1.000000000000163
 50
27.0000000000060503
 51
78.6107016166310757
  0
ARC
  5
3721
  8
0
  6
AUSGEZOGEN
 62
     3
 10
-0.0000000000013986
 20
-0.0000000000078444
 30
0.0
 40
73.5000000000080007
 50
78.6107016166325252
 51
83.3892983833668637
  0
ARC
  5
3722
  8
0
  6
AUSGEZOGEN
 62
     3
 10
8.3463949603240284
 20
72.0179678355774513
 30
0.0
 40
1.0000000000001279
 50
83.3892983833711838
 51
134.9999999999976978
  0
LINE
  5
3723
  8
0
  6
AUSGEZOGEN
 62
     3
 10
0.7071067811868031
 20
65.7928932188134468
 30
0.0
 11
7.6392881791374174
 21
72.725074616764104
 31
0.0000000000000015
  0
ARC
  5
3724
  8
0
  6
AUSGEZOGEN
 62
     3
 10
0.0000000000002499
 20
66.4999999999999716
 30
0.0
 40
0.9999999999999879
 50
224.9999999999988063
 51
315.0
  0
LINE
  5
3725
  8
0
  6
AUSGEZOGEN
 62
     3
 10
-7.6392881791369751
 20
72.725074616764104
 30
0.0
 11
-0.7071067811863037
 21
65.7928932188134468
 31
0.0000000000000015
  0
ARC
  5
3726
  8
0
  6
AUSGEZOGEN
 62
     3
 10
-8.3463949603235275
 20
72.0179678355775934
 30
0.0
 40
0.99999999999999
 50
44.9999999999988489
 51
96.6107016166330368
  0
ARC
  5
3727
  8
0
  6
AUSGEZOGEN
 62
     3
 10
0.0000000000013299
 20
-0.0000000000028422
 30
0.0
 40
73.5000000000029843
 50
96.6107016166331931
 51
101.3892983833678016
  0
ARC
  5
3728
  8
0
  6
AUSGEZOGEN
 62
     3
 10
-14.3168826469530206
 20
71.0723354848666702
 30
0.0
 40
0.999999999999467
 50
101.3892983833503934
 51
153.0000000000082139
  0
LINE
  5
3729
  8
0
  6
AUSGEZOGEN
 62
     3
 10
-19.6586236017454716
 20
62.7912678338881491
 30
0.0
 11
-15.2078891711409803
 21
71.5263259846058332
 31
0.000000000000001
  0
ARC
  5
372A
  8
0
  6
AUSGEZOGEN
 62
     3
 10
-20.549630125933831
 20
63.2452583336276675
 30
0.0
 40
0.9999999999999252
 50
243.0000000000032969
 51
333.0000000000011937
  0
LINE
  5
372B
  8
0
  6
AUSGEZOGEN
 62
     3
 10
-29.7386787763909801
 20
66.8049862400437462
 30
0.0
 11
-21.0036206256732889
 21
62.3542518094393401
 31
0.0000000000000019
  0
ARC
  5
372C
  8
0
  6
AUSGEZOGEN
 62
     3
 10
-30.1926692761304913
 20
65.9139797158552483
 30
0.0
 40
1.000000000000125
 50
63.0000000000055422
 51
114.6107016166347989
  0
ARC
  5
372D
  8
0
  6
AUSGEZOGEN
 62
     3
 10
0.0000000000213956
 20
-0.0000000000412967
 30
0.0
 40
73.5000000000463842
 50
114.6107016166342021
 51
119.3892983833659969
  0
ARC
  5
372E
  8
0
  6
AUSGEZOGEN
 62
     3
 10
-35.5787240291589129
 20
63.1696477468171906
 30
-0.0000000000000142
 40
0.9999999999997528
 50
119.3892983833583941
 51
171.0000000000025011
  0
LINE
  5
372F
  8
0
  6
AUSGEZOGEN
 62
     3
 10
-38.1000309368540471
 20
53.6431956608938094
 30
-0.0000000000000142
 11
-36.5664123697538201
 21
63.3260822118573401
 31
-0.0000000000000139
  0
ARC
  5
3730
  8
0
  6
AUSGEZOGEN
 62
     3
 10
-39.0877192774492315
 20
53.799630125934101
 30
-0.0000000000000142
 40
1.000000000000079
 50
260.9999999999988063
 51
350.9999999999969873
  0
LINE
  5
3731
  8
0
  6
AUSGEZOGEN
 62
     3
 10
-48.9270402934530324
 20
54.345560352439179
 30
-0.0000000000000142
 11
-39.2441537424895017
 21
52.8119417853388882
 31
-0.0000000000000121
  0
ARC
  5
3732
  8
0
  6
AUSGEZOGEN
 62
     3
 10
-49.0834747584934021
 20
53.3578720118443925
 30
-0.0000000000000142
 40
0.9999999999996628
 50
80.9999999999886029
 51
132.6107016166423023
  0
ARC
  5
3733
  8
0
  6
AUSGEZOGEN
 62
     3
 10
0.0000000000601629
 20
-0.0000000000603393
 30
0.0
 40
73.5000000000849667
 50
132.6107016166351116
 51
137.3892983833644053
  0
ARC
  5
3734
  8
0
  6
AUSGEZOGEN
 62
     3
 10
-53.3578720118438596
 20
49.0834747584934519
 30
-0.0000000000000142
 40
1.0000000000000371
 50
137.389298383368299
 51
188.9999999999965041
  0
LINE
  5
3735
  8
0
  6
AUSGEZOGEN
 62
     3
 10
-52.8119417853386892
 20
39.244153742489722
 30
-0.0000000000000142
 11
-54.3455603524390369
 21
48.9270402934532811
 31
-0.0000000000000146
  0
ARC
  5
3736
  8
0
  6
AUSGEZOGEN
 62
     3
 10
-53.7996301259339305
 20
39.0877192774494802
 30
-0.0000000000000142
 40
1.0000000000000211
 50
279.0000000000114824
 51
8.9999999999997993
  0
LINE
  5
3737
  8
0
  6
AUSGEZOGEN
 62
     3
 10
-63.3260822118570914
 20
36.566412369753948
 30
-0.0000000000000142
 11
-53.6431956608934968
 21
38.1000309368543526
 31
-0.0000000000000121
  0
ARC
  5
3738
  8
0
  6
AUSGEZOGEN
 62
     3
 10
-63.1696477468167714
 20
35.5787240291588205
 30
-0.0000000000000142
 40
1.00000000000005
 50
99.0000000000046754
 51
150.6107016166355947
  0
ARC
  5
3739
  8
0
  6
AUSGEZOGEN
 62
     3
 10
-0.0000000000362436
 20
0.0000000000186446
 30
0.0
 40
73.4999999999590159
 50
150.6107016166313031
 51
155.3892983833688106
  0
ARC
  5
373A
  8
0
  6
AUSGEZOGEN
 62
     3
 10
-65.9139797158552057
 20
30.1926692761306299
 30
-0.0000000000000142
 40
0.9999999999998997
 50
155.3892983833627
 51
206.9999999999974136
  0
LINE
  5
373B
  8
0
  6
AUSGEZOGEN
 62
     3
 10
-62.3542518094390914
 20
21.0036206256735412
 30
-0.0000000000000142
 11
-66.8049862400435188
 21
29.7386787763911684
 31
-0.0000000000000152
  0
ARC
  5
373C
  8
0
  6
AUSGEZOGEN
 62
     3
 10
-63.2452583336272767
 20
20.5496301259339589
 30
-0.0000000000000142
 40
0.999999999999874
 50
296.9999999999944862
 51
27.0000000000062101
  0
LINE
  5
373D
  8
0
  6
AUSGEZOGEN
 62
     3
 10
-71.5263259846055632
 20
15.2078891711412307
 30
-0.0000000000000142
 11
-62.791267833887872
 21
19.6586236017456599
 31
-0.0000000000000123
  0
ARC
  5
373E
  8
0
  6
AUSGEZOGEN
 62
     3
 10
-71.0723354848662723
 20
14.3168826469529904
 30
-0.0000000000000142
 40
0.9999999999997672
 50
116.9999999999901945
 51
168.6107016166363906
  0
ARC
  5
373F
  8
0
  6
AUSGEZOGEN
 62
     3
 10
0.0000000000273642
 20
-0.0000000000034106
 30
0.0
 40
73.5000000000273701
 50
168.6107016166342021
 51
173.3892983833671906
  0
ARC
  5
3740
  8
0
  6
AUSGEZOGEN
 62
     3
 10
-72.0179678355773092
 20
8.3463949603238916
 30
-0.0000000000000142
 40
1.0000000000000879
 50
173.3892983833740118
 51
225.0000000000046043
  0
LINE
  5
3741
  8
0
  6
AUSGEZOGEN
 62
     3
 10
-65.792893218813191
 20
0.7071067811865817
 30
-0.0000000000000142
 11
-72.7250746167638624
 21
7.6392881791372238
 31
-0.0000000000000158
  0
ARC
  5
3742
  8
0
  6
AUSGEZOGEN
 62
     3
 10
-66.4999999999997442
 20
0.0000000000000284
 30
-0.0000000000000142
 40
1.0000000000000071
 50
315.0
 51
44.9999999999999929
  0
LINE
  5
3743
  8
0
  6
AUSGEZOGEN
 62
     3
 10
-72.7250746167638624
 20
-7.6392881791372238
 30
-0.0000000000000142
 11
-65.792893218813191
 21
-0.7071067811865249
 31
-0.0000000000000127
  0
ARC
  5
3744
  8
0
  6
AUSGEZOGEN
 62
     3
 10
-72.0179678355772523
 20
-8.3463949603238632
 30
-0.0000000000000142
 40
1.0000000000000639
 50
134.9999999999965041
 51
186.6107016166276082
  0
ARC
  5
3745
  8
0
  6
AUSGEZOGEN
 62
     3
 10
-0.0000000000364141
 20
-0.0000000000066791
 30
0.0
 40
73.4999999999627818
 50
186.6107016166307062
 51
191.3892983833679011
  0
ARC
  5
3746
  8
0
  6
AUSGEZOGEN
 62
     3
 10
-71.0723354848662723
 20
-14.3168826469530508
 30
-0.0000000000000142
 40
0.9999999999997463
 50
191.3892983833603125
 51
243.0000000000090097
  0
LINE
  5
3747
  8
0
  6
AUSGEZOGEN
 62
     3
 10
-62.7912678338879928
 20
-19.6586236017455995
 30
-0.0000000000000142
 11
-71.5263259846055632
 21
-15.2078891711412592
 31
-0.0000000000000162
  0
ARC
  5
3748
  8
0
  6
AUSGEZOGEN
 62
     3
 10
-63.2452583336275609
 20
-20.5496301259339909
 30
-0.0000000000000142
 40
1.0000000000000391
 50
333.0000000000011937
 51
62.9999999999989768
  0
LINE
  5
3749
  8
0
  6
AUSGEZOGEN
 62
     3
 10
-66.804986240043462
 20
-29.7386787763912608
 30
-0.0000000000000142
 11
-62.3542518094391482
 21
-21.0036206256735412
 31
-0.0000000000000132
  0
ARC
  5
374A
  8
0
  6
AUSGEZOGEN
 62
     3
 10
-65.9139797158553904
 20
-30.1926692761308004
 30
-0.0000000000000142
 40
0.9999999999997286
 50
152.9999999999922977
 51
204.6107016166398012
  0
ARC
  5
374B
  8
0
  6
AUSGEZOGEN
 62
     3
 10
0.0000000000859698
 20
0.0000000000439968
 30
0.0
 40
73.5000000000962643
 50
204.6107016166359074
 51
209.3892983833644905
  0
ARC
  5
374C
  8
0
  6
AUSGEZOGEN
 62
     3
 10
-63.1696477468167217
 20
-35.5787240291588205
 30
-0.0000000000000142
 40
1.0000000000000491
 50
209.3892983833669064
 51
260.9999999999885745
  0
LINE
  5
374D
  8
0
  6
AUSGEZOGEN
 62
     3
 10
-53.6431956608936176
 20
-38.1000309368543313
 30
-0.0000000000000142
 11
-63.3260822118571483
 21
-36.5664123697539765
 31
-0.0000000000000164
  0
ARC
  5
374E
  8
0
  6
AUSGEZOGEN
 62
     3
 10
-53.7996301259338807
 20
-39.0877192774494802
 30
-0.0000000000000142
 40
1.000000000000042
 50
351.000000000001819
 51
80.9999999999951541
  0
LINE
  5
374F
  8
0
  6
AUSGEZOGEN
 62
     3
 10
-54.3455603524389872
 20
-48.9270402934532385
 30
-0.0000000000000142
 11
-52.8119417853386892
 21
-39.2441537424896865
 31
-0.0000000000000139
  0
ARC
  5
3750
  8
0
  6
AUSGEZOGEN
 62
     3
 10
-53.3578720118441368
 20
-49.0834747584935727
 30
-0.0000000000000142
 40
0.9999999999997239
 50
170.9999999999922977
 51
222.6107016166413075
  0
ARC
  5
3751
  8
0
  6
AUSGEZOGEN
 62
     3
 10
0.0000000000019552
 20
0.0000000000017337
 30
0.0
 40
73.5000000000024443
 50
222.6107016166326105
 51
227.3892983833673043
  0
ARC
  5
3752
  8
0
  6
AUSGEZOGEN
 62
     3
 10
-49.0834747584931819
 20
-53.3578720118438525
 30
-0.0000000000000142
 40
1.00000000000022
 50
227.3892983833690096
 51
278.9999999999899956
  0
LINE
  5
3753
  8
0
  6
AUSGEZOGEN
 62
     3
 10
-39.2441537424895017
 20
-52.8119417853388882
 30
-0.0000000000000142
 11
-48.9270402934530821
 21
-54.3455603524392288
 31
-0.0000000000000164
  0
ARC
  5
3754
  8
0
  6
AUSGEZOGEN
 62
     3
 10
-39.0877192774492315
 20
-53.799630125934037
 30
-0.0000000000000142
 40
0.9999999999999388
 50
9.0000000000024301
 51
99.0000000000021743
  0
LINE
  5
3755
  8
0
  6
AUSGEZOGEN
 62
     3
 10
-36.5664123697536994
 20
-63.3260822118573969
 30
-0.0000000000000142
 11
-38.1000309368541608
 21
-53.643195660893781
 31
-0.0000000000000146
  0
ARC
  5
3756
  8
0
  6
AUSGEZOGEN
 62
     3
 10
-35.5787240291585078
 20
-63.1696477468171906
 30
-0.0000000000000142
 40
1.0000000000000351
 50
188.9999999999949125
 51
240.6107016166241124
  0
ARC
  5
3757
  8
0
  6
AUSGEZOGEN
 62
     3
 10
-0.00000000001794
 20
-0.0000000000346745
 30
0.0
 40
73.4999999999608633
 50
240.6107016166315873
 51
245.3892983833690948
  0
ARC
  5
3758
  8
0
  6
AUSGEZOGEN
 62
     3
 10
-30.1926692761304913
 20
-65.9139797158559873
 30
0.0
 40
0.999999999999445
 50
245.3892983833547135
 51
297.0000000000180194
  0
LINE
  5
3759
  8
0
  6
AUSGEZOGEN
 62
     3
 10
-21.003620625673399
 20
-62.3542518094393401
 30
0.0
 11
-29.7386787763909197
 21
-66.8049862400437036
 31
-0.0000000000000019
  0
ARC
  5
375A
  8
0
  6
AUSGEZOGEN
 62
     3
 10
-20.549630125933831
 20
-63.2452583336275325
 30
0.0
 40
0.9999999999999246
 50
26.9999999999930616
 51
117.0000000000047038
  0
LINE
  5
375B
  8
0
  6
AUSGEZOGEN
 62
     3
 10
-15.2078891711409803
 20
-71.526325984605819
 30
0.0
 11
-19.6586236017454716
 21
-62.7912678338881278
 31
-0.000000000000001
  0
ARC
  5
375C
  8
0
  6
AUSGEZOGEN
 62
     3
 10
-14.3168826469525108
 20
-71.0723354848661302
 30
0.0
 40
1.0000000000001461
 50
207.0000000000046043
 51
258.6107016166275798
  0
ARC
  5
375D
  8
0
  6
AUSGEZOGEN
 62
     3
 10
-0.0000000000007733
 20
-0.0000000000049738
 30
0.0
 40
73.4999999999949267
 50
258.610701616632582
 51
263.3892983833677022
  0
ARC
  5
375E
  8
0
  6
AUSGEZOGEN
 62
     3
 10
-8.3463949603236411
 20
-72.0179678355772239
 30
0.0
 40
1.0000000000003291
 50
263.3892983833757739
 51
314.9999999999906777
  0
LINE
  5
375F
  8
0
  6
AUSGEZOGEN
 62
     3
 10
-0.7071067811863602
 20
-65.7928932188134468
 30
0.0
 11
-7.6392881791369751
 21
-72.725074616764104
 31
-0.0000000000000015
  0
ARC
  5
3760
  8
0
  6
AUSGEZOGEN
 62
     3
 10
0.000000000000193
 20
-66.5
 30
0.0
 40
1.0000000000000071
 50
45.0
 51
135.0
  0
LINE
  5
3761
  8
0
  6
AUSGEZOGEN
 62
     3
 10
7.6392881791374174
 20
-72.725074616764104
 30
0.0
 11
0.707106781186746
 21
-65.7928932188134468
 31
-0.0000000000000015
  0
ARC
  5
3762
  8
0
  6
AUSGEZOGEN
 62
     3
 10
8.3463949603239147
 20
-72.0179678355777355
 30
0.0
 40
0.9999999999998552
 50
224.9999999999953957
 51
276.6107016166371864
  0
ARC
  5
3763
  8
0
  6
AUSGEZOGEN
 62
     3
 10
0.0000000000010457
 20
-0.0000000000040927
 30
0.0
 40
73.4999999999958646
 50
276.6107016166324115
 51
281.389298383367418
  0
ARC
  5
3764
  8
0
  6
AUSGEZOGEN
 62
     3
 10
14.3168826469529602
 20
-71.0723354848660733
 30
0.0
 40
1.0000000000002569
 50
281.3892983833712265
 51
332.9999999999910756
  0
LINE
  5
3765
  8
0
  6
AUSGEZOGEN
 62
     3
 10
19.6586236017458518
 20
-62.7912678338881278
 30
0.0
 11
15.2078891711414794
 21
-71.5263259846058759
 31
-0.000000000000001
  0
ARC
  5
3766
  8
0
  6
AUSGEZOGEN
 62
     3
 10
20.5496301259342715
 20
-63.2452583336275893
 30
0.0
 40
0.9999999999998749
 50
62.9999999999981881
 51
153.0000000000040075
  0
LINE
  5
3767
  8
0
  6
AUSGEZOGEN
 62
     3
 10
24.6914264549235796
 20
45.7668051312776782
 30
0.0
 11
17.6914264549235796
 21
33.6424494782956316
 31
-0.0000000000000018
  0
LINE
  5
3768
  8
0
  6
AUSGEZOGEN
 62
     3
 10
20.2895026662767215
 20
32.1424494782956316
 30
0.0
 11
17.6914264549234588
 21
33.6424494782956316
 31
-0.0000000000000006
  0
LINE
  5
3769
  8
0
  6
AUSGEZOGEN
 62
     3
 10
20.2895026662767215
 20
32.1424494782956316
 30
0.0
 11
27.2895026662767286
 21
44.2668051312776711
 31
0.0000000000000018
  0
LINE
  5
376A
  8
0
  6
AUSGEZOGEN
 62
     3
 10
27.2895026662767286
 20
44.2668051312775077
 30
0.0
 11
24.6914264549234694
 21
45.7668051312775006
 31
-0.0000000000000006
  0
LINE
  5
376B
  8
0
  6
AUSGEZOGEN
 62
     3
 10
17.6914264549234588
 20
33.6424494782954184
 30
0.0
 11
14.1914264549234606
 21
27.5802716518043489
 31
-0.0000000000000008
  0
LINE
  5
376C
  8
0
  6
AUSGEZOGEN
 62
     3
 10
16.7895026662767215
 20
26.0802716518043489
 30
0.0
 11
14.1914264549234606
 21
27.5802716518043489
 31
-0.0000000000000006
  0
LINE
  5
376D
  8
0
  6
AUSGEZOGEN
 62
     3
 10
16.7895026662767215
 20
26.0802716518043489
 30
0.0
 11
20.2895026662767215
 21
32.1424494782954184
 31
0.0000000000000008
  0
LINE
  5
376E
  8
0
  6
AUSGEZOGEN
 62
     3
 10
30.7895026662767286
 20
50.3289829577685595
 30
0.0
 11
28.1914264549234694
 21
51.8289829577685595
 31
-0.0000000000000006
  0
LINE
  5
376F
  8
0
  6
AUSGEZOGEN
 62
     3
 10
28.1914264549233593
 20
51.8289829577685808
 30
0.0
 11
24.6914264549233593
 21
45.7668051312775006
 31
-0.0000000000000008
  0
LINE
  5
3770
  8
0
  6
AUSGEZOGEN
 62
     3
 10
27.2895026662767286
 20
44.2668051312775077
 30
0.0
 11
30.7895026662767286
 21
50.3289829577685808
 31
0.0000000000000008
  0
LINE
  5
3771
  8
0
  6
VERDECKT
 62
     1
 10
0.0000000000000382
 20
59.0000000000000284
 30
0.0
 11
15.4919333848296592
 21
59.0000000000000284
 31
0.0000000000000034
  0
LINE
  5
3772
  8
0
  6
VERDECKT
 62
     1
 10
-15.4919333848295793
 20
59.0000000000000284
 30
0.0
 11
0.0000000000000391
 21
59.0000000000000284
 31
0.0000000000000034
  0
LINE
  5
3773
  8
0
  6
VERDECKT
 62
     1
 10
0.0000000000000382
 20
-58.9999999999999716
 30
0.0
 11
-15.4919333848295793
 21
-58.9999999999999574
 31
-0.0000000000000034
  0
LINE
  5
3774
  8
0
  6
VERDECKT
 62
     1
 10
15.4919333848296592
 20
-58.9999999999999787
 30
0.0
 11
0.0000000000000391
 21
-58.9999999999999716
 31
-0.0000000000000034
  0
LINE
  5
3775
  8
0
  6
VERDECKT
 62
     1
 10
59.0000000000000284
 20
0.0000000000000282
 30
0.0
 11
59.0000000000000284
 21
-15.4919333848296503
 31
0.0
  0
LINE
  5
3776
  8
0
  6
VERDECKT
 62
     1
 10
59.0000000000000284
 20
15.4919333848296503
 30
0.0
 11
59.0000000000000284
 21
0.0000000000000284
 31
0.0
  0
LINE
  5
3777
  8
0
  6
VERDECKT
 62
     1
 10
-58.9999999999999574
 20
0.0000000000000282
 30
0.0
 11
-58.9999999999999574
 21
15.4919333848296503
 31
0.0
  0
LINE
  5
3778
  8
0
  6
VERDECKT
 62
     1
 10
-58.9999999999999574
 20
-15.4919333848296503
 30
0.0
 11
-58.9999999999999574
 21
0.0000000000000284
 31
0.0
  0
CIRCLE
  5
3779
  8
0
  6
VERDECKT
 62
     1
 10
0.0000000000000028
 20
0.0000000000000126
 30
0.0
 40
62.0
  0
CIRCLE
  5
377A
  8
0
  6
VERDECKT
 62
     1
 10
0.0000000000000175
 20
0.0000000000000167
 30
0.0
 40
49.0
  0
CIRCLE
  5
377B
  8
0
  6
VERDECKT
 62
     1
 10
0.0000000000000175
 20
0.0000000000000167
 30
0.0
 40
51.0
  0
CIRCLE
  5
377C
  8
0
  6
VERDECKT
 62
     1
 10
0.0000000000000028
 20
0.0000000000000126
 30
0.0
 40
64.0
  0
LINE
  5
377D
  8
0
  6
VERDECKT
 62
     1
 10
29.7895026662767286
 20
-48.5969321501996916
 30
0.0
 11
27.1914264549234694
 21
-50.0969321501996987
 31
-0.0000000000000006
  0
ARC
  5
377E
  8
0
  6
VERDECKT
 62
     1
 10
-0.2500000000004543
 20
-0.0000000000006773
 30
0.0
 40
34.0314676152499018
 50
57.1088429296447018
 51
62.1614176293596685
  0
ARC
  5
377F
  8
0
  6
VERDECKT
 62
     1
 10
-0.2500000000153473
 20
0.0000000000260605
 30
0.0
 40
34.0314676152792828
 50
297.8385823706428255
 51
302.8911570703531879
  0
ARC
  5
3780
  8
0
  6
VERDECKT
 62
     1
 10
-0.2499999999875878
 20
0.0000000000213266
 30
0.0
 40
34.6499999999754493
 50
57.1604952561155883
 51
62.1228166354917093
  0
ARC
  5
3781
  8
0
  6
VERDECKT
 62
     1
 10
-0.2499999999859962
 20
-0.0000000000240842
 30
0.0
 40
34.6499999999722519
 50
297.8771833645080847
 51
302.8395047438846746
  0
ARC
  5
3782
  8
0
  6
VERDECKT
 62
     1
 10
-0.2500000000079314
 20
0.0000000000007315
 30
0.0
 40
57.6186291500937315
 50
170.0385976080158912
 51
180.0000000000007105
  0
ARC
  5
3783
  8
0
  6
VERDECKT
 62
     1
 10
-0.2499999999999733
 20
0.0000000000000974
 30
0.0
 40
57.6186291501016115
 50
81.5964904503388055
 51
98.4035095496612087
  0
ARC
  5
3784
  8
0
  6
VERDECKT
 62
     1
 10
-0.2500000000387406
 20
-0.0000000000664166
 30
0.0
 40
57.6186291501785774
 50
58.2928590291066726
 51
61.2764075315534527
  0
ARC
  5
3785
  8
0
  6
VERDECKT
 62
     1
 10
-0.2500000000002007
 20
0.0000000000000148
 30
0.0
 40
57.6186291501019312
 50
353.5154055376252131
 51
6.4845944623748411
  0
ARC
  5
3786
  8
0
  6
VERDECKT
 62
     1
 10
-0.2500000000435154
 20
0.0000000000743633
 30
0.0
 40
57.6186291501878287
 50
298.7235924684468955
 51
301.7071409708933061
  0
ARC
  5
3787
  8
0
  6
VERDECKT
 62
     1
 10
-0.2499999999999733
 20
-0.0000000000005137
 30
0.0
 40
57.6186291501011709
 50
261.5964904503367734
 51
278.4035095496632835
  0
ARC
  5
3788
  8
0
  6
VERDECKT
 62
     1
 10
-0.2500000000079314
 20
-0.0000000000006914
 30
0.0
 40
57.6186291500937315
 50
179.9999999999992895
 51
189.9614023919841088
  0
ARC
  5
3789
  8
0
  6
VERDECKT
 62
     1
 10
-0.2500000000015652
 20
0.0000000000002092
 30
0.0
 40
58.7499999999985079
 50
165.0070015540489123
 51
180.0000000000001137
  0
ARC
  5
378A
  8
0
  6
VERDECKT
 62
     1
 10
-0.2499999999999736
 20
0.0000000000000262
 30
0.0
 40
58.7500000000000995
 50
75.9803655146730392
 51
104.0196344853269039
  0
ARC
  5
378B
  8
0
  6
VERDECKT
 62
     1
 10
-0.2500000000509053
 20
-0.0000000000872213
 30
0.0
 40
58.7500000001011031
 50
58.3257435372994166
 51
61.2518233212350935
  0
ARC
  5
378C
  8
0
  6
VERDECKT
 62
     1
 10
-0.2499999999998599
 20
0.0000000000000138
 30
0.0
 40
58.75
 50
347.0249897067242273
 51
12.9750102932758598
  0
ARC
  5
378D
  8
0
  6
VERDECKT
 62
     1
 10
-0.2500000000509053
 20
0.0000000000872453
 30
0.0
 40
58.7500000001011031
 50
298.748176678764878
 51
301.6742564627004981
  0
ARC
  5
378E
  8
0
  6
VERDECKT
 62
     1
 10
-0.2499999999999736
 20
-0.0000000000004569
 30
0.0
 40
58.7499999999996518
 50
255.9803655146716039
 51
284.0196344853284245
  0
ARC
  5
378F
  8
0
  6
VERDECKT
 62
     1
 10
-0.2500000000015652
 20
-0.0000000000001696
 30
0.0
 40
58.7499999999985221
 50
179.999999999999801
 51
194.9929984459510877
  0
CIRCLE
  5
3790
  8
0
  6
VERDECKT
 62
     1
 10
-0.2499999999999797
 20
0.0000000000000174
 30
0.0
 40
36.2500000000001066
  0
CIRCLE
  5
3791
  8
0
  6
VERDECKT
 62
     1
 10
-0.2499999999999996
 20
0.000000000000012
 30
0.0
 40
35.6375793553185076
  0
CIRCLE
  5
3792
  8
0
  6
VERDECKT
 62
     1
 10
0.0000000000002499
 20
0.0000000000000284
 30
0.0
 40
58.5
  0
LINE
  5
3793
  8
0
  6
VERDECKT
 62
     1
 10
29.7895026662767286
 20
48.5969321501997129
 30
0.0
 11
27.1914264549234694
 21
50.09693215019972
 31
-0.0000000000000006
  0
ENDBLK
  5
3795
  8
0
  0
ENDSEC
  0
SECTION
  2
ENTITIES
  0
TEXT
  5
1871
  8
TEXT35
 10
339.4627620700201192
 20
530.8138270605206799
 30
0.0
 40
3.5
  1

 41
0.8
  0
INSERT
  5
36CA
  8
0
  2
A$C05E72377
 10
0.0
 20
0.0000000000000118
 30
0.0
  0
INSERT
  5
3796
  8
0
  2
A$C74785137
 10
-2.5686213029984879
 20
-118.9430153181015015
 30
2.000000000000028
  0
VIEWPORT
  5
3287
 67
     1
  8
0
 10
5.74530733759544
 20
6.6505737539271044
 30
0.0
 40
25.7601751391404399
 41
13.6467594487113004
 68
     1
 69
     1
1001
ACAD
1000
MVIEW
1002
{
1070
    16
1010
0.0
1020
0.0
1030
0.0
1010
0.0
1020
0.0
1030
1.0
1040
0.0
1040
13.6467594487113004
1040
5.74530733759544
1040
6.6505737539271044
1040
50.0
1040
0.0
1040
0.0
1070
     0
1070
  1500
1070
     1
1070
     1
1070
     0
1070
     0
1070
     0
1070
     0
1040
0.0
1040
0.0
1040
0.0
1040
10.0
1040
10.0
1040
10.0
1040
10.0
1070
     0
1002
{
1002
}
1002
}
  0
ENDSEC
  0
EOF
