  0
SECTION
  2
HEADER
  9
$ACADVER
  1
AC1009
  9
$INSBASE
 10
0.0
 20
0.0
 30
0.0
  9
$EXTMIN
 10
-75.0139957737048917
 20
-188.6808975850098875
 30
-0.002484091279797
  9
$EXTMAX
 10
73.0241655262898348
 20
160.0001952328375125
 30
0.0037265159907633
  9
$LIMMIN
 10
0.0
 20
0.0
  9
$LIMMAX
 10
297.0
 20
420.0
  9
$ORTHOMODE
 70
     1
  9
$REGENMODE
 70
     1
  9
$FILLMODE
 70
     1
  9
$QTEXTMODE
 70
     0
  9
$MIRRTEXT
 70
     1
  9
$DRAGMODE
 70
     2
  9
$LTSCALE
 40
20.0
  9
$OSMODE
 70
  1327
  9
$ATTMODE
 70
     1
  9
$TEXTSIZE
 40
3.5
  9
$TRACEWID
 40
0.5
  9
$TEXTSTYLE
  7
STANDARD
  9
$CLAYER
  8
0
  9
$CELTYPE
  6
BYLAYER
  9
$CECOLOR
 62
   256
  9
$DIMSCALE
 40
1.0
  9
$DIMASZ
 40
3.5
  9
$DIMEXO
 40
1.0
  9
$DIMDLI
 40
8.0
  9
$DIMRND
 40
0.0
  9
$DIMDLE
 40
0.0
  9
$DIMEXE
 40
1.0
  9
$DIMTP
 40
1.0
  9
$DIMTM
 40
0.0
  9
$DIMTXT
 40
3.5
  9
$DIMCEN
 40
0.0
  9
$DIMTSZ
 40
0.0
  9
$DIMTOL
 70
     0
  9
$DIMLIM
 70
     0
  9
$DIMTIH
 70
     0
  9
$DIMTOH
 70
     0
  9
$DIMSE1
 70
     0
  9
$DIMSE2
 70
     0
  9
$DIMTAD
 70
     1
  9
$DIMZIN
 70
     8
  9
$DIMBLK
  1

  9
$DIMASO
 70
     1
  9
$DIMSHO
 70
     0
  9
$DIMPOST
  1

  9
$DIMAPOST
  1

  9
$DIMALT
 70
     0
  9
$DIMALTD
 70
     2
  9
$DIMALTF
 40
25.3999999999999986
  9
$DIMLFAC
 40
1.0
  9
$DIMTOFL
 70
     1
  9
$DIMTVP
 40
0.0
  9
$DIMTIX
 70
     0
  9
$DIMSOXD
 70
     0
  9
$DIMSAH
 70
     0
  9
$DIMBLK1
  1

  9
$DIMBLK2
  1

  9
$DIMSTYLE
  2
STANDARD
  9
$DIMCLRD
 70
     0
  9
$DIMCLRE
 70
     0
  9
$DIMCLRT
 70
     1
  9
$DIMTFAC
 40
0.5
  9
$DIMGAP
 40
1.5
  9
$LUNITS
 70
     2
  9
$LUPREC
 70
     2
  9
$SKETCHINC
 40
1.0
  9
$FILLETRAD
 40
0.0
  9
$AUNITS
 70
     0
  9
$AUPREC
 70
     0
  9
$MENU
  1
ACAD
  9
$ELEVATION
 40
0.0
  9
$PELEVATION
 40
0.0
  9
$THICKNESS
 40
0.0
  9
$LIMCHECK
 70
     0
  9
$BLIPMODE
 70
     0
  9
$CHAMFERA
 40
0.0
  9
$CHAMFERB
 40
0.0
  9
$SKPOLY
 70
     0
  9
$TDCREATE
 40
2451880.4638425931334496
  9
$TDUPDATE
 40
2458401.6056249998509884
  9
$TDINDWG
 40
0.0704065856
  9
$TDUSRTIMER
 40
0.0704065856
  9
$USRTIMER
 70
     1
  9
$ANGBASE
 50
0.0
  9
$ANGDIR
 70
     0
  9
$PDMODE
 70
     0
  9
$PDSIZE
 40
0.0
  9
$PLINEWID
 40
0.0
  9
$COORDS
 70
     1
  9
$SPLFRAME
 70
     0
  9
$SPLINETYPE
 70
     6
  9
$SPLINESEGS
 70
     8
  9
$ATTDIA
 70
     0
  9
$ATTREQ
 70
     0
  9
$HANDLING
 70
     1
  9
$HANDSEED
  5
3706
  9
$SURFTAB1
 70
     6
  9
$SURFTAB2
 70
     6
  9
$SURFTYPE
 70
     6
  9
$SURFU
 70
     6
  9
$SURFV
 70
     6
  9
$UCSNAME
  2

  9
$UCSORG
 10
0.0
 20
0.0
 30
0.0
  9
$UCSXDIR
 10
1.0
 20
0.0
 30
0.0
  9
$UCSYDIR
 10
0.0
 20
1.0
 30
0.0
  9
$PUCSNAME
  2

  9
$PUCSORG
 10
0.0
 20
0.0
 30
0.0
  9
$PUCSXDIR
 10
1.0
 20
0.0
 30
0.0
  9
$PUCSYDIR
 10
0.0
 20
1.0
 30
0.0
  9
$USERI1
 70
     0
  9
$USERI2
 70
     0
  9
$USERI3
 70
     0
  9
$USERI4
 70
     0
  9
$USERI5
 70
     0
  9
$USERR1
 40
0.0
  9
$USERR2
 40
0.0
  9
$USERR3
 40
0.0
  9
$USERR4
 40
0.0
  9
$USERR5
 40
0.0
  9
$WORLDVIEW
 70
     1
  9
$SHADEDGE
 70
     3
  9
$SHADEDIF
 70
    70
  9
$TILEMODE
 70
     1
  9
$MAXACTVP
 70
    16
  9
$PLIMCHECK
 70
     0
  9
$PEXTMIN
 10
-0.1482710235785163
 20
-0.1665373989069288
 30
0.0
  9
$PEXTMAX
 10
8.6437827844666089
 20
12.1160565068348394
 30
0.0
  9
$PLIMMIN
 10
-0.2500002402958907
 20
-0.2499999962453767
  9
$PLIMMAX
 10
10.7499995194082203
 20
8.2499997634587334
  9
$UNITMODE
 70
     0
  9
$VISRETAIN
 70
     0
  9
$PLINEGEN
 70
     0
  9
$PSLTSCALE
 70
     0
  0
ENDSEC
  0
SECTION
  2
TABLES
  0
TABLE
  2
VPORT
 70
     1
  0
VPORT
  2
*ACTIVE
 70
     0
 10
0.0
 20
0.0
 11
1.0
 21
1.0
 12
-0.0036260732061919
 22
-57.8324166057736875
 13
0.0
 23
0.0
 14
1.0
 24
1.0
 15
10.0
 25
10.0
 16
-0.0000000000001589
 26
0.0
 36
715.4596854173767042
 17
-0.9912890505013294
 27
43.4920654296875
 37
-0.0000000000000104
 40
351.2896795471580162
 41
1.887640449438202
 42
50.0
 43
0.0
 44
0.0
 50
0.0
 51
0.0
 71
     0
 72
  1500
 73
     1
 74
     0
 75
     0
 76
     0
 77
     0
 78
     0
  0
ENDTAB
  0
TABLE
  2
LTYPE
 70
     4
  0
LTYPE
  2
AUSGEZOGEN
 70
     0
  3
Ausgezogene Linie
 72
    65
 73
     0
 40
0.0
  0
LTYPE
  2
CONTINUOUS
 70
     0
  3
Solid line
 72
    65
 73
     0
 40
0.0
  0
LTYPE
  2
VERDECKT
 70
     0
  3
Verdeckt __ __ __ __ __ __ __ __ __ __ __ __ __
 72
    65
 73
     2
 40
0.375
 49
0.25
 49
-0.125
  0
ENDTAB
  0
TABLE
  2
LAYER
 70
    12
  0
LAYER
  2
0
 70
     0
 62
     7
  6
AUSGEZOGEN
  0
LAYER
  2
DEFPOINTS
 70
     0
 62
     7
  6
AUSGEZOGEN
  0
LAYER
  2
TEXT35
 70
     0
 62
     1
  6
AUSGEZOGEN
  0
ENDTAB
  0
TABLE
  2
STYLE
 70
     4
  0
STYLE
  2
STANDARD
 70
     0
 40
0.0
 41
0.8
 50
0.0
 71
     0
 42
3.5
  3
simplex.shx
  4

  0
ENDTAB
  0
TABLE
  2
VIEW
 70
     4
  0
ENDTAB
  0
TABLE
  2
UCS
 70
     0
  0
ENDTAB
  0
TABLE
  2
APPID
 70
    11
  0
APPID
  2
ACAD
 70
     0
  0
APPID
  2
ACAD_NAV_VCDISPLAY
 70
     0
  0
APPID
  2
ACAECLAYERSTANDARD
 70
     0
  0
APPID
  2
ACCMTRANSPARENCY
 70
     0
  0
APPID
  2
ACAD_PSEXT
 70
     0
  0
APPID
  2
ACAD_STEPID
 70
     0
  0
APPID
  2
ACAD_EXEMPT_FROM_CAD_STANDARDS
 70
     0
  0
APPID
  2
ACAD_DSTYLE_DIMRADIAL_EXTENSION
 70
     0
  0
APPID
  2
ACAD_MLEADERVER
 70
     0
  0
APPID
  2
ACAD_OBJECT_CHANGE_GUID
 70
     0
  0
APPID
  2
ACADANNOMONITORALERTICONDI
 70
     0
  0
ENDTAB
  0
TABLE
  2
DIMSTYLE
 70
     2
  0
DIMSTYLE
  2
STANDARD
 70
     0
  3

  4

  5

  6

  7

 40
0.0
 41
3.5
 42
1.0
 43
8.0
 44
1.5
 45
0.0
 46
0.0
 47
0.5
 48
0.0
140
3.5
141
1.5
142
0.0
143
25.3999999999999986
144
1.0
145
0.0
146
1.0
147
1.0
 71
     0
 72
     0
 73
     0
 74
     0
 75
     0
 76
     0
 77
     1
 78
     8
170
     0
171
     2
172
     1
173
     0
174
     0
175
     0
176
     0
177
     0
178
     1
  0
ENDTAB
  0
ENDSEC
  0
SECTION
  2
BLOCKS
  0
BLOCK
  8
0
  2
$MODEL_SPACE
 70
     0
 10
0.0
 20
0.0
 30
0.0
  3
$MODEL_SPACE
  1

  0
ENDBLK
  5
2723
  8
0
  0
BLOCK
 67
     1
  8
0
  2
$PAPER_SPACE
 70
     0
 10
0.0
 20
0.0
 30
0.0
  3
$PAPER_SPACE
  1

  0
ENDBLK
  5
2721
 67
     1
  8
0
  0
BLOCK
  8
0
  2
A$C61530B08
 70
     0
 10
0.0
 20
0.0
 30
0.0
  3
A$C61530B08
  1

  0
LINE
  5
3514
  8
0
  6
AUSGEZOGEN
 62
     3
 10
-15.4919333848296894
 20
145.0000000000001137
 30
-0.0000000000000288
 11
15.4919333848295508
 21
145.0000000000001137
 31
-0.0000000000000356
210
0.0000000000000002
220
1.0
230
-0.0000000000000002
  0
LINE
  5
3515
  8
0
  6
AUSGEZOGEN
 62
     3
 10
15.4919333848295508
 20
152.0000000000001137
 30
-0.0000000000000372
 11
-15.4919333848296894
 21
152.0000000000001137
 31
-0.0000000000000303
210
0.0000000000000002
220
1.0
230
-0.0000000000000002
  0
LINE
  5
3516
  8
0
  6
AUSGEZOGEN
 62
     3
 10
15.4919333848295508
 20
152.000000000000199
 30
-0.0000000000000372
 11
15.4919333848295508
 21
145.000000000000199
 31
-0.0000000000000356
210
0.0000000000000002
220
1.0
230
-0.0000000000000002
  0
LINE
  5
3517
  8
0
  6
AUSGEZOGEN
 62
     3
 10
-15.4919333848296894
 20
145.000000000000199
 30
-0.0000000000000288
 11
-15.4919333848296894
 21
152.000000000000199
 31
-0.0000000000000303
210
0.0000000000000002
220
1.0
230
-0.0000000000000002
  0
LINE
  5
3518
  8
0
  6
AUSGEZOGEN
 62
     3
 10
58.9999999999999218
 20
145.0000000000001137
 30
-0.0000000000000329
 11
60.9999999999999218
 21
145.0000000000001137
 31
-0.0000000000000322
210
0.0000000000000002
220
1.0
230
-0.0000000000000002
  0
LINE
  5
3519
  8
0
  6
AUSGEZOGEN
 62
     3
 10
60.9999999999999076
 20
152.0000000000001137
 30
-0.0000000000000338
 11
58.9999999999999218
 21
152.0000000000001137
 31
-0.0000000000000344
210
0.0000000000000002
220
1.0
230
-0.0000000000000002
  0
LINE
  5
351A
  8
0
  6
AUSGEZOGEN
 62
     3
 10
58.9999999999999218
 20
145.0000000000001137
 30
-0.0000000000000329
 11
58.9999999999999218
 21
152.0000000000001137
 31
-0.0000000000000344
210
0.0000000000000002
220
1.0
230
-0.0000000000000002
  0
LINE
  5
351B
  8
0
  6
AUSGEZOGEN
 62
     3
 10
-61.0000000000000711
 20
145.0000000000001137
 30
-0.0000000000000322
 11
-59.0000000000000782
 21
145.0000000000001137
 31
-0.0000000000000315
210
0.0000000000000002
220
1.0
230
-0.0000000000000002
  0
LINE
  5
351C
  8
0
  6
AUSGEZOGEN
 62
     3
 10
-59.0000000000000782
 20
152.0000000000001137
 30
-0.0000000000000331
 11
-61.0000000000000782
 21
152.0000000000001137
 31
-0.0000000000000338
210
0.0000000000000002
220
1.0
230
-0.0000000000000002
  0
LINE
  5
351D
  8
0
  6
AUSGEZOGEN
 62
     3
 10
-59.0000000000000782
 20
152.0000000000001137
 30
-0.0000000000000331
 11
-59.0000000000000782
 21
145.0000000000001137
 31
-0.0000000000000315
210
0.0000000000000002
220
1.0
230
-0.0000000000000002
  0
LINE
  5
351E
  8
0
  6
AUSGEZOGEN
 62
     3
 10
-61.0000000000000782
 20
159.9999999999998863
 30
-0.0000000000000355
 11
60.9999999999999218
 21
159.9999999999998863
 31
-0.0000000000000355
210
0.0000000000000002
220
1.0
230
-0.0000000000000002
  0
LINE
  5
351F
  8
0
  6
AUSGEZOGEN
 62
     3
 10
-64.0
 20
-0.0000000000000426
 30
0.0
 11
64.0
 21
0.0000000000000426
 31
0.0
210
0.0000000000000002
220
1.0
230
-0.0000000000000002
  0
LINE
  5
3520
  8
0
  6
AUSGEZOGEN
 62
     3
 10
60.9999999999998792
 20
159.9999999999998863
 30
-0.0000000000000355
 11
60.9999999999998934
 21
152.0000000000001137
 31
-0.0000000000000338
210
0.0000000000000002
220
1.0
230
-0.0000000000000002
  0
LINE
  5
3521
  8
0
  6
AUSGEZOGEN
 62
     3
 10
60.9999999999999005
 20
145.0000000000001137
 30
-0.0000000000000322
 11
60.9999999999999218
 21
91.0948389651166934
 31
-0.0000000000000202
210
0.0000000000000002
220
1.0
230
-0.0000000000000002
  0
LINE
  5
3522
  8
0
  6
AUSGEZOGEN
 62
     3
 10
-61.0000000000001208
 20
159.9999999999998863
 30
-0.0000000000000355
 11
-61.0000000000001066
 21
152.0000000000001137
 31
-0.0000000000000338
210
0.0000000000000002
220
1.0
230
-0.0000000000000002
  0
LINE
  5
3523
  8
0
  6
AUSGEZOGEN
 62
     3
 10
-61.0000000000000995
 20
145.0000000000001137
 30
-0.0000000000000322
 11
-61.0000000000000782
 21
91.0948389651166224
 31
-0.0000000000000202
210
0.0000000000000002
220
1.0
230
-0.0000000000000002
  0
ARC
  5
3524
  8
0
  6
AUSGEZOGEN
 62
     3
 10
44.9999999999946994
 20
91.0948389651178161
 30
0.0
 40
16.0000000000054285
210
0.0
220
-0.0000000000000002
230
-1.0
 50
340.0000002745890129
 51
359.9999999999956799
  0
ARC
  5
3525
  8
0
  6
AUSGEZOGEN
 62
     3
 10
-44.9999999999942801
 20
91.0948389651178729
 30
0.0
 40
16.0000000000056701
210
0.0
220
-0.0000000000000002
230
-1.0
 50
180.0000000000042064
 51
199.9999997254105892
  0
LINE
  5
3526
  8
0
  6
AUSGEZOGEN
 62
     3
 10
-51.7230723441830591
 20
62.7854576769765487
 30
-0.0000000000000139
 11
-57.9540446567417007
 21
79.9049136622540317
 31
-0.0000000000000177
210
0.0000000000000002
220
1.0
230
-0.0000000000000002
  0
LINE
  5
3527
  8
0
  6
AUSGEZOGEN
 62
     3
 10
-58.5000000000000426
 20
81.4049136622540743
 30
-0.0000000000000181
 11
-60.0350819588003404
 21
85.6225167439606167
 31
-0.000000000000019
210
0.0000000000000002
220
1.0
230
-0.0000000000000002
  0
LINE
  5
3528
  8
0
  6
AUSGEZOGEN
 62
     3
 10
51.7230723441831017
 20
62.7854576769765913
 30
-0.0000000000000139
 11
57.9540446567417007
 21
79.9049136622540175
 31
-0.0000000000000177
210
0.0000000000000002
220
1.0
230
-0.0000000000000002
  0
LINE
  5
3529
  8
0
  6
AUSGEZOGEN
 62
     3
 10
58.5000000000000426
 20
81.4049136622540175
 30
-0.0000000000000181
 11
60.0350819588003617
 21
85.6225167439606452
 31
-0.000000000000019
210
0.0000000000000002
220
1.0
230
-0.0000000000000002
  0
ARC
  5
352A
  8
0
  6
AUSGEZOGEN
 62
     3
 10
63.0000000000025793
 20
58.6829093658077099
 30
0.0
 40
12.0000000000026308
210
0.0
220
-0.0000000000000002
230
-1.0
 50
160.0086041010038969
 51
180.000000000000199
  0
ARC
  5
352B
  8
0
  6
AUSGEZOGEN
 62
     3
 10
-63.0000000000022382
 20
58.6829093658078165
 30
0.0
 40
12.0000000000022702
210
0.0
220
-0.0000000000000002
230
-1.0
 50
359.9999999999993747
 51
19.9913958989963909
  0
LINE
  5
352C
  8
0
  6
AUSGEZOGEN
 62
     3
 10
51.0000000000000071
 20
58.6829093658077028
 30
-0.000000000000013
 11
51.0000000000000071
 21
53.5384381442452195
 31
-0.0000000000000119
210
0.0000000000000002
220
1.0
230
-0.0000000000000002
  0
LINE
  5
352D
  8
0
  6
AUSGEZOGEN
 62
     3
 10
-50.9999999999999787
 20
58.6829093658076602
 30
-0.000000000000013
 11
-50.9999999999999787
 21
53.5384381442451911
 31
-0.0000000000000119
210
0.0000000000000002
220
1.0
230
-0.0000000000000002
  0
ARC
  5
352E
  8
0
  6
AUSGEZOGEN
 62
     3
 10
64.9999999999990905
 20
53.5384381442452835
 30
0.0
 40
13.9999999999991491
210
0.0
220
-0.0000000000000002
230
-1.0
 50
180.0000000000003126
 51
200.0000000000019043
  0
ARC
  5
352F
  8
0
  6
AUSGEZOGEN
 62
     3
 10
-64.9999999999989626
 20
53.5384381442452906
 30
0.0
 40
13.9999999999989893
210
0.0
220
-0.0000000000000002
230
-1.0
 50
339.9999999999978968
 51
359.9999999999997158
  0
LINE
  5
3530
  8
0
  6
AUSGEZOGEN
 62
     3
 10
51.8443033089973682
 20
48.7501561376858135
 30
-0.0000000000000108
 11
63.0350819325746201
 21
18.0037445632921482
 31
-0.000000000000004
210
0.0000000000000002
220
1.0
230
-0.0000000000000002
  0
LINE
  5
3531
  8
0
  6
AUSGEZOGEN
 62
     3
 10
-51.8443033089973611
 20
48.7501561376857566
 30
-0.0000000000000108
 11
-63.0350819325745775
 21
18.0037445632920807
 31
-0.000000000000004
210
0.0000000000000002
220
1.0
230
-0.0000000000000002
  0
ARC
  5
3532
  8
0
  6
AUSGEZOGEN
 62
     3
 10
47.9999999999976765
 20
12.5314222700807996
 30
0.0
 40
16.0000000000024194
210
0.0
220
-0.0000000000000002
230
-1.0
 50
0.0000000000015012
 51
19.9999999999990017
  0
ARC
  5
3533
  8
0
  6
AUSGEZOGEN
 62
     3
 10
-47.99999999999811
 20
12.5314222700809204
 30
0.0
 40
16.0000000000019895
210
0.0
220
-0.0000000000000002
230
-1.0
 50
160.0000000000005116
 51
179.9999999999986073
  0
LINE
  5
3534
  8
0
  6
AUSGEZOGEN
 62
     3
 10
64.0000000000001137
 20
12.5314222700813005
 30
-0.0000000000000028
 11
64.0000000000001137
 21
0.0000000000000302
 31
0.0
210
0.0000000000000002
220
1.0
230
-0.0000000000000002
  0
LINE
  5
3535
  8
0
  6
AUSGEZOGEN
 62
     3
 10
-64.0000000000001137
 20
12.5314222700812206
 30
-0.0000000000000028
 11
-64.0000000000001137
 21
-0.0000000000000426
 31
0.0
210
0.0000000000000002
220
1.0
230
-0.0000000000000002
  0
LINE
  5
3536
  8
0
  6
AUSGEZOGEN
 62
     3
 10
29.7386787763913105
 20
81.4049136622540175
 30
-0.0000000000000247
 11
21.0036206256736797
 21
81.4049136622540175
 31
-0.0000000000000245
210
0.0000000000000002
220
1.0
230
-0.0000000000000002
  0
LINE
  5
3537
  8
0
  6
AUSGEZOGEN
 62
     3
 10
29.7386787763913105
 20
79.9049136622540317
 30
-0.0000000000000243
 11
21.0036206256736797
 21
79.9049136622540317
 31
-0.0000000000000242
210
0.0000000000000002
220
1.0
230
-0.0000000000000002
  0
LINE
  5
3538
  8
0
  6
AUSGEZOGEN
 62
     3
 10
29.7386787763913212
 20
81.4049136622540175
 30
-0.0000000000000247
 11
30.609119886836119
 21
81.4049136622540175
 31
-0.0000000000000249
210
0.0000000000000002
220
1.0
230
-0.0000000000000002
  0
LINE
  5
3539
  8
0
  6
AUSGEZOGEN
 62
     3
 10
29.7386787763913212
 20
79.9049136622540317
 30
-0.0000000000000243
 11
30.609119886836119
 21
79.9049136622540317
 31
-0.0000000000000245
210
0.0000000000000002
220
1.0
230
-0.0000000000000002
  0
LINE
  5
353A
  8
0
  6
AUSGEZOGEN
 62
     3
 10
30.6091198868361083
 20
81.4049136622540459
 30
-0.0000000000000249
 11
36.0694650502507912
 21
81.4049136622540175
 31
-0.0000000000000119
210
0.0000000000000002
220
1.0
230
-0.0000000000000002
  0
LINE
  5
353B
  8
0
  6
AUSGEZOGEN
 62
     3
 10
30.6091198868361083
 20
79.9049136622540459
 30
-0.0000000000000245
 11
36.069465050250777
 21
79.9049136622540317
 31
-0.0000000000000115
210
0.0000000000000002
220
1.0
230
-0.0000000000000002
  0
LINE
  5
353C
  8
0
  6
AUSGEZOGEN
 62
     3
 10
36.069465050250777
 20
81.4049136622540175
 30
-0.0000000000000119
 11
36.5664123697540973
 21
81.4049136622540175
 31
-0.0000000000000191
210
0.0000000000000002
220
1.0
230
-0.0000000000000002
  0
LINE
  5
353D
  8
0
  6
AUSGEZOGEN
 62
     3
 10
36.0694650502507699
 20
79.9049136622540175
 30
-0.0000000000000115
 11
36.5664123697540902
 21
79.9049136622540175
 31
-0.0000000000000188
210
0.0000000000000002
220
1.0
230
-0.0000000000000002
  0
LINE
  5
353E
  8
0
  6
AUSGEZOGEN
 62
     3
 10
38.1000309368544521
 20
81.4049136622540175
 30
-0.0000000000000194
 11
36.5664123697540973
 21
81.4049136622540175
 31
-0.0000000000000191
210
0.0000000000000002
220
1.0
230
-0.0000000000000002
  0
LINE
  5
353F
  8
0
  6
AUSGEZOGEN
 62
     3
 10
38.1000309368544379
 20
79.9049136622540175
 30
-0.0000000000000191
 11
36.5664123697540902
 21
79.9049136622540175
 31
-0.0000000000000188
210
0.0000000000000002
220
1.0
230
-0.0000000000000002
  0
LINE
  5
3540
  8
0
  6
AUSGEZOGEN
 62
     3
 10
39.2441537424897788
 20
81.4049136622540175
 30
-0.0000000000000197
 11
38.1000309368544521
 21
81.4049136622540175
 31
-0.0000000000000194
210
0.0000000000000002
220
1.0
230
-0.0000000000000002
  0
LINE
  5
3541
  8
0
  6
AUSGEZOGEN
 62
     3
 10
39.2441537424897717
 20
79.9049136622540175
 30
-0.0000000000000194
 11
38.1000309368544521
 21
79.9049136622540175
 31
-0.0000000000000191
210
0.0000000000000002
220
1.0
230
-0.0000000000000002
  0
LINE
  5
3542
  8
0
  6
AUSGEZOGEN
 62
     3
 10
48.9270402934534232
 20
81.4049136622540175
 30
-0.0000000000000147
 11
39.2441537424897788
 21
81.4049136622540175
 31
-0.0000000000000148
210
0.0000000000000002
220
1.0
230
-0.0000000000000002
  0
LINE
  5
3543
  8
0
  6
AUSGEZOGEN
 62
     3
 10
48.9270402934534232
 20
79.9049136622540175
 30
-0.0000000000000144
 11
39.2441537424897717
 21
79.9049136622540175
 31
-0.0000000000000145
210
0.0000000000000002
220
1.0
230
-0.0000000000000002
  0
LINE
  5
3544
  8
0
  6
AUSGEZOGEN
 62
     3
 10
48.9270402934534232
 20
81.4049136622540175
 30
-0.0000000000000147
 11
49.7604882034383706
 21
81.4049136622540175
 31
-0.0000000000000149
210
0.0000000000000002
220
1.0
230
-0.0000000000000002
  0
LINE
  5
3545
  8
0
  6
AUSGEZOGEN
 62
     3
 10
48.9270402934534232
 20
79.9049136622540175
 30
-0.0000000000000144
 11
49.7604882034383706
 21
79.9049136622540175
 31
-0.0000000000000146
210
0.0000000000000002
220
1.0
230
-0.0000000000000002
  0
LINE
  5
3546
  8
0
  6
AUSGEZOGEN
 62
     3
 10
49.7604882034383635
 20
81.4049136622540175
 30
-0.0000000000000149
 11
54.0938426602833928
 21
81.4049136622540175
 31
-0.0000000000000159
210
0.0000000000000002
220
1.0
230
-0.0000000000000002
  0
LINE
  5
3547
  8
0
  6
AUSGEZOGEN
 62
     3
 10
49.7604882034383493
 20
79.9049136622540175
 30
-0.0000000000000146
 11
54.0938426602833928
 21
79.9049136622540175
 31
-0.0000000000000155
210
0.0000000000000002
220
1.0
230
-0.0000000000000002
  0
LINE
  5
3548
  8
0
  6
AUSGEZOGEN
 62
     3
 10
54.093842660283471
 20
81.4049136622540175
 30
-0.0000000000000159
 11
54.3578720118442007
 21
81.4049136622540175
 31
-0.0000000000000159
210
0.0000000000000002
220
1.0
230
-0.0000000000000002
  0
LINE
  5
3549
  8
0
  6
AUSGEZOGEN
 62
     3
 10
54.0938426602834568
 20
79.9049136622540175
 30
-0.0000000000000155
 11
54.3578720118441865
 21
79.9049136622540175
 31
-0.0000000000000156
210
0.0000000000000002
220
1.0
230
-0.0000000000000002
  0
LINE
  5
354A
  8
0
  6
AUSGEZOGEN
 62
     3
 10
63.3260822118574822
 20
81.4049136622540175
 30
-0.0000000000000179
 11
54.3578720118441865
 21
81.4049136622540175
 31
-0.0000000000000179
210
0.0000000000000002
220
1.0
230
-0.0000000000000002
  0
LINE
  5
354B
  8
0
  6
AUSGEZOGEN
 62
     3
 10
63.326082211857468
 20
79.9049136622540175
 30
-0.0000000000000176
 11
54.3578720118441794
 21
79.9049136622540175
 31
-0.0000000000000176
210
0.0000000000000002
220
1.0
230
-0.0000000000000002
  0
LINE
  5
354C
  8
0
  6
AUSGEZOGEN
 62
     3
 10
63.3260822118574822
 20
81.4049136622540175
 30
-0.0000000000000179
 11
64.0409532329802147
 21
81.4049136622540175
 31
-0.0000000000000181
210
0.0000000000000002
220
1.0
230
-0.0000000000000002
  0
LINE
  5
354D
  8
0
  6
AUSGEZOGEN
 62
     3
 10
63.326082211857468
 20
79.9049136622540175
 30
-0.0000000000000176
 11
64.0409532329802147
 21
79.9049136622540175
 31
-0.0000000000000178
210
0.0000000000000002
220
1.0
230
-0.0000000000000002
  0
LINE
  5
354E
  8
0
  6
AUSGEZOGEN
 62
     3
 10
64.0409532329802147
 20
81.4049136622540175
 30
-0.0000000000000181
 11
66.823138056763824
 21
81.4049136622540175
 31
-0.0000000000000187
210
0.0000000000000002
220
1.0
230
-0.0000000000000002
  0
LINE
  5
354F
  8
0
  6
AUSGEZOGEN
 62
     3
 10
64.0409532329802147
 20
79.9049136622540175
 30
-0.0000000000000178
 11
66.823138056763824
 21
79.9049136622540175
 31
-0.0000000000000184
210
0.0000000000000002
220
1.0
230
-0.0000000000000002
  0
LINE
  5
3550
  8
0
  6
AUSGEZOGEN
 62
     3
 10
66.823138056763824
 20
81.4049136622540175
 30
-0.0000000000000187
 11
66.9139797158554899
 21
81.4049136622540175
 31
-0.0000000000000187
210
0.0000000000000002
220
1.0
230
-0.0000000000000002
  0
LINE
  5
3551
  8
0
  6
AUSGEZOGEN
 62
     3
 10
66.823138056763824
 20
79.9049136622540175
 30
-0.0000000000000184
 11
66.9139797158554899
 21
79.9049136622540175
 31
-0.0000000000000184
210
0.0000000000000002
220
1.0
230
-0.0000000000000002
  0
LINE
  5
3552
  8
0
  6
AUSGEZOGEN
 62
     3
 10
71.5263259846059469
 20
81.4049136622540175
 30
-0.000000000000018
 11
66.9139797158554899
 21
81.4049136622540175
 31
-0.0000000000000178
210
0.0000000000000002
220
1.0
230
-0.0000000000000002
  0
LINE
  5
3553
  8
0
  6
AUSGEZOGEN
 62
     3
 10
71.5263259846059469
 20
79.9049136622540175
 30
-0.0000000000000176
 11
66.9139797158554899
 21
79.9049136622540175
 31
-0.0000000000000175
210
0.0000000000000002
220
1.0
230
-0.0000000000000002
  0
LINE
  5
3554
  8
0
  6
AUSGEZOGEN
 62
     3
 10
71.5263259846059327
 20
81.4049136622540175
 30
-0.000000000000018
 11
72.0526435605197122
 21
81.4049136622540175
 31
-0.0000000000000181
210
0.0000000000000002
220
1.0
230
-0.0000000000000002
  0
LINE
  5
3555
  8
0
  6
AUSGEZOGEN
 62
     3
 10
71.5263259846059327
 20
79.9049136622540175
 30
-0.0000000000000176
 11
72.0526435605197122
 21
79.9049136622540175
 31
-0.0000000000000178
210
0.0000000000000002
220
1.0
230
-0.0000000000000002
  0
LINE
  5
3556
  8
0
  6
AUSGEZOGEN
 62
     3
 10
72.0526435605197548
 20
81.4049136622540175
 30
-0.0000000000000181
 11
73.0113191160684352
 21
81.4049136622540175
 31
-0.0000000000000183
210
0.0000000000000002
220
1.0
230
-0.0000000000000002
  0
LINE
  5
3557
  8
0
  6
AUSGEZOGEN
 62
     3
 10
72.0526435605197548
 20
79.9049136622540175
 30
-0.0000000000000178
 11
73.0113191160684352
 21
79.9049136622540175
 31
-0.000000000000018
210
0.0000000000000002
220
1.0
230
-0.0000000000000002
  0
LINE
  5
3558
  8
0
  6
AUSGEZOGEN
 62
     3
 10
73.0113191160684352
 20
81.4049136622540175
 30
-0.0000000000000183
 11
73.0179678355776929
 21
81.4049136622540175
 31
-0.0000000000000183
210
0.0000000000000002
220
1.0
230
-0.0000000000000002
  0
LINE
  5
3559
  8
0
  6
AUSGEZOGEN
 62
     3
 10
73.0113191160684352
 20
79.9049136622540175
 30
-0.000000000000018
 11
73.0179678355776929
 21
79.9049136622540175
 31
-0.000000000000018
210
0.0000000000000002
220
1.0
230
-0.0000000000000002
  0
LINE
  5
355A
  8
0
  6
AUSGEZOGEN
 62
     3
 10
-73.0179678355774371
 20
81.4049136622540459
 30
-0.0000000000000178
 11
-73.0113191160681794
 21
81.4049136622540459
 31
-0.0000000000000179
210
0.0000000000000002
220
1.0
230
-0.0000000000000002
  0
LINE
  5
355B
  8
0
  6
AUSGEZOGEN
 62
     3
 10
-73.0179678355774371
 20
79.9049136622540459
 30
-0.0000000000000175
 11
-73.0113191160681794
 21
79.9049136622540459
 31
-0.0000000000000175
210
0.0000000000000002
220
1.0
230
-0.0000000000000002
  0
LINE
  5
355C
  8
0
  6
AUSGEZOGEN
 62
     3
 10
-73.0113191160681225
 20
81.4049136622540459
 30
-0.0000000000000179
 11
-72.052643560519499
 21
81.4049136622540459
 31
-0.0000000000000181
210
0.0000000000000002
220
1.0
230
-0.0000000000000002
  0
LINE
  5
355D
  8
0
  6
AUSGEZOGEN
 62
     3
 10
-73.0113191160681225
 20
79.9049136622540459
 30
-0.0000000000000175
 11
-72.052643560519499
 21
79.9049136622540459
 31
-0.0000000000000177
210
0.0000000000000002
220
1.0
230
-0.0000000000000002
  0
LINE
  5
355E
  8
0
  6
AUSGEZOGEN
 62
     3
 10
-72.052643560519499
 20
81.4049136622540459
 30
-0.0000000000000181
 11
-71.5263259846056911
 21
81.4049136622540459
 31
-0.0000000000000182
210
0.0000000000000002
220
1.0
230
-0.0000000000000002
  0
LINE
  5
355F
  8
0
  6
AUSGEZOGEN
 62
     3
 10
-72.052643560519499
 20
79.9049136622540459
 30
-0.0000000000000177
 11
-71.5263259846056911
 21
79.9049136622540459
 31
-0.0000000000000178
210
0.0000000000000002
220
1.0
230
-0.0000000000000002
  0
LINE
  5
3560
  8
0
  6
AUSGEZOGEN
 62
     3
 10
-66.9139797158552341
 20
81.4049136622540459
 30
-0.0000000000000174
 11
-71.5263259846056911
 21
81.4049136622540459
 31
-0.0000000000000173
210
0.0000000000000002
220
1.0
230
-0.0000000000000002
  0
LINE
  5
3561
  8
0
  6
AUSGEZOGEN
 62
     3
 10
-66.9139797158552341
 20
79.9049136622540459
 30
-0.0000000000000171
 11
-71.5263259846056911
 21
79.9049136622540459
 31
-0.000000000000017
210
0.0000000000000002
220
1.0
230
-0.0000000000000002
  0
LINE
  5
3562
  8
0
  6
AUSGEZOGEN
 62
     3
 10
-66.9139797158552341
 20
81.4049136622540459
 30
-0.0000000000000174
 11
-66.8231380567635682
 21
81.4049136622540459
 31
-0.0000000000000174
210
0.0000000000000002
220
1.0
230
-0.0000000000000002
  0
LINE
  5
3563
  8
0
  6
AUSGEZOGEN
 62
     3
 10
-66.9139797158552341
 20
79.9049136622540459
 30
-0.0000000000000171
 11
-66.8231380567635682
 21
79.9049136622540459
 31
-0.0000000000000171
210
0.0000000000000002
220
1.0
230
-0.0000000000000002
  0
LINE
  5
3564
  8
0
  6
AUSGEZOGEN
 62
     3
 10
-66.8231380567635682
 20
81.4049136622540459
 30
-0.0000000000000174
 11
-64.0409532329799447
 21
81.4049136622540459
 31
-0.0000000000000181
210
0.0000000000000002
220
1.0
230
-0.0000000000000002
  0
LINE
  5
3565
  8
0
  6
AUSGEZOGEN
 62
     3
 10
-66.8231380567635682
 20
79.9049136622540459
 30
-0.0000000000000171
 11
-64.0409532329799447
 21
79.9049136622540459
 31
-0.0000000000000177
210
0.0000000000000002
220
1.0
230
-0.0000000000000002
  0
LINE
  5
3566
  8
0
  6
AUSGEZOGEN
 62
     3
 10
-64.0409532329798594
 20
81.4049136622540459
 30
-0.0000000000000181
 11
-63.3260822118572619
 21
81.4049136622540459
 31
-0.0000000000000182
210
0.0000000000000002
220
1.0
230
-0.0000000000000002
  0
LINE
  5
3567
  8
0
  6
AUSGEZOGEN
 62
     3
 10
-64.0409532329798594
 20
79.9049136622540459
 30
-0.0000000000000177
 11
-63.3260822118572619
 21
79.9049136622540459
 31
-0.0000000000000179
210
0.0000000000000002
220
1.0
230
-0.0000000000000002
  0
LINE
  5
3568
  8
0
  6
AUSGEZOGEN
 62
     3
 10
-54.3578720118439591
 20
81.4049136622540459
 30
-0.0000000000000202
 11
-63.3260822118572619
 21
81.4049136622540459
 31
-0.0000000000000202
210
0.0000000000000002
220
1.0
230
-0.0000000000000002
  0
LINE
  5
3569
  8
0
  6
AUSGEZOGEN
 62
     3
 10
-54.3578720118439733
 20
79.9049136622540459
 30
-0.0000000000000199
 11
-63.3260822118572619
 21
79.9049136622540459
 31
-0.0000000000000199
210
0.0000000000000002
220
1.0
230
-0.0000000000000002
  0
LINE
  5
356A
  8
0
  6
AUSGEZOGEN
 62
     3
 10
-54.3578720118439591
 20
81.4049136622540459
 30
-0.0000000000000202
 11
-54.0938426602831584
 21
81.4049136622540459
 31
-0.0000000000000203
210
0.0000000000000002
220
1.0
230
-0.0000000000000002
  0
LINE
  5
356B
  8
0
  6
AUSGEZOGEN
 62
     3
 10
-54.3578720118439733
 20
79.9049136622540459
 30
-0.0000000000000199
 11
-54.0938426602831726
 21
79.9049136622540459
 31
-0.0000000000000199
210
0.0000000000000002
220
1.0
230
-0.0000000000000002
  0
LINE
  5
356C
  8
0
  6
AUSGEZOGEN
 62
     3
 10
-54.0938426602831726
 20
81.4049136622540459
 30
-0.0000000000000203
 11
-49.7604882034381291
 21
81.4049136622540459
 31
-0.0000000000000212
210
0.0000000000000002
220
1.0
230
-0.0000000000000002
  0
LINE
  5
356D
  8
0
  6
AUSGEZOGEN
 62
     3
 10
-54.0938426602831797
 20
79.9049136622540459
 30
-0.0000000000000199
 11
-49.7604882034381433
 21
79.9049136622540459
 31
-0.0000000000000209
210
0.0000000000000002
220
1.0
230
-0.0000000000000002
  0
LINE
  5
356E
  8
0
  6
AUSGEZOGEN
 62
     3
 10
-49.7604882034381433
 20
81.4049136622540459
 30
-0.0000000000000212
 11
-48.9270402934531816
 21
81.4049136622540459
 31
-0.0000000000000214
210
0.0000000000000002
220
1.0
230
-0.0000000000000002
  0
LINE
  5
356F
  8
0
  6
AUSGEZOGEN
 62
     3
 10
-49.7604882034381504
 20
79.9049136622540459
 30
-0.0000000000000209
 11
-48.9270402934531887
 21
79.9049136622540459
 31
-0.0000000000000211
210
0.0000000000000002
220
1.0
230
-0.0000000000000002
  0
LINE
  5
3570
  8
0
  6
AUSGEZOGEN
 62
     3
 10
-39.2441537424896012
 20
81.4049136622540459
 30
-0.0000000000000165
 11
-48.9270402934531816
 21
81.4049136622540459
 31
-0.0000000000000165
210
0.0000000000000002
220
1.0
230
-0.0000000000000002
  0
LINE
  5
3571
  8
0
  6
AUSGEZOGEN
 62
     3
 10
-39.2441537424896012
 20
79.9049136622540459
 30
-0.0000000000000161
 11
-48.9270402934531887
 21
79.9049136622540459
 31
-0.0000000000000162
210
0.0000000000000002
220
1.0
230
-0.0000000000000002
  0
LINE
  5
3572
  8
0
  6
AUSGEZOGEN
 62
     3
 10
-38.1000309368542602
 20
81.4049136622540459
 30
-0.0000000000000167
 11
-39.244153742489587
 21
81.4049136622540459
 31
-0.0000000000000165
210
0.0000000000000002
220
1.0
230
-0.0000000000000002
  0
LINE
  5
3573
  8
0
  6
AUSGEZOGEN
 62
     3
 10
-38.1000309368542673
 20
79.9049136622540459
 30
-0.0000000000000164
 11
-39.2441537424896012
 21
79.9049136622540459
 31
-0.0000000000000161
210
0.0000000000000002
220
1.0
230
-0.0000000000000002
  0
LINE
  5
3574
  8
0
  6
AUSGEZOGEN
 62
     3
 10
-36.5664123697537988
 20
81.4049136622540459
 30
-0.0000000000000171
 11
-38.1000309368542602
 21
81.4049136622540459
 31
-0.0000000000000167
210
0.0000000000000002
220
1.0
230
-0.0000000000000002
  0
LINE
  5
3575
  8
0
  6
AUSGEZOGEN
 62
     3
 10
-36.566412369753813
 20
79.9049136622540459
 30
-0.0000000000000167
 11
-38.1000309368542673
 21
79.9049136622540459
 31
-0.0000000000000164
210
0.0000000000000002
220
1.0
230
-0.0000000000000002
  0
LINE
  5
3576
  8
0
  6
AUSGEZOGEN
 62
     3
 10
-36.566412369753813
 20
81.4049136622540459
 30
-0.0000000000000171
 11
-36.0694650502506065
 21
81.4049136622540459
 31
-0.0000000000000243
210
0.0000000000000002
220
1.0
230
-0.0000000000000002
  0
LINE
  5
3577
  8
0
  6
AUSGEZOGEN
 62
     3
 10
-36.5664123697538201
 20
79.9049136622540459
 30
-0.0000000000000167
 11
-36.0694650502506065
 21
79.9049136622540459
 31
-0.0000000000000239
210
0.0000000000000002
220
1.0
230
-0.0000000000000002
  0
LINE
  5
3578
  8
0
  6
AUSGEZOGEN
 62
     3
 10
-36.0694650502506065
 20
81.4049136622540601
 30
-0.0000000000000243
 11
-30.6091198868358205
 21
81.4049136622540459
 31
-0.0000000000000113
210
0.0000000000000002
220
1.0
230
-0.0000000000000002
  0
LINE
  5
3579
  8
0
  6
AUSGEZOGEN
 62
     3
 10
-36.0694650502506065
 20
79.9049136622540601
 30
-0.0000000000000239
 11
-30.6091198868358205
 21
79.9049136622540459
 31
-0.0000000000000109
210
0.0000000000000002
220
1.0
230
-0.0000000000000002
  0
LINE
  5
357A
  8
0
  6
AUSGEZOGEN
 62
     3
 10
-30.6091198868358205
 20
81.4049136622540175
 30
-0.0000000000000113
 11
-29.7386787763910192
 21
81.4049136622540175
 31
-0.0000000000000115
210
0.0000000000000002
220
1.0
230
-0.0000000000000002
  0
LINE
  5
357B
  8
0
  6
AUSGEZOGEN
 62
     3
 10
-30.6091198868358205
 20
79.9049136622540317
 30
-0.0000000000000109
 11
-29.7386787763910192
 21
79.9049136622540317
 31
-0.0000000000000111
210
0.0000000000000002
220
1.0
230
-0.0000000000000002
  0
LINE
  5
357C
  8
0
  6
AUSGEZOGEN
 62
     3
 10
-21.0036206256734985
 20
81.4049136622540175
 30
-0.0000000000000205
 11
-29.7386787763910192
 21
81.4049136622540175
 31
-0.0000000000000204
210
0.0000000000000002
220
1.0
230
-0.0000000000000002
  0
LINE
  5
357D
  8
0
  6
AUSGEZOGEN
 62
     3
 10
-21.0036206256734985
 20
79.9049136622540317
 30
-0.0000000000000202
 11
-29.7386787763910192
 21
79.9049136622540317
 31
-0.00000000000002
210
0.0000000000000002
220
1.0
230
-0.0000000000000002
  0
LINE
  5
357E
  8
0
  6
AUSGEZOGEN
 62
     3
 10
-19.6586236017455711
 20
81.4049136622540175
 30
-0.0000000000000208
 11
-21.0036206256735092
 21
81.4049136622540175
 31
-0.0000000000000205
210
0.0000000000000002
220
1.0
230
-0.0000000000000002
  0
LINE
  5
357F
  8
0
  6
AUSGEZOGEN
 62
     3
 10
-19.6586236017455711
 20
79.9049136622540317
 30
-0.0000000000000205
 11
-21.0036206256735092
 21
79.9049136622540317
 31
-0.0000000000000202
210
0.0000000000000002
220
1.0
230
-0.0000000000000002
  0
LINE
  5
3580
  8
0
  6
AUSGEZOGEN
 62
     3
 10
-15.2078891711410797
 20
81.4049136622540175
 30
-0.0000000000000147
 11
-19.6586236017455711
 21
81.4049136622540175
 31
-0.0000000000000155
210
0.0000000000000002
220
1.0
230
-0.0000000000000002
  0
LINE
  5
3581
  8
0
  6
AUSGEZOGEN
 62
     3
 10
-15.2078891711410797
 20
79.9049136622540317
 30
-0.0000000000000144
 11
-19.6586236017455711
 21
79.9049136622540317
 31
-0.0000000000000152
210
0.0000000000000002
220
1.0
230
-0.0000000000000002
  0
LINE
  5
3582
  8
0
  6
AUSGEZOGEN
 62
     3
 10
-15.2078891711410709
 20
81.4049136622540175
 30
-0.0000000000000147
 11
-14.5143568903589699
 21
81.4049136622540175
 31
-0.0000000000000149
210
0.0000000000000002
220
1.0
230
-0.0000000000000002
  0
LINE
  5
3583
  8
0
  6
AUSGEZOGEN
 62
     3
 10
-15.2078891711410709
 20
79.9049136622540317
 30
-0.0000000000000144
 11
-14.5143568903589699
 21
79.9049136622540317
 31
-0.0000000000000145
210
0.0000000000000002
220
1.0
230
-0.0000000000000002
  0
LINE
  5
3584
  8
0
  6
AUSGEZOGEN
 62
     3
 10
-14.5143568903589699
 20
81.4049136622540459
 30
-0.0000000000000149
 11
-8.4615176494315492
 21
81.4049136622540459
 31
-0.0000000000000162
210
0.0000000000000002
220
1.0
230
-0.0000000000000002
  0
LINE
  5
3585
  8
0
  6
AUSGEZOGEN
 62
     3
 10
-14.5143568903589699
 20
79.9049136622540459
 30
-0.0000000000000145
 11
-8.4615176494315492
 21
79.9049136622540459
 31
-0.0000000000000159
210
0.0000000000000002
220
1.0
230
-0.0000000000000002
  0
LINE
  5
3586
  8
0
  6
AUSGEZOGEN
 62
     3
 10
-8.4615176494315492
 20
81.4049136622540175
 30
-0.0000000000000162
 11
-7.6392881791370773
 21
81.4049136622540175
 31
-0.0000000000000164
210
0.0000000000000002
220
1.0
230
-0.0000000000000002
  0
LINE
  5
3587
  8
0
  6
AUSGEZOGEN
 62
     3
 10
-8.4615176494315492
 20
79.9049136622540317
 30
-0.0000000000000159
 11
-7.6392881791370773
 21
79.9049136622540317
 31
-0.000000000000016
210
0.0000000000000002
220
1.0
230
-0.0000000000000002
  0
LINE
  5
3588
  8
0
  6
AUSGEZOGEN
 62
     3
 10
-0.7071067811864638
 20
81.4049136622540175
 30
-0.0000000000000179
 11
-7.6392881791370773
 21
81.4049136622540175
 31
-0.0000000000000182
210
0.0000000000000002
220
1.0
230
-0.0000000000000002
  0
LINE
  5
3589
  8
0
  6
AUSGEZOGEN
 62
     3
 10
-0.707106781186464
 20
79.9049136622540317
 30
-0.0000000000000176
 11
-7.6392881791370773
 21
79.9049136622540317
 31
-0.0000000000000178
210
0.0000000000000002
220
1.0
230
-0.0000000000000002
  0
LINE
  5
358A
  8
0
  6
AUSGEZOGEN
 62
     3
 10
0.7071067811866429
 20
81.4049136622540175
 30
-0.0000000000000182
 11
-0.7071067811864638
 21
81.4049136622540175
 31
-0.0000000000000179
210
0.0000000000000002
220
1.0
230
-0.0000000000000002
  0
LINE
  5
358B
  8
0
  6
AUSGEZOGEN
 62
     3
 10
0.7071067811866425
 20
79.9049136622540317
 30
-0.0000000000000179
 11
-0.707106781186464
 21
79.9049136622540317
 31
-0.0000000000000176
210
0.0000000000000002
220
1.0
230
-0.0000000000000002
  0
LINE
  5
358C
  8
0
  6
AUSGEZOGEN
 62
     3
 10
7.6392881791373153
 20
81.4049136622540175
 30
-0.0000000000000198
 11
0.7071067811866424
 21
81.4049136622540175
 31
-0.00000000000002
210
0.0000000000000002
220
1.0
230
-0.0000000000000002
  0
LINE
  5
358D
  8
0
  6
AUSGEZOGEN
 62
     3
 10
7.6392881791373153
 20
79.9049136622540317
 30
-0.0000000000000194
 11
0.7071067811866421
 21
79.9049136622540317
 31
-0.0000000000000197
210
0.0000000000000002
220
1.0
230
-0.0000000000000002
  0
LINE
  5
358E
  8
0
  6
AUSGEZOGEN
 62
     3
 10
7.6392881791373091
 20
81.4049136622540175
 30
-0.0000000000000198
 11
8.4615176494317872
 21
81.4049136622540175
 31
-0.00000000000002
210
0.0000000000000002
220
1.0
230
-0.0000000000000002
  0
LINE
  5
358F
  8
0
  6
AUSGEZOGEN
 62
     3
 10
7.6392881791373091
 20
79.9049136622540317
 30
-0.0000000000000194
 11
8.4615176494317872
 21
79.9049136622540317
 31
-0.0000000000000196
210
0.0000000000000002
220
1.0
230
-0.0000000000000002
  0
LINE
  5
3590
  8
0
  6
AUSGEZOGEN
 62
     3
 10
8.4615176494317872
 20
81.4049136622540459
 30
-0.00000000000002
 11
14.5143568903592097
 21
81.4049136622540459
 31
-0.0000000000000213
210
0.0000000000000002
220
1.0
230
-0.0000000000000002
  0
LINE
  5
3591
  8
0
  6
AUSGEZOGEN
 62
     3
 10
8.4615176494317872
 20
79.9049136622540459
 30
-0.0000000000000196
 11
14.5143568903592097
 21
79.9049136622540459
 31
-0.000000000000021
210
0.0000000000000002
220
1.0
230
-0.0000000000000002
  0
LINE
  5
3592
  8
0
  6
AUSGEZOGEN
 62
     3
 10
14.5143568903592097
 20
81.4049136622540175
 30
-0.0000000000000213
 11
15.2078891711413799
 21
81.4049136622540175
 31
-0.0000000000000215
210
0.0000000000000002
220
1.0
230
-0.0000000000000002
  0
LINE
  5
3593
  8
0
  6
AUSGEZOGEN
 62
     3
 10
14.5143568903592097
 20
79.9049136622540317
 30
-0.000000000000021
 11
15.2078891711413799
 21
79.9049136622540317
 31
-0.0000000000000211
210
0.0000000000000002
220
1.0
230
-0.0000000000000002
  0
LINE
  5
3594
  8
0
  6
AUSGEZOGEN
 62
     3
 10
19.6586236017457487
 20
81.4049136622540175
 30
-0.0000000000000153
 11
15.2078891711413799
 21
81.4049136622540175
 31
-0.0000000000000161
210
0.0000000000000002
220
1.0
230
-0.0000000000000002
  0
LINE
  5
3595
  8
0
  6
AUSGEZOGEN
 62
     3
 10
19.6586236017457487
 20
79.9049136622540317
 30
-0.000000000000015
 11
15.2078891711413799
 21
79.9049136622540317
 31
-0.0000000000000158
210
0.0000000000000002
220
1.0
230
-0.0000000000000002
  0
LINE
  5
3596
  8
0
  6
AUSGEZOGEN
 62
     3
 10
21.0036206256736797
 20
81.4049136622540175
 30
-0.0000000000000156
 11
19.6586236017458695
 21
81.4049136622540175
 31
-0.0000000000000153
210
0.0000000000000002
220
1.0
230
-0.0000000000000002
  0
LINE
  5
3597
  8
0
  6
AUSGEZOGEN
 62
     3
 10
21.0036206256736797
 20
79.9049136622540317
 30
-0.0000000000000153
 11
19.6586236017458695
 21
79.9049136622540317
 31
-0.000000000000015
210
0.0000000000000002
220
1.0
230
-0.0000000000000002
  0
LINE
  5
3598
  8
0
  6
AUSGEZOGEN
 62
     3
 10
54.3578720118441723
 20
81.4049136622540175
 30
-0.0000000000000159
 11
54.3578720118441723
 21
79.9049136622540175
 31
-0.0000000000000156
210
0.0000000000000002
220
1.0
230
-0.0000000000000002
  0
LINE
  5
3599
  8
0
  6
AUSGEZOGEN
 62
     3
 10
66.9139797158555041
 20
81.4049136622540175
 30
-0.0000000000000187
 11
66.9139797158555041
 21
79.9049136622540175
 31
-0.0000000000000184
210
0.0000000000000002
220
1.0
230
-0.0000000000000002
  0
LINE
  5
359A
  8
0
  6
AUSGEZOGEN
 62
     3
 10
73.0179678355776929
 20
81.4049136622540175
 30
-0.0000000000000183
 11
73.0179678355776929
 21
79.9049136622540175
 31
-0.000000000000018
210
0.0000000000000002
220
1.0
230
-0.0000000000000002
  0
LINE
  5
359B
  8
0
  6
AUSGEZOGEN
 62
     3
 10
-73.0179678355774371
 20
81.4049136622540459
 30
-0.0000000000000178
 11
-73.0179678355774371
 21
79.9049136622540459
 31
-0.0000000000000175
210
0.0000000000000002
220
1.0
230
-0.0000000000000002
  0
LINE
  5
359C
  8
0
  6
AUSGEZOGEN
 62
     3
 10
-66.9139797158552483
 20
81.4049136622540459
 30
-0.0000000000000174
 11
-66.9139797158552483
 21
79.9049136622540459
 31
-0.0000000000000171
210
0.0000000000000002
220
1.0
230
-0.0000000000000002
  0
LINE
  5
359D
  8
0
  6
AUSGEZOGEN
 62
     3
 10
-54.3578720118439591
 20
81.4049136622540459
 30
-0.0000000000000202
 11
-54.3578720118439733
 21
79.9049136622540459
 31
-0.0000000000000199
210
0.0000000000000002
220
1.0
230
-0.0000000000000002
  0
LINE
  5
359E
  8
0
  6
VERDECKT
 62
     1
 10
-57.8686291501016825
 20
99.9999999999998721
 30
-0.0000000000000222
 11
57.8686291501014907
 21
99.9999999999998437
 31
-0.0000000000000222
210
0.0000000000000002
220
1.0
230
-0.0000000000000002
  0
LINE
  5
359F
  8
0
  6
VERDECKT
 62
     1
 10
-59.0000000000000924
 20
98.868629150101512
 30
-0.000000000000022
 11
58.9999999999999076
 21
98.8686291501014836
 31
-0.000000000000022
210
0.0000000000000002
220
1.0
230
-0.0000000000000002
  0
LINE
  5
35A0
  8
0
  6
VERDECKT
 62
     1
 10
-35.8875793553185076
 20
1.999999999999923
 30
-0.0000000000000004
 11
35.8875793553182802
 21
1.999999999999907
 31
-0.0000000000000004
210
0.0000000000000002
220
1.0
230
-0.0000000000000002
  0
LINE
  5
35A1
  8
0
  6
VERDECKT
 62
     1
 10
-34.2814676152491415
 20
1.9999999999999161
 30
-0.0000000000000004
 11
-34.9000000000000412
 21
9.0698575086539446
 31
-0.000000000000002
210
0.0000000000000002
220
1.0
230
-0.0000000000000002
  0
LINE
  5
35A2
  8
0
  6
VERDECKT
 62
     1
 10
34.2814676152489071
 20
1.999999999999901
 30
-0.0000000000000004
 11
34.8999999999998067
 21
9.0698575086539304
 31
-0.000000000000002
210
0.0000000000000002
220
1.0
230
-0.0000000000000002
  0
LINE
  5
35A3
  8
0
  6
VERDECKT
 62
     1
 10
34.8999999999997712
 20
71.3980664016244191
 30
-0.0000000000000159
 11
34.8999999999997499
 21
9.0698575086539321
 31
-0.000000000000002
210
0.0000000000000002
220
1.0
230
-0.0000000000000002
  0
LINE
  5
35A4
  8
0
  6
VERDECKT
 62
     1
 10
-34.8999999999999702
 20
71.3980664016244333
 30
-0.0000000000000159
 11
-34.8999999999999773
 21
9.0698575086539481
 31
-0.000000000000002
210
0.0000000000000002
220
1.0
230
-0.0000000000000002
  0
ARC
  5
35A5
  8
0
  6
VERDECKT
 62
     1
 10
48.4999999999991971
 20
71.3980664016247886
 30
0.0
 40
13.5999999999991399
210
0.0
220
-0.0000000000000002
230
-1.0
 50
134.9999999999982947
 51
180.0000000000013927
  0
ARC
  5
35A6
  8
0
  6
VERDECKT
 62
     1
 10
-48.4999999999990123
 20
71.3980664016247601
 30
0.0
 40
13.5999999999991399
210
0.0
220
-0.0000000000000002
230
-1.0
 50
359.9999999999985789
 51
45.0000000000016627
  0
LINE
  5
35A7
  8
0
  6
VERDECKT
 62
     1
 10
-38.8833477758630508
 20
81.0147186257614891
 30
-0.000000000000018
 11
-57.8686291501016896
 21
99.9999999999998437
 31
-0.0000000000000222
210
0.0000000000000002
220
1.0
230
-0.0000000000000002
  0
LINE
  5
35A8
  8
0
  6
VERDECKT
 62
     1
 10
38.8833477758628732
 20
81.0147186257614464
 30
-0.000000000000018
 11
57.8686291501014978
 21
99.9999999999998437
 31
-0.0000000000000222
210
0.0000000000000002
220
1.0
230
-0.0000000000000002
  0
LINE
  5
35A9
  8
0
  6
VERDECKT
 62
     1
 10
57.8686291501015404
 20
99.9999999999998863
 30
-0.0000000000000222
 11
58.9999999999999503
 21
98.8686291501015262
 31
-0.000000000000022
210
0.0000000000000002
220
1.0
230
-0.0000000000000002
  0
LINE
  5
35AA
  8
0
  6
VERDECKT
 62
     1
 10
-57.8686291501017109
 20
99.9999999999999147
 30
-0.0000000000000222
 11
-59.0000000000001279
 21
98.8686291501015546
 31
-0.000000000000022
210
0.0000000000000002
220
1.0
230
-0.0000000000000002
  0
LINE
  5
35AB
  8
0
  6
VERDECKT
 62
     1
 10
-40.0147186257614678
 20
79.8833477758627737
 30
-0.0000000000000177
 11
-59.0000000000001066
 21
98.8686291501014978
 31
-0.000000000000022
210
0.0000000000000002
220
1.0
230
-0.0000000000000002
  0
LINE
  5
35AC
  8
0
  6
VERDECKT
 62
     1
 10
40.0147186257612688
 20
79.8833477758627595
 30
-0.0000000000000177
 11
58.9999999999999218
 21
98.8686291501014836
 31
-0.000000000000022
210
0.0000000000000002
220
1.0
230
-0.0000000000000002
  0
ARC
  5
35AD
  8
0
  6
VERDECKT
 62
     1
 10
48.4999999999999432
 20
71.3980664016243622
 30
0.0
 40
11.9999999999998295
210
0.0
220
-0.0000000000000002
230
-1.0
 50
135.0000000000001137
 51
180.0000000000003979
  0
ARC
  5
35AE
  8
0
  6
VERDECKT
 62
     1
 10
-48.4999999999997229
 20
71.3980664016243196
 30
0.0
 40
11.9999999999998295
210
0.0
220
-0.0000000000000002
230
-1.0
 50
359.9999999999996021
 51
44.9999999999999218
  0
LINE
  5
35AF
  8
0
  6
VERDECKT
 62
     1
 10
36.4999999999999005
 20
71.3980664016242486
 30
-0.0000000000000159
 11
36.4999999999998934
 21
9.0000000000002771
 31
-0.000000000000002
210
0.0000000000000002
220
1.0
230
-0.0000000000000002
  0
LINE
  5
35B0
  8
0
  6
VERDECKT
 62
     1
 10
-36.5000000000000995
 20
71.398066401624277
 30
-0.0000000000000159
 11
-36.5000000000001066
 21
9.0000000000002949
 31
-0.000000000000002
210
0.0000000000000002
220
1.0
230
-0.0000000000000002
  0
LINE
  5
35B1
  8
0
  6
VERDECKT
 62
     1
 10
-35.8875793553185076
 20
1.9999999999999221
 30
-0.0000000000000004
 11
-36.5000000000001066
 21
9.0000000000002949
 31
-0.000000000000002
210
0.0000000000000002
220
1.0
230
-0.0000000000000002
  0
LINE
  5
35B2
  8
0
  6
VERDECKT
 62
     1
 10
35.8875793553182802
 20
1.9999999999999061
 30
-0.0000000000000004
 11
36.4999999999998934
 21
9.0000000000002771
 31
-0.000000000000002
210
0.0000000000000002
220
1.0
230
-0.0000000000000002
  0
LINE
  5
35B3
  8
0
  6
VERDECKT
 62
     1
 10
-15.2315462117282507
 20
152.0
 30
-0.0000000000000304
 11
-15.2315462117282507
 21
145.0
 31
-0.0000000000000288
210
0.0000000000000002
220
1.0
230
-0.0000000000000002
  0
LINE
  5
35B4
  8
0
  6
VERDECKT
 62
     1
 10
15.2315462117281104
 20
145.0
 30
-0.0000000000000356
 11
15.2315462117281193
 21
152.0
 31
-0.0000000000000371
210
0.0000000000000002
220
1.0
230
-0.0000000000000002
  0
LINE
  5
35B5
  8
0
  6
VERDECKT
 62
     1
 10
58.9999999999999218
 20
145.0
 30
-0.0000000000000322
 11
56.9999999999999218
 21
145.0
 31
-0.0000000000000324
210
0.0000000000000002
220
1.0
230
-0.0000000000000002
  0
LINE
  5
35B6
  8
0
  6
VERDECKT
 62
     1
 10
56.9999999999999218
 20
152.0
 30
-0.000000000000034
 11
56.9999999999999218
 21
145.0
 31
-0.0000000000000324
210
0.0000000000000002
220
1.0
230
-0.0000000000000002
  0
LINE
  5
35B7
  8
0
  6
VERDECKT
 62
     1
 10
56.9999999999999218
 20
152.0
 30
-0.000000000000034
 11
58.9999999999999218
 21
152.0
 31
-0.0000000000000338
210
0.0000000000000002
220
1.0
230
-0.0000000000000002
  0
LINE
  5
35B8
  8
0
  6
VERDECKT
 62
     1
 10
-57.0000000000000782
 20
145.0
 30
-0.000000000000032
 11
-59.0000000000000782
 21
145.0
 31
-0.0000000000000322
210
0.0000000000000002
220
1.0
230
-0.0000000000000002
  0
LINE
  5
35B9
  8
0
  6
VERDECKT
 62
     1
 10
-57.0000000000000782
 20
145.0
 30
-0.000000000000032
 11
-57.0000000000000782
 21
152.0
 31
-0.0000000000000335
210
0.0000000000000002
220
1.0
230
-0.0000000000000002
  0
LINE
  5
35BA
  8
0
  6
VERDECKT
 62
     1
 10
-59.0000000000000924
 20
152.0
 30
-0.0000000000000338
 11
-57.0000000000000924
 21
152.0
 31
-0.0000000000000335
210
0.0000000000000002
220
1.0
230
-0.0000000000000002
  0
LINE
  5
35BB
  8
0
  6
VERDECKT
 62
     1
 10
61.9999999999999929
 20
12.5314222700816593
 30
-0.0000000000000028
 11
62.0000000000000071
 21
0.0000000000000289
 31
0.0
210
0.0000000000000002
220
1.0
230
-0.0000000000000002
  0
LINE
  5
35BC
  8
0
  6
VERDECKT
 62
     1
 10
-62.0000000000000071
 20
12.53142227008159
 30
-0.0000000000000028
 11
-61.9999999999999929
 21
-0.0000000000000431
 31
0.0
210
0.0000000000000002
220
1.0
230
-0.0000000000000002
  0
ARC
  5
35BD
  8
0
  6
VERDECKT
 62
     1
 10
48.0000000000009024
 20
12.5314222700814497
 30
0.0
 40
13.9999999999990798
210
0.0
220
-0.0000000000000002
230
-1.0
 50
0.0000000000006107
 51
20.0000000000017906
  0
ARC
  5
35BE
  8
0
  6
VERDECKT
 62
     1
 10
-48.0000000000013713
 20
12.5314222700815598
 30
0.0
 40
13.9999999999986198
210
0.0
220
-0.0000000000000002
230
-1.0
 50
159.9999999999976126
 51
179.9999999999994884
  0
LINE
  5
35BF
  8
0
  6
VERDECKT
 62
     1
 10
49.9649180674255504
 20
48.0661158510343185
 30
-0.0000000000000107
 11
61.1556966910026816
 21
17.3197042766410014
 31
-0.0000000000000038
210
0.0000000000000002
220
1.0
230
-0.0000000000000002
  0
LINE
  5
35C0
  8
0
  6
VERDECKT
 62
     1
 10
-49.9649180674255504
 20
48.066115851034283
 30
-0.0000000000000107
 11
-61.1556966910026603
 21
17.3197042766409197
 31
-0.0000000000000038
210
0.0000000000000002
220
1.0
230
-0.0000000000000002
  0
ARC
  5
35C1
  8
0
  6
VERDECKT
 62
     1
 10
65.0000000000025011
 20
53.5384381442455322
 30
0.0
 40
16.0000000000025615
210
0.0
220
-0.0000000000000002
230
-1.0
 50
180.0000000000011084
 51
199.9999999999988916
  0
ARC
  5
35C2
  8
0
  6
VERDECKT
 62
     1
 10
-65.0000000000027143
 20
53.5384381442456174
 30
0.0
 40
16.0000000000027391
210
0.0
220
-0.0000000000000002
230
-1.0
 50
340.00000000000108
 51
359.9999999999985789
  0
LINE
  5
35C3
  8
0
  6
VERDECKT
 62
     1
 10
49.0000000000000213
 20
58.682909365807717
 30
-0.000000000000013
 11
49.0000000000000213
 21
53.5384381442452195
 31
-0.0000000000000119
210
0.0000000000000002
220
1.0
230
-0.0000000000000002
  0
LINE
  5
35C4
  8
0
  6
VERDECKT
 62
     1
 10
-48.9999999999999787
 20
58.6829093658076886
 30
-0.000000000000013
 11
-48.9999999999999787
 21
53.5384381442451911
 31
-0.0000000000000119
210
0.0000000000000002
220
1.0
230
-0.0000000000000002
  0
ARC
  5
35C5
  8
0
  6
VERDECKT
 62
     1
 10
63.0000000000030198
 20
58.6829093658075465
 30
0.0
 40
14.0000000000030802
210
0.0
220
-0.0000000000000002
230
-1.0
 50
160.0000000000009948
 51
179.9999999999994031
  0
ARC
  5
35C6
  8
0
  6
VERDECKT
 62
     1
 10
-63.0000000000030909
 20
58.6829093658075891
 30
0.0
 40
14.0000000000031193
210
0.0
220
-0.0000000000000002
230
-1.0
 50
0.0000000000005725
 51
19.9999999999989697
  0
LINE
  5
35C7
  8
0
  6
VERDECKT
 62
     1
 10
-49.8443033089974108
 20
63.4711913723676915
 30
-0.0000000000000141
 11
-58.1556966910027384
 21
86.3065570136314761
 31
-0.0000000000000192
210
0.0000000000000002
220
1.0
230
-0.0000000000000002
  0
LINE
  5
35C8
  8
0
  6
VERDECKT
 62
     1
 10
49.8443033089974534
 20
63.4711913723677412
 30
-0.0000000000000141
 11
58.1556966910027526
 21
86.3065570136315046
 31
-0.0000000000000192
210
0.0000000000000002
220
1.0
230
-0.0000000000000002
  0
ARC
  5
35C9
  8
0
  6
VERDECKT
 62
     1
 10
44.9999999999992397
 20
91.0948390201913014
 30
0.0
 40
14.00000000000089
210
0.0
220
-0.0000000000000002
230
-1.0
 50
339.9999999999993179
 51
359.9999999999992042
  0
ARC
  5
35CA
  8
0
  6
VERDECKT
 62
     1
 10
-44.9999999999994174
 20
91.0948390201912588
 30
0.0
 40
14.0000000000005294
210
0.0
220
-0.0000000000000002
230
-1.0
 50
180.0000000000003126
 51
200.0000000000007105
  0
LINE
  5
35CB
  8
0
  6
VERDECKT
 62
     1
 10
58.9999999999998792
 20
159.9999999999998863
 30
-0.0000000000000355
 11
58.9999999999998934
 21
152.0000000000001137
 31
-0.0000000000000338
210
0.0000000000000002
220
1.0
230
-0.0000000000000002
  0
LINE
  5
35CC
  8
0
  6
VERDECKT
 62
     1
 10
58.9999999999999005
 20
145.0000000000001137
 30
-0.0000000000000322
 11
58.9999999999999218
 21
91.0948390201911877
 31
-0.0000000000000202
210
0.0000000000000002
220
1.0
230
-0.0000000000000002
  0
LINE
  5
35CD
  8
0
  6
VERDECKT
 62
     1
 10
-59.0000000000001066
 20
159.9999999999998863
 30
-0.0000000000000355
 11
-59.0000000000001066
 21
152.0000000000001137
 31
-0.0000000000000338
210
0.0000000000000002
220
1.0
230
-0.0000000000000002
  0
LINE
  5
35CE
  8
0
  6
VERDECKT
 62
     1
 10
-59.0000000000000995
 20
145.0000000000001137
 30
-0.0000000000000322
 11
-59.0000000000000782
 21
91.0948390201911167
 31
-0.0000000000000202
210
0.0000000000000002
220
1.0
230
-0.0000000000000002
  0
LINE
  5
35CF
  8
0
  6
VERDECKT
 62
     1
 10
-57.9540446567417007
 20
79.9049136622540317
 30
-0.0000000000000177
 11
-58.5000000000000426
 21
81.4049136622540743
 31
-0.0000000000000181
210
0.0000000000000002
220
1.0
230
-0.0000000000000002
  0
LINE
  5
35D0
  8
0
  6
VERDECKT
 62
     1
 10
57.9540446567417007
 20
79.9049136622540175
 30
-0.0000000000000177
 11
58.5000000000000426
 21
81.4049136622540175
 31
-0.0000000000000181
210
0.0000000000000002
220
1.0
230
-0.0000000000000002
  0
LINE
  5
35D1
  8
0
  6
VERDECKT
 62
     1
 10
24.6914264549234801
 20
152.0000000000001137
 30
-0.0000000000000321
 11
17.6914264549234694
 21
147.0000000000001137
 31
-0.0000000000000312
210
0.0000000000000002
220
1.0
230
-0.0000000000000002
  0
LINE
  5
35D2
  8
0
  6
VERDECKT
 62
     1
 10
20.2895026662766185
 20
147.0000000000001137
 30
-0.00000000000003
 11
27.2895026662766185
 21
152.0000000000001137
 31
-0.0000000000000309
210
0.0000000000000002
220
1.0
230
-0.0000000000000002
  0
LINE
  5
35D3
  8
0
  6
VERDECKT
 62
     1
 10
20.2895026662766185
 20
147.0000000000001137
 30
-0.00000000000003
 11
17.6914264549233486
 21
147.0000000000001137
 31
-0.0000000000000301
210
0.0000000000000002
220
1.0
230
-0.0000000000000002
  0
LINE
  5
35D4
  8
0
  6
VERDECKT
 62
     1
 10
17.6914264549233486
 20
147.0000000000001137
 30
-0.0000000000000295
 11
14.1914264549233504
 21
147.000000000000199
 31
-0.0000000000000296
210
0.0000000000000002
220
1.0
230
-0.0000000000000002
  0
LINE
  5
35D5
  8
0
  6
VERDECKT
 62
     1
 10
14.1914264549234694
 20
147.000000000000199
 30
-0.0000000000000322
 11
14.1914264549234606
 21
139.8000000000002956
 31
-0.0000000000000306
210
0.0000000000000002
220
1.0
230
-0.0000000000000002
  0
LINE
  5
35D6
  8
0
  6
VERDECKT
 62
     1
 10
16.7895026662766114
 20
139.8000000000000966
 30
-0.0000000000000312
 11
16.7895026662766114
 21
147.0000000000001137
 31
-0.0000000000000328
210
0.0000000000000002
220
1.0
230
-0.0000000000000002
  0
LINE
  5
35D7
  8
0
  6
VERDECKT
 62
     1
 10
14.1914264549233504
 20
139.8000000000002956
 30
-0.0000000000000306
 11
17.6914264549234694
 21
139.8000000000002956
 31
-0.0000000000000305
210
0.0000000000000002
220
1.0
230
-0.0000000000000002
  0
LINE
  5
35D8
  8
0
  6
VERDECKT
 62
     1
 10
20.2895026662767286
 20
139.8000000000002956
 30
-0.0000000000000284
 11
17.6914264549234694
 21
139.8000000000002956
 31
-0.0000000000000285
210
0.0000000000000002
220
1.0
230
-0.0000000000000002
  0
LINE
  5
35D9
  8
0
  6
VERDECKT
 62
     1
 10
17.6914264549232385
 20
139.8000000000004093
 30
-0.0000000000000279
 11
24.6914264549232385
 21
134.8000000000004093
 31
-0.0000000000000265
210
0.0000000000000002
220
1.0
230
-0.0000000000000002
  0
LINE
  5
35DA
  8
0
  6
VERDECKT
 62
     1
 10
27.2895026662766114
 20
134.8000000000000966
 30
-0.0000000000000289
 11
20.2895026662766185
 21
139.8000000000000966
 31
-0.0000000000000302
210
0.0000000000000002
220
1.0
230
-0.0000000000000002
  0
LINE
  5
35DB
  8
0
  6
VERDECKT
 62
     1
 10
24.6914264549232385
 20
134.8000000000002103
 30
-0.0000000000000283
 11
28.1914264549232385
 21
134.8000000000000966
 31
-0.0000000000000282
210
0.0000000000000002
220
1.0
230
-0.0000000000000002
  0
LINE
  5
35DC
  8
0
  6
VERDECKT
 62
     1
 10
30.7895026662765012
 20
134.8000000000000966
 30
-0.0000000000000297
 11
28.1914264549232385
 21
134.8000000000000966
 31
-0.0000000000000298
210
0.0000000000000002
220
1.0
230
-0.0000000000000002
  0
LINE
  5
35DD
  8
0
  6
VERDECKT
 62
     1
 10
28.1914264549232385
 20
134.8000000000000114
 30
-0.0000000000000291
 11
28.1914264549232492
 21
137.3000000000000114
 31
-0.0000000000000296
210
0.0000000000000002
220
1.0
230
-0.0000000000000002
  0
LINE
  5
35DE
  8
0
  6
VERDECKT
 62
     1
 10
30.7895026662765012
 20
137.3000000000000966
 30
-0.0000000000000302
 11
30.7895026662765012
 21
134.8000000000000966
 31
-0.0000000000000297
210
0.0000000000000002
220
1.0
230
-0.0000000000000002
  0
LINE
  5
35DF
  8
0
  6
VERDECKT
 62
     1
 10
30.7895026662765012
 20
137.3000000000000966
 30
-0.0000000000000302
 11
28.1914264549232492
 21
137.3000000000000966
 31
-0.0000000000000303
210
0.0000000000000002
220
1.0
230
-0.0000000000000002
  0
LINE
  5
35E0
  8
0
  6
VERDECKT
 62
     1
 10
28.1914264549232492
 20
137.3000000000000966
 30
-0.0000000000000296
 11
27.1914264549232492
 21
138.4547005383793987
 31
-0.0000000000000299
210
0.0000000000000002
220
1.0
230
-0.0000000000000002
  0
LINE
  5
35E1
  8
0
  6
VERDECKT
 62
     1
 10
29.7895026662766185
 20
138.4547005383793987
 30
-0.0000000000000303
 11
30.7895026662766185
 21
137.3000000000000966
 31
-0.00000000000003
210
0.0000000000000002
220
1.0
230
-0.0000000000000002
  0
LINE
  5
35E2
  8
0
  6
VERDECKT
 62
     1
 10
29.7895026662766185
 20
138.4547005383793987
 30
-0.0000000000000303
 11
27.1914264549233593
 21
138.4547005383793987
 31
-0.0000000000000303
210
0.0000000000000002
220
1.0
230
-0.0000000000000002
  0
LINE
  5
35E3
  8
0
  6
VERDECKT
 62
     1
 10
27.1914264549232492
 20
138.4547005383793987
 30
-0.0000000000000297
 11
27.1914264549232492
 21
148.3452994616208969
 31
-0.0000000000000319
210
0.0000000000000002
220
1.0
230
-0.0000000000000002
  0
LINE
  5
35E4
  8
0
  6
VERDECKT
 62
     1
 10
29.7895026662766185
 20
148.3452994616208116
 30
-0.0000000000000324
 11
29.7895026662766185
 21
138.4547005383793135
 31
-0.0000000000000303
210
0.0000000000000002
220
1.0
230
-0.0000000000000002
  0
LINE
  5
35E5
  8
0
  6
VERDECKT
 62
     1
 10
29.7895026662766185
 20
148.3452994616208116
 30
-0.0000000000000324
 11
27.1914264549233593
 21
148.3452994616208116
 31
-0.0000000000000325
210
0.0000000000000002
220
1.0
230
-0.0000000000000002
  0
LINE
  5
35E6
  8
0
  6
VERDECKT
 62
     1
 10
27.1914264549232492
 20
148.3452994616208969
 30
-0.0000000000000319
 11
28.1914264549232492
 21
149.500000000000199
 31
-0.0000000000000321
210
0.0000000000000002
220
1.0
230
-0.0000000000000002
  0
LINE
  5
35E7
  8
0
  6
VERDECKT
 62
     1
 10
30.7895026662766185
 20
149.5000000000001137
 30
-0.0000000000000329
 11
29.7895026662766185
 21
148.3452994616208116
 31
-0.0000000000000327
210
0.0000000000000002
220
1.0
230
-0.0000000000000002
  0
LINE
  5
35E8
  8
0
  6
VERDECKT
 62
     1
 10
30.7895026662766185
 20
149.5000000000001137
 30
-0.0000000000000329
 11
28.1914264549233593
 21
149.5000000000001137
 31
-0.000000000000033
210
0.0000000000000002
220
1.0
230
-0.0000000000000002
  0
LINE
  5
35E9
  8
0
  6
VERDECKT
 62
     1
 10
28.1914264549232492
 20
149.500000000000199
 30
-0.0000000000000323
 11
28.1914264549232492
 21
152.000000000000199
 31
-0.0000000000000329
210
0.0000000000000002
220
1.0
230
-0.0000000000000002
  0
LINE
  5
35EA
  8
0
  6
VERDECKT
 62
     1
 10
30.7895026662766185
 20
152.0000000000001137
 30
-0.0000000000000335
 11
30.7895026662766185
 21
149.5000000000001137
 31
-0.0000000000000329
210
0.0000000000000002
220
1.0
230
-0.0000000000000002
  0
LINE
  5
35EB
  8
0
  6
VERDECKT
 62
     1
 10
30.7895026662766185
 20
152.0000000000001137
 30
-0.0000000000000335
 11
28.1914264549233593
 21
152.0000000000001137
 31
-0.0000000000000336
210
0.0000000000000002
220
1.0
230
-0.0000000000000002
  0
LINE
  5
35EC
  8
0
  6
VERDECKT
 62
     1
 10
28.1914264549232492
 20
152.000000000000199
 30
-0.0000000000000329
 11
24.6914264549232492
 21
152.0000000000001137
 31
-0.000000000000033
210
0.0000000000000002
220
1.0
230
-0.0000000000000002
  0
LINE
  5
35ED
  8
0
  6
VERDECKT
 62
     1
 10
58.5000000000001279
 20
81.4049136622540175
 30
-0.0000000000000181
 11
58.5000000000001208
 21
79.9049136622540175
 31
-0.0000000000000177
210
0.0000000000000002
220
1.0
230
-0.0000000000000002
  0
LINE
  5
35EE
  8
0
  6
VERDECKT
 62
     1
 10
-58.4999999999998721
 20
81.4049136622540459
 30
-0.0000000000000181
 11
-58.4999999999998721
 21
79.9049136622540459
 31
-0.0000000000000177
210
0.0000000000000002
220
1.0
230
-0.0000000000000002
  0
LINE
  5
35EF
  8
0
  6
VERDECKT
 62
     1
 10
52.7996301259340868
 20
81.4049136622540175
 30
-0.0000000000000156
 11
52.7996301259340797
 21
79.9049136622540175
 31
-0.0000000000000153
210
0.0000000000000002
220
1.0
230
-0.0000000000000002
  0
LINE
  5
35F0
  8
0
  6
VERDECKT
 62
     1
 10
62.2452583336278735
 20
81.4049136622540175
 30
-0.0000000000000177
 11
62.2452583336278593
 21
79.9049136622540175
 31
-0.0000000000000174
210
0.0000000000000002
220
1.0
230
-0.0000000000000002
  0
LINE
  5
35F1
  8
0
  6
VERDECKT
 62
     1
 10
65.5000000000001137
 20
81.4049136622540175
 30
-0.0000000000000181
 11
65.5000000000001137
 21
79.9049136622540175
 31
-0.0000000000000177
210
0.0000000000000002
220
1.0
230
-0.0000000000000002
  0
LINE
  5
35F2
  8
0
  6
VERDECKT
 62
     1
 10
-65.4999999999998579
 20
81.4049136622540459
 30
-0.0000000000000181
 11
-65.4999999999998579
 21
79.9049136622540459
 31
-0.0000000000000177
210
0.0000000000000002
220
1.0
230
-0.0000000000000002
  0
LINE
  5
35F3
  8
0
  6
VERDECKT
 62
     1
 10
-62.2452583336276319
 20
81.4049136622540459
 30
-0.0000000000000185
 11
-62.245258333627639
 21
79.9049136622540459
 31
-0.0000000000000181
210
0.0000000000000002
220
1.0
230
-0.0000000000000002
  0
LINE
  5
35F4
  8
0
  6
VERDECKT
 62
     1
 10
-52.7996301259339376
 20
81.4049136622540459
 30
-0.0000000000000206
 11
-52.7996301259339518
 21
79.9049136622540459
 31
-0.0000000000000202
210
0.0000000000000002
220
1.0
230
-0.0000000000000002
  0
ENDBLK
  5
35F6
  8
0
  0
BLOCK
  8
0
  2
A$C5FD03CA2
 70
     0
 10
0.0
 20
0.0
 30
0.0
  3
A$C5FD03CA2
  1

  0
ARC
  5
35FA
  8
0
  6
AUSGEZOGEN
 62
     3
 10
-0.0000000000001132
 20
0.0000000000000406
 30
0.0
 40
34.281467615248971
 50
62.5078015214203404
 51
180.0
  0
ARC
  5
35FB
  8
0
  6
AUSGEZOGEN
 62
     3
 10
-0.0000000000002269
 20
0.0000000000000157
 30
0.0
 40
34.2814676152490279
 50
302.5078015214206744
 51
57.4921984785792617
  0
ARC
  5
35FC
  8
0
  6
AUSGEZOGEN
 62
     3
 10
-0.0000000000001132
 20
-0.0000000000000127
 30
0.0
 40
34.2814676152489497
 50
179.9999999999998863
 51
297.4921984785797235
  0
ARC
  5
35FD
  8
0
  6
AUSGEZOGEN
 62
     3
 10
-0.0000000000002115
 20
0.0000000000000768
 30
0.0
 40
34.8999999999997499
 50
62.4633281249749714
 51
180.0
  0
ARC
  5
35FE
  8
0
  6
AUSGEZOGEN
 62
     3
 10
-0.0000000000000978
 20
0.0000000000000146
 30
0.0
 40
34.8999999999998565
 50
302.4633281249753054
 51
57.5366718750247372
  0
ARC
  5
35FF
  8
0
  6
AUSGEZOGEN
 62
     3
 10
-0.0000000000002115
 20
-0.0000000000000475
 30
0.0
 40
34.8999999999998494
 50
179.999999999999801
 51
297.536671875024922
  0
ARC
  5
3600
  8
0
  6
AUSGEZOGEN
 62
     3
 10
-0.0000000000000915
 20
-0.0000000000000032
 30
0.0
 40
57.8686291501015901
 50
99.9398075794208154
 51
170.0601924205784883
  0
ARC
  5
3601
  8
0
  6
AUSGEZOGEN
 62
     3
 10
-0.0000000000002052
 20
-0.000000000000124
 30
0.0
 40
57.8686291501017465
 50
61.4853176498721794
 51
80.0601924205790851
  0
ARC
  5
3602
  8
0
  6
AUSGEZOGEN
 62
     3
 10
-0.0000000000000915
 20
-0.0000000000000032
 30
0.0
 40
57.8686291501015972
 50
9.9398075794215117
 51
58.5146823501278632
  0
ARC
  5
3603
  8
0
  6
AUSGEZOGEN
 62
     3
 10
-0.0000000000005462
 20
0.0000000000002739
 30
0.0
 40
57.8686291501020804
 50
301.4853176498725134
 51
350.0601924205782893
  0
ARC
  5
3604
  8
0
  6
AUSGEZOGEN
 62
     3
 10
-0.0000000000006599
 20
0.0000000000015458
 30
0.0
 40
57.8686291501032031
 50
279.9398075794229044
 51
298.5146823501276003
  0
ARC
  5
3605
  8
0
  6
AUSGEZOGEN
 62
     3
 10
0.0000000000000222
 20
0.0000000000001674
 30
0.0
 40
57.8686291501017465
 50
189.939807579421597
 51
260.0601924205773798
  0
LINE
  5
3606
  8
0
  6
AUSGEZOGEN
 62
     3
 10
-15.2315462117279203
 20
-56.999999999999801
 30
0.0
 11
15.2315462117276503
 21
-56.999999999999801
 31
0.0000000000000068
  0
LINE
  5
3607
  8
0
  6
AUSGEZOGEN
 62
     3
 10
56.9999999999999218
 20
-15.2315462117275295
 30
0.0
 11
56.9999999999999218
 21
15.2315462117280394
 31
0.0
  0
LINE
  5
3608
  8
0
  6
AUSGEZOGEN
 62
     3
 10
-57.0000000000000782
 20
15.2315462117278706
 30
0.0
 11
-57.0000000000000782
 21
-15.2315462117277001
 31
0.0
  0
LINE
  5
3609
  8
0
  6
AUSGEZOGEN
 62
     3
 10
15.2315462117275402
 20
57.0000000000001421
 30
0.0
 11
-15.2315462117280394
 21
57.0000000000001421
 31
-0.0000000000000068
  0
CIRCLE
  5
360A
  8
0
  6
AUSGEZOGEN
 62
     3
 10
-0.0000000000000782
 20
0.0000000000000277
 30
0.0
 40
61.0
  0
CIRCLE
  5
360B
  8
0
  6
AUSGEZOGEN
 62
     3
 10
-0.0000000000000782
 20
0.0000000000000277
 30
0.0
 40
59.0
  0
LINE
  5
360C
  8
0
  6
AUSGEZOGEN
 62
     3
 10
24.6914264549234694
 20
-45.7668051312775432
 30
0.0
 11
17.6914264549234588
 21
-33.6424494782954895
 31
-0.0000000000000018
  0
LINE
  5
360D
  8
0
  6
AUSGEZOGEN
 62
     3
 10
27.2895026662766114
 20
-44.2668051312774793
 30
0.0
 11
24.6914264549233486
 21
-45.7668051312774722
 31
-0.0000000000000006
  0
LINE
  5
360E
  8
0
  6
AUSGEZOGEN
 62
     3
 10
20.2895026662766114
 20
-32.1424494782954966
 30
0.0
 11
27.2895026662766114
 21
-44.2668051312775432
 31
0.0000000000000018
  0
LINE
  5
360F
  8
0
  6
AUSGEZOGEN
 62
     3
 10
20.2895026662766114
 20
-32.1424494782954966
 30
0.0
 11
17.6914264549233486
 21
-33.6424494782954966
 31
-0.0000000000000006
  0
LINE
  5
3610
  8
0
  6
AUSGEZOGEN
 62
     3
 10
17.6914264549233486
 20
-33.6424494782953971
 30
0.0
 11
14.1914264549233504
 21
-27.5802716518043312
 31
-0.0000000000000008
  0
LINE
  5
3611
  8
0
  6
AUSGEZOGEN
 62
     3
 10
16.7895026662766007
 20
-26.0802716518043312
 30
0.0
 11
20.2895026662766114
 21
-32.1424494782953971
 31
0.0000000000000008
  0
LINE
  5
3612
  8
0
  6
AUSGEZOGEN
 62
     3
 10
16.7895026662766007
 20
-26.0802716518043312
 30
0.0
 11
14.1914264549233504
 21
-27.5802716518043312
 31
-0.0000000000000006
  0
LINE
  5
3613
  8
0
  6
AUSGEZOGEN
 62
     3
 10
30.7895026662766114
 20
-50.3289829577684174
 30
0.0
 11
28.1914264549233486
 21
-51.8289829577684102
 31
-0.0000000000000006
  0
LINE
  5
3614
  8
0
  6
AUSGEZOGEN
 62
     3
 10
28.1914264549232385
 20
-51.8289829577684387
 30
0.0
 11
24.6914264549232385
 21
-45.7668051312773585
 31
-0.0000000000000008
  0
LINE
  5
3615
  8
0
  6
AUSGEZOGEN
 62
     3
 10
27.2895026662766114
 20
-44.2668051312774793
 30
0.0
 11
30.7895026662766114
 21
-50.3289829577685524
 31
0.0000000000000008
  0
LINE
  5
3616
  8
0
  6
AUSGEZOGEN
 62
     3
 10
24.6914264549234694
 20
45.7668051312776782
 30
0.0
 11
17.6914264549234588
 21
33.6424494782956316
 31
-0.0000000000000018
  0
LINE
  5
3617
  8
0
  6
AUSGEZOGEN
 62
     3
 10
20.2895026662766114
 20
32.1424494782956316
 30
0.0
 11
17.6914264549233486
 21
33.6424494782956316
 31
-0.0000000000000006
  0
LINE
  5
3618
  8
0
  6
AUSGEZOGEN
 62
     3
 10
20.2895026662766114
 20
32.1424494782956316
 30
0.0
 11
27.2895026662766114
 21
44.2668051312776711
 31
0.0000000000000018
  0
LINE
  5
3619
  8
0
  6
AUSGEZOGEN
 62
     3
 10
27.2895026662766114
 20
44.2668051312775077
 30
0.0
 11
24.6914264549233486
 21
45.7668051312775006
 31
-0.0000000000000006
  0
LINE
  5
361A
  8
0
  6
AUSGEZOGEN
 62
     3
 10
17.6914264549233486
 20
33.6424494782954184
 30
0.0
 11
14.1914264549233504
 21
27.5802716518043489
 31
-0.0000000000000008
  0
LINE
  5
361B
  8
0
  6
AUSGEZOGEN
 62
     3
 10
16.7895026662766007
 20
26.0802716518043489
 30
0.0
 11
14.1914264549233504
 21
27.5802716518043489
 31
-0.0000000000000006
  0
LINE
  5
361C
  8
0
  6
AUSGEZOGEN
 62
     3
 10
16.7895026662766007
 20
26.0802716518043489
 30
0.0
 11
20.2895026662766114
 21
32.1424494782954184
 31
0.0000000000000008
  0
LINE
  5
361D
  8
0
  6
AUSGEZOGEN
 62
     3
 10
30.7895026662766114
 20
50.3289829577685595
 30
0.0
 11
28.1914264549233486
 21
51.8289829577685595
 31
-0.0000000000000006
  0
LINE
  5
361E
  8
0
  6
AUSGEZOGEN
 62
     3
 10
28.1914264549232385
 20
51.8289829577685808
 30
0.0
 11
24.6914264549232385
 21
45.7668051312775006
 31
-0.0000000000000008
  0
LINE
  5
361F
  8
0
  6
AUSGEZOGEN
 62
     3
 10
27.2895026662766114
 20
44.2668051312775077
 30
0.0
 11
30.7895026662766114
 21
50.3289829577685808
 31
0.0000000000000008
  0
LINE
  5
3620
  8
0
  6
AUSGEZOGEN
 62
     3
 10
29.7386787763912999
 20
-66.8049862400437036
 30
0.0
 11
21.0036206256736584
 21
-62.3542518094393401
 31
-0.0000000000000019
  0
ARC
  5
3621
  8
0
  6
AUSGEZOGEN
 62
     3
 10
30.1926692761308786
 20
-65.9139797158551346
 30
0.0
 40
1.000000000000181
 50
243.0000000000040927
 51
294.6107016166262156
  0
ARC
  5
3622
  8
0
  6
AUSGEZOGEN
 62
     3
 10
-0.0000000000334059
 20
0.0000000000666489
 30
0.0
 40
73.5000000000745501
 50
294.6107016166346853
 51
299.3892983833645758
  0
ARC
  5
3623
  8
0
  6
AUSGEZOGEN
 62
     3
 10
35.5787240291588418
 20
-63.1696477468170201
 30
0.0000000000000142
 40
1.0000000000001159
 50
299.3892983833682138
 51
350.9999999999957936
  0
LINE
  5
3624
  8
0
  6
AUSGEZOGEN
 62
     3
 10
38.1000309368544308
 20
-53.6431956608938094
 30
0.0000000000000142
 11
36.5664123697540902
 21
-63.3260822118573401
 31
0.0000000000000139
  0
ARC
  5
3625
  8
0
  6
AUSGEZOGEN
 62
     3
 10
39.0877192774495583
 20
-53.799630125934037
 30
0.0000000000000142
 40
0.9999999999999861
 50
81.0000000000012932
 51
170.9999999999996874
  0
LINE
  5
3626
  8
0
  6
AUSGEZOGEN
 62
     3
 10
48.927040293453409
 20
-54.3455603524392075
 30
0.0000000000000142
 11
39.2441537424897575
 21
-52.8119417853389095
 31
0.0000000000000121
  0
ARC
  5
3627
  8
0
  6
AUSGEZOGEN
 62
     3
 10
49.0834747584936721
 20
-53.3578720118442504
 30
0.0000000000000142
 40
0.9999999999998268
 50
260.9999999999964757
 51
312.6107016166380959
  0
ARC
  5
3628
  8
0
  6
AUSGEZOGEN
 62
     3
 10
-0.0000000000182287
 20
0.000000000018332
 30
0.0
 40
73.5000000000259064
 50
312.6107016166333779
 51
317.3892983833665085
  0
ARC
  5
3629
  8
0
  6
AUSGEZOGEN
 62
     3
 10
53.3578720118438383
 20
-49.0834747584934519
 30
0.0000000000000142
 40
1.000000000000318
 50
317.3892983833791277
 51
8.9999999999940457
  0
LINE
  5
362A
  8
0
  6
AUSGEZOGEN
 62
     3
 10
52.8119417853389734
 20
-39.244153742489722
 30
0.0000000000000142
 11
54.3455603524393069
 21
-48.9270402934532811
 31
0.0000000000000146
  0
ARC
  5
362B
  8
0
  6
AUSGEZOGEN
 62
     3
 10
53.7996301259341507
 20
-39.0877192774495086
 30
0.0000000000000142
 40
1.0000000000000231
 50
99.0000000000016342
 51
188.9999999999980957
  0
LINE
  5
362C
  8
0
  6
AUSGEZOGEN
 62
     3
 10
63.326082211857468
 20
-36.5664123697539765
 30
0.0000000000000142
 11
53.6431956608938805
 21
-38.1000309368543526
 31
0.0000000000000121
  0
ARC
  5
362D
  8
0
  6
AUSGEZOGEN
 62
     3
 10
63.1696477468173185
 20
-35.5787240291589626
 30
0.0000000000000142
 40
0.9999999999998603
 50
278.9999999999964757
 51
330.6107016166350832
  0
ARC
  5
362E
  8
0
  6
AUSGEZOGEN
 62
     3
 10
-0.0000000000360207
 20
0.0000000000181046
 30
0.0
 40
73.5000000000404015
 50
330.6107016166341168
 51
335.3892983833662811
  0
ARC
  5
362F
  8
0
  6
AUSGEZOGEN
 62
     3
 10
65.9139797158558309
 20
-30.1926692761307187
 30
0.0000000000000142
 40
0.9999999999996724
 50
335.3892983833587209
 51
27.0000000000077307
  0
LINE
  5
3630
  8
0
  6
AUSGEZOGEN
 62
     3
 10
62.3542518094394822
 20
-21.0036206256735589
 30
0.0000000000000142
 11
66.8049862400438457
 21
-29.7386787763912004
 31
0.0000000000000152
  0
ARC
  5
3631
  8
0
  6
AUSGEZOGEN
 62
     3
 10
63.2452583336279517
 20
-20.5496301259340406
 30
0.0000000000000142
 40
1.0000000000000531
 50
117.0000000000038938
 51
206.9999999999959073
  0
LINE
  5
3632
  8
0
  6
AUSGEZOGEN
 62
     3
 10
71.5263259846059469
 20
-15.2078891711412307
 30
0.0000000000000142
 11
62.7912678338883126
 21
-19.6586236017456599
 31
0.0000000000000123
  0
ARC
  5
3633
  8
0
  6
AUSGEZOGEN
 62
     3
 10
71.0723354848664854
 20
-14.3168826469528803
 30
0.0000000000000142
 40
0.9999999999999012
 50
296.9999999999967031
 51
348.6107016166313883
  0
ARC
  5
3634
  8
0
  6
AUSGEZOGEN
 62
     3
 10
-0.0000000000604065
 20
0.0000000000092939
 30
0.0
 40
73.5000000000612346
 50
348.6107016166347989
 51
353.3892983833657127
  0
ARC
  5
3635
  8
0
  6
AUSGEZOGEN
 62
     3
 10
72.0179678355774655
 20
-8.3463949603238348
 30
0.0000000000000142
 40
1.0000000000002289
 50
353.3892983833752055
 51
44.9999999999942517
  0
LINE
  5
3636
  8
0
  6
AUSGEZOGEN
 62
     3
 10
65.7928932188135747
 20
-0.7071067811865817
 30
0.0000000000000142
 11
72.7250746167642461
 21
-7.6392881791371963
 31
0.0000000000000158
  0
ARC
  5
3637
  8
0
  6
AUSGEZOGEN
 62
     3
 10
66.5000000000001137
 20
-0.0000000000000284
 30
0.0000000000000142
 40
1.0000000000000071
 50
135.0
 51
225.0
  0
LINE
  5
3638
  8
0
  6
AUSGEZOGEN
 62
     3
 10
72.7250746167641751
 20
7.6392881791372238
 30
0.0000000000000142
 11
65.7928932188135747
 21
0.7071067811865249
 31
0.0000000000000127
  0
ARC
  5
3639
  8
0
  6
AUSGEZOGEN
 62
     3
 10
72.0179678355778634
 20
8.3463949603237211
 30
0.0000000000000142
 40
0.9999999999997989
 50
314.9999999999931219
 51
6.6107016166375896
  0
ARC
  5
363A
  8
0
  6
AUSGEZOGEN
 62
     3
 10
0.0000000000044519
 20
0.0000000000008811
 30
0.0
 40
73.4999999999955946
 50
6.6107016166322978
 51
11.3892983833674002
  0
ARC
  5
363B
  8
0
  6
AUSGEZOGEN
 62
     3
 10
71.0723354848664286
 20
14.3168826469528998
 30
0.0000000000000142
 40
0.9999999999999761
 50
11.3892983833663806
 51
63.0000000000011369
  0
LINE
  5
363C
  8
0
  6
AUSGEZOGEN
 62
     3
 10
62.7912678338883197
 20
19.6586236017456599
 30
0.0000000000000142
 11
71.5263259846059611
 21
15.2078891711412592
 31
0.0000000000000162
  0
ARC
  5
363D
  8
0
  6
AUSGEZOGEN
 62
     3
 10
63.245258333627838
 20
20.5496301259340193
 30
0.0000000000000142
 40
0.9999999999999761
 50
153.0000000000011084
 51
243.0000000000011937
  0
LINE
  5
363E
  8
0
  6
AUSGEZOGEN
 62
     3
 10
66.8049862400437746
 20
29.7386787763912217
 30
0.0000000000000142
 11
62.3542518094394822
 21
21.0036206256735412
 31
0.0000000000000132
  0
ARC
  5
363F
  8
0
  6
AUSGEZOGEN
 62
     3
 10
65.9139797158554899
 20
30.1926692761307187
 30
0.0000000000000142
 40
0.9999999999999591
 50
333.0000000000026148
 51
24.6107016166374102
  0
ARC
  5
3640
  8
0
  6
AUSGEZOGEN
 62
     3
 10
-0.0000000000221509
 20
-0.0000000000113687
 30
0.0
 40
73.5000000000250111
 50
24.6107016166334205
 51
29.3892983833666293
  0
ARC
  5
3641
  8
0
  6
AUSGEZOGEN
 62
     3
 10
63.1696477468170983
 20
35.5787240291586784
 30
0.0000000000000142
 40
1.0000000000002001
 50
29.3892983833739407
 51
80.9999999999966462
  0
LINE
  5
3642
  8
0
  6
AUSGEZOGEN
 62
     3
 10
53.6431956608938805
 20
38.1000309368543526
 30
0.0000000000000142
 11
63.3260822118574183
 21
36.566412369754012
 31
0.0000000000000164
  0
ARC
  5
3643
  8
0
  6
AUSGEZOGEN
 62
     3
 10
53.7996301259342076
 20
39.087719277449537
 30
0.0000000000000142
 40
1.000000000000093
 50
171.0000000000038938
 51
260.9999999999956799
  0
LINE
  5
3644
  8
0
  6
AUSGEZOGEN
 62
     3
 10
54.3455603524393069
 20
48.9270402934532811
 30
0.0000000000000142
 11
52.8119417853389734
 21
39.244153742489722
 31
0.0000000000000139
  0
ARC
  5
3645
  8
0
  6
AUSGEZOGEN
 62
     3
 10
53.3578720118441865
 20
49.0834747584934803
 30
0.0000000000000142
 40
0.9999999999999909
 50
351.0000000000013074
 51
42.6107016166338965
  0
ARC
  5
3646
  8
0
  6
AUSGEZOGEN
 62
     3
 10
0.000000000012751
 20
0.0000000000126761
 30
0.0
 40
73.4999999999820943
 50
42.6107016166319994
 51
47.3892983833680006
  0
ARC
  5
3647
  8
0
  6
AUSGEZOGEN
 62
     3
 10
49.0834747584936721
 20
53.3578720118443925
 30
0.0000000000000142
 40
0.9999999999997141
 50
47.389298383359872
 51
99.0000000000044338
  0
LINE
  5
3648
  8
0
  6
AUSGEZOGEN
 62
     3
 10
39.2441537424897575
 20
52.8119417853388882
 30
0.0000000000000142
 11
48.927040293453409
 21
54.3455603524392288
 31
0.0000000000000164
  0
ARC
  5
3649
  8
0
  6
AUSGEZOGEN
 62
     3
 10
39.0877192774495015
 20
53.7996301259340086
 30
0.0000000000000142
 40
0.9999999999999299
 50
188.9999999999992042
 51
279.0000000000023874
  0
LINE
  5
364A
  8
0
  6
AUSGEZOGEN
 62
     3
 10
36.5664123697540902
 20
63.3260822118573969
 30
0.0000000000000142
 11
38.1000309368544308
 21
53.6431956608938094
 31
0.0000000000000146
  0
ARC
  5
364B
  8
0
  6
AUSGEZOGEN
 62
     3
 10
35.5787240291590692
 20
63.1696477468171906
 30
0.0000000000000142
 40
0.999999999999896
 50
8.9999999999997442
 51
60.6107016166383303
  0
ARC
  5
364C
  8
0
  6
AUSGEZOGEN
 62
     3
 10
-0.0000000000001525
 20
-0.0000000000006537
 30
0.0
 40
73.5000000000007248
 50
60.6107016166326815
 51
65.3892983833674464
  0
ARC
  5
364D
  8
0
  6
AUSGEZOGEN
 62
     3
 10
30.1926692761308786
 20
65.9139797158552483
 30
0.0
 40
1.000000000000129
 50
65.3892983833724344
 51
117.0000000000017053
  0
LINE
  5
364E
  8
0
  6
AUSGEZOGEN
 62
     3
 10
21.0036206256736584
 20
62.3542518094393401
 30
0.0
 11
29.7386787763912395
 21
66.8049862400437036
 31
0.0000000000000019
  0
ARC
  5
364F
  8
0
  6
AUSGEZOGEN
 62
     3
 10
20.5496301259340903
 20
63.245258333627703
 30
0.0
 40
0.9999999999999893
 50
207.0000000000003126
 51
297.000000000001819
  0
LINE
  5
3650
  8
0
  6
AUSGEZOGEN
 62
     3
 10
15.2078891711413604
 20
71.5263259846057906
 30
0.0
 11
19.658623601745731
 21
62.7912678338881491
 31
0.000000000000001
  0
ARC
  5
3651
  8
0
  6
AUSGEZOGEN
 62
     3
 10
14.3168826469529495
 20
71.0723354848661018
 30
0.0
 40
1.000000000000163
 50
27.0000000000060503
 51
78.6107016166310757
  0
ARC
  5
3652
  8
0
  6
AUSGEZOGEN
 62
     3
 10
-0.0000000000015167
 20
-0.0000000000078444
 30
0.0
 40
73.5000000000080007
 50
78.6107016166325252
 51
83.3892983833668637
  0
ARC
  5
3653
  8
0
  6
AUSGEZOGEN
 62
     3
 10
8.3463949603239094
 20
72.0179678355774513
 30
0.0
 40
1.0000000000001279
 50
83.389298383371127
 51
134.9999999999976978
  0
LINE
  5
3654
  8
0
  6
AUSGEZOGEN
 62
     3
 10
0.7071067811866851
 20
65.7928932188134468
 30
0.0
 11
7.6392881791372993
 21
72.725074616764104
 31
0.0000000000000015
  0
ARC
  5
3655
  8
0
  6
AUSGEZOGEN
 62
     3
 10
0.0000000000001318
 20
66.4999999999999716
 30
0.0
 40
0.9999999999999879
 50
224.9999999999988063
 51
315.0
  0
LINE
  5
3656
  8
0
  6
AUSGEZOGEN
 62
     3
 10
-7.6392881791370932
 20
72.725074616764104
 30
0.0
 11
-0.7071067811864218
 21
65.7928932188134468
 31
0.0000000000000015
  0
ARC
  5
3657
  8
0
  6
AUSGEZOGEN
 62
     3
 10
-8.3463949603236465
 20
72.0179678355775934
 30
0.0
 40
0.99999999999999
 50
44.9999999999988489
 51
96.6107016166330368
  0
ARC
  5
3658
  8
0
  6
AUSGEZOGEN
 62
     3
 10
0.0000000000012118
 20
-0.0000000000028422
 30
0.0
 40
73.5000000000029843
 50
96.6107016166331931
 51
101.3892983833678016
  0
ARC
  5
3659
  8
0
  6
AUSGEZOGEN
 62
     3
 10
-14.3168826469531396
 20
71.0723354848666702
 30
0.0
 40
0.999999999999467
 50
101.3892983833503934
 51
153.0000000000082139
  0
LINE
  5
365A
  8
0
  6
AUSGEZOGEN
 62
     3
 10
-19.6586236017455818
 20
62.7912678338881491
 30
0.0
 11
-15.2078891711410993
 21
71.5263259846058332
 31
0.000000000000001
  0
ARC
  5
365B
  8
0
  6
AUSGEZOGEN
 62
     3
 10
-20.5496301259339411
 20
63.2452583336276675
 30
0.0
 40
0.9999999999999252
 50
243.0000000000032969
 51
333.0000000000011937
  0
LINE
  5
365C
  8
0
  6
AUSGEZOGEN
 62
     3
 10
-29.7386787763911009
 20
66.8049862400437462
 30
0.0
 11
-21.003620625673399
 21
62.3542518094393401
 31
0.0000000000000019
  0
ARC
  5
365D
  8
0
  6
AUSGEZOGEN
 62
     3
 10
-30.1926692761306086
 20
65.9139797158552483
 30
0.0
 40
1.000000000000125
 50
63.0000000000055422
 51
114.6107016166347989
  0
ARC
  5
365E
  8
0
  6
AUSGEZOGEN
 62
     3
 10
0.0000000000212775
 20
-0.0000000000412967
 30
0.0
 40
73.5000000000463842
 50
114.6107016166342021
 51
119.3892983833659969
  0
ARC
  5
365F
  8
0
  6
AUSGEZOGEN
 62
     3
 10
-35.5787240291590265
 20
63.1696477468171906
 30
-0.0000000000000142
 40
0.9999999999997528
 50
119.3892983833583941
 51
171.0000000000025011
  0
LINE
  5
3660
  8
0
  6
AUSGEZOGEN
 62
     3
 10
-38.1000309368541608
 20
53.6431956608938094
 30
-0.0000000000000142
 11
-36.5664123697539267
 21
63.3260822118573401
 31
-0.0000000000000139
  0
ARC
  5
3661
  8
0
  6
AUSGEZOGEN
 62
     3
 10
-39.0877192774493523
 20
53.799630125934101
 30
-0.0000000000000142
 40
1.000000000000079
 50
260.9999999999988063
 51
350.9999999999969873
  0
LINE
  5
3662
  8
0
  6
AUSGEZOGEN
 62
     3
 10
-48.9270402934531319
 20
54.345560352439179
 30
-0.0000000000000142
 11
-39.2441537424896083
 21
52.8119417853388882
 31
-0.0000000000000121
  0
ARC
  5
3663
  8
0
  6
AUSGEZOGEN
 62
     3
 10
-49.0834747584935087
 20
53.3578720118443925
 30
-0.0000000000000142
 40
0.9999999999996628
 50
80.9999999999886029
 51
132.6107016166423023
  0
ARC
  5
3664
  8
0
  6
AUSGEZOGEN
 62
     3
 10
0.0000000000600447
 20
-0.0000000000603393
 30
0.0
 40
73.5000000000849667
 50
132.6107016166351116
 51
137.3892983833644053
  0
ARC
  5
3665
  8
0
  6
AUSGEZOGEN
 62
     3
 10
-53.3578720118439733
 20
49.0834747584934519
 30
-0.0000000000000142
 40
1.0000000000000371
 50
137.389298383368299
 51
188.9999999999965041
  0
LINE
  5
3666
  8
0
  6
AUSGEZOGEN
 62
     3
 10
-52.81194178533881
 20
39.244153742489722
 30
-0.0000000000000142
 11
-54.3455603524391506
 21
48.9270402934532811
 31
-0.0000000000000146
  0
ARC
  5
3667
  8
0
  6
AUSGEZOGEN
 62
     3
 10
-53.7996301259340513
 20
39.0877192774494802
 30
-0.0000000000000142
 40
1.0000000000000211
 50
279.0000000000114824
 51
8.9999999999997993
  0
LINE
  5
3668
  8
0
  6
AUSGEZOGEN
 62
     3
 10
-63.326082211857198
 20
36.566412369753948
 30
-0.0000000000000142
 11
-53.6431956608936176
 21
38.1000309368543526
 31
-0.0000000000000121
  0
ARC
  5
3669
  8
0
  6
AUSGEZOGEN
 62
     3
 10
-63.1696477468168922
 20
35.5787240291588205
 30
-0.0000000000000142
 40
1.00000000000005
 50
99.0000000000051017
 51
150.6107016166359927
  0
ARC
  5
366A
  8
0
  6
AUSGEZOGEN
 62
     3
 10
-0.0000000000363617
 20
0.0000000000186446
 30
0.0
 40
73.4999999999590159
 50
150.6107016166313031
 51
155.3892983833688106
  0
ARC
  5
366B
  8
0
  6
AUSGEZOGEN
 62
     3
 10
-65.9139797158553478
 20
30.1926692761306299
 30
-0.0000000000000142
 40
0.9999999999998997
 50
155.3892983833627
 51
206.9999999999974136
  0
LINE
  5
366C
  8
0
  6
AUSGEZOGEN
 62
     3
 10
-62.3542518094392122
 20
21.0036206256735412
 30
-0.0000000000000142
 11
-66.8049862400436325
 21
29.7386787763911684
 31
-0.0000000000000152
  0
ARC
  5
366D
  8
0
  6
AUSGEZOGEN
 62
     3
 10
-63.2452583336273975
 20
20.5496301259339589
 30
-0.0000000000000142
 40
0.999999999999874
 50
296.9999999999944862
 51
27.0000000000062101
  0
LINE
  5
366E
  8
0
  6
AUSGEZOGEN
 62
     3
 10
-71.5263259846056911
 20
15.2078891711412307
 30
-0.0000000000000142
 11
-62.7912678338879999
 21
19.6586236017456599
 31
-0.0000000000000123
  0
ARC
  5
366F
  8
0
  6
AUSGEZOGEN
 62
     3
 10
-71.0723354848664002
 20
14.3168826469529904
 30
-0.0000000000000142
 40
0.9999999999997672
 50
116.9999999999901945
 51
168.6107016166363906
  0
ARC
  5
3670
  8
0
  6
AUSGEZOGEN
 62
     3
 10
0.0000000000272461
 20
-0.0000000000034106
 30
0.0
 40
73.5000000000273701
 50
168.6107016166342021
 51
173.3892983833671906
  0
ARC
  5
3671
  8
0
  6
AUSGEZOGEN
 62
     3
 10
-72.0179678355774371
 20
8.3463949603238916
 30
-0.0000000000000142
 40
1.0000000000000879
 50
173.3892983833740118
 51
225.0000000000046043
  0
LINE
  5
3672
  8
0
  6
AUSGEZOGEN
 62
     3
 10
-65.7928932188133189
 20
0.7071067811865817
 30
-0.0000000000000142
 11
-72.7250746167639903
 21
7.6392881791372238
 31
-0.0000000000000158
  0
ARC
  5
3673
  8
0
  6
AUSGEZOGEN
 62
     3
 10
-66.4999999999998721
 20
0.0000000000000284
 30
-0.0000000000000142
 40
1.0000000000000071
 50
315.0
 51
44.9999999999999929
  0
LINE
  5
3674
  8
0
  6
AUSGEZOGEN
 62
     3
 10
-72.7250746167639903
 20
-7.6392881791372238
 30
-0.0000000000000142
 11
-65.7928932188133189
 21
-0.7071067811865249
 31
-0.0000000000000127
  0
ARC
  5
3675
  8
0
  6
AUSGEZOGEN
 62
     3
 10
-72.0179678355773802
 20
-8.3463949603238632
 30
-0.0000000000000142
 40
1.0000000000000639
 50
134.9999999999965041
 51
186.6107016166276082
  0
ARC
  5
3676
  8
0
  6
AUSGEZOGEN
 62
     3
 10
-0.0000000000365322
 20
-0.0000000000066791
 30
0.0
 40
73.4999999999627818
 50
186.6107016166307062
 51
191.3892983833679011
  0
ARC
  5
3677
  8
0
  6
AUSGEZOGEN
 62
     3
 10
-71.0723354848664002
 20
-14.3168826469530508
 30
-0.0000000000000142
 40
0.9999999999997463
 50
191.3892983833603125
 51
243.0000000000090097
  0
LINE
  5
3678
  8
0
  6
AUSGEZOGEN
 62
     3
 10
-62.7912678338881065
 20
-19.6586236017455995
 30
-0.0000000000000142
 11
-71.5263259846056769
 21
-15.2078891711412592
 31
-0.0000000000000162
  0
ARC
  5
3679
  8
0
  6
AUSGEZOGEN
 62
     3
 10
-63.2452583336276817
 20
-20.5496301259339909
 30
-0.0000000000000142
 40
1.0000000000000391
 50
333.0000000000011937
 51
62.9999999999989768
  0
LINE
  5
367A
  8
0
  6
AUSGEZOGEN
 62
     3
 10
-66.8049862400435899
 20
-29.7386787763912608
 30
-0.0000000000000142
 11
-62.354251809439269
 21
-21.0036206256735412
 31
-0.0000000000000132
  0
ARC
  5
367B
  8
0
  6
AUSGEZOGEN
 62
     3
 10
-65.9139797158555183
 20
-30.1926692761308004
 30
-0.0000000000000142
 40
0.9999999999997286
 50
152.9999999999922977
 51
204.6107016166398012
  0
ARC
  5
367C
  8
0
  6
AUSGEZOGEN
 62
     3
 10
0.0000000000858516
 20
0.0000000000439968
 30
0.0
 40
73.5000000000962643
 50
204.6107016166359074
 51
209.3892983833644905
  0
ARC
  5
367D
  8
0
  6
AUSGEZOGEN
 62
     3
 10
-63.1696477468168212
 20
-35.5787240291588205
 30
-0.0000000000000142
 40
1.0000000000000491
 50
209.3892983833669064
 51
260.9999999999885745
  0
LINE
  5
367E
  8
0
  6
AUSGEZOGEN
 62
     3
 10
-53.6431956608937313
 20
-38.1000309368543313
 30
-0.0000000000000142
 11
-63.3260822118572619
 21
-36.5664123697539765
 31
-0.0000000000000164
  0
ARC
  5
367F
  8
0
  6
AUSGEZOGEN
 62
     3
 10
-53.7996301259340015
 20
-39.0877192774494802
 30
-0.0000000000000142
 40
1.000000000000042
 50
351.000000000001819
 51
80.9999999999951541
  0
LINE
  5
3680
  8
0
  6
AUSGEZOGEN
 62
     3
 10
-54.3455603524391009
 20
-48.9270402934532385
 30
-0.0000000000000142
 11
-52.81194178533881
 21
-39.2441537424896865
 31
-0.0000000000000139
  0
ARC
  5
3681
  8
0
  6
AUSGEZOGEN
 62
     3
 10
-53.3578720118442575
 20
-49.0834747584935727
 30
-0.0000000000000142
 40
0.9999999999997239
 50
170.9999999999922977
 51
222.6107016166413075
  0
ARC
  5
3682
  8
0
  6
AUSGEZOGEN
 62
     3
 10
0.0000000000018371
 20
0.0000000000017337
 30
0.0
 40
73.5000000000024443
 50
222.6107016166326105
 51
227.3892983833673043
  0
ARC
  5
3683
  8
0
  6
AUSGEZOGEN
 62
     3
 10
-49.0834747584932813
 20
-53.3578720118438525
 30
-0.0000000000000142
 40
1.00000000000022
 50
227.3892983833690096
 51
278.9999999999899956
  0
LINE
  5
3684
  8
0
  6
AUSGEZOGEN
 62
     3
 10
-39.2441537424896083
 20
-52.8119417853388882
 30
-0.0000000000000142
 11
-48.9270402934532029
 21
-54.3455603524392288
 31
-0.0000000000000164
  0
ARC
  5
3685
  8
0
  6
AUSGEZOGEN
 62
     3
 10
-39.0877192774493523
 20
-53.799630125934037
 30
-0.0000000000000142
 40
0.9999999999999388
 50
9.0000000000024301
 51
99.0000000000021743
  0
LINE
  5
3686
  8
0
  6
AUSGEZOGEN
 62
     3
 10
-36.5664123697538201
 20
-63.3260822118573969
 30
-0.0000000000000142
 11
-38.1000309368542673
 21
-53.643195660893781
 31
-0.0000000000000146
  0
ARC
  5
3687
  8
0
  6
AUSGEZOGEN
 62
     3
 10
-35.5787240291586286
 20
-63.1696477468171906
 30
-0.0000000000000142
 40
1.0000000000000351
 50
188.9999999999949125
 51
240.6107016166241124
  0
ARC
  5
3688
  8
0
  6
AUSGEZOGEN
 62
     3
 10
-0.0000000000180581
 20
-0.0000000000346745
 30
0.0
 40
73.4999999999608633
 50
240.6107016166315873
 51
245.3892983833690948
  0
ARC
  5
3689
  8
0
  6
AUSGEZOGEN
 62
     3
 10
-30.1926692761306086
 20
-65.9139797158559873
 30
0.0
 40
0.999999999999445
 50
245.3892983833547135
 51
297.0000000000180194
  0
LINE
  5
368A
  8
0
  6
AUSGEZOGEN
 62
     3
 10
-21.0036206256735198
 20
-62.3542518094393401
 30
0.0
 11
-29.7386787763910405
 21
-66.8049862400437036
 31
-0.0000000000000019
  0
ARC
  5
368B
  8
0
  6
AUSGEZOGEN
 62
     3
 10
-20.5496301259339411
 20
-63.2452583336275325
 30
0.0
 40
0.9999999999999246
 50
26.9999999999930616
 51
117.0000000000047038
  0
LINE
  5
368C
  8
0
  6
AUSGEZOGEN
 62
     3
 10
-15.2078891711410993
 20
-71.526325984605819
 30
0.0
 11
-19.6586236017455818
 21
-62.7912678338881278
 31
-0.000000000000001
  0
ARC
  5
368D
  8
0
  6
AUSGEZOGEN
 62
     3
 10
-14.3168826469526298
 20
-71.0723354848661302
 30
0.0
 40
1.0000000000001461
 50
207.0000000000046043
 51
258.6107016166275798
  0
ARC
  5
368E
  8
0
  6
AUSGEZOGEN
 62
     3
 10
-0.0000000000008914
 20
-0.0000000000049738
 30
0.0
 40
73.4999999999949267
 50
258.610701616632582
 51
263.3892983833677022
  0
ARC
  5
368F
  8
0
  6
AUSGEZOGEN
 62
     3
 10
-8.3463949603237602
 20
-72.0179678355772239
 30
0.0
 40
1.0000000000003291
 50
263.3892983833758876
 51
314.9999999999907914
  0
LINE
  5
3690
  8
0
  6
AUSGEZOGEN
 62
     3
 10
-0.7071067811864783
 20
-65.7928932188134468
 30
0.0
 11
-7.6392881791370932
 21
-72.725074616764104
 31
-0.0000000000000015
  0
ARC
  5
3691
  8
0
  6
AUSGEZOGEN
 62
     3
 10
0.0000000000000749
 20
-66.5
 30
0.0
 40
1.0000000000000071
 50
45.0
 51
135.0
  0
LINE
  5
3692
  8
0
  6
AUSGEZOGEN
 62
     3
 10
7.6392881791372993
 20
-72.725074616764104
 30
0.0
 11
0.707106781186628
 21
-65.7928932188134468
 31
-0.0000000000000015
  0
ARC
  5
3693
  8
0
  6
AUSGEZOGEN
 62
     3
 10
8.3463949603237957
 20
-72.0179678355777355
 30
0.0
 40
0.9999999999998552
 50
224.9999999999953957
 51
276.6107016166371864
  0
ARC
  5
3694
  8
0
  6
AUSGEZOGEN
 62
     3
 10
0.0000000000009276
 20
-0.0000000000040927
 30
0.0
 40
73.4999999999958646
 50
276.6107016166324115
 51
281.389298383367418
  0
ARC
  5
3695
  8
0
  6
AUSGEZOGEN
 62
     3
 10
14.3168826469528305
 20
-71.0723354848660733
 30
0.0
 40
1.0000000000002569
 50
281.3892983833712265
 51
332.9999999999910756
  0
LINE
  5
3696
  8
0
  6
AUSGEZOGEN
 62
     3
 10
19.658623601745731
 20
-62.7912678338881278
 30
0.0
 11
15.2078891711413604
 21
-71.5263259846058759
 31
-0.000000000000001
  0
ARC
  5
3697
  8
0
  6
AUSGEZOGEN
 62
     3
 10
20.5496301259341507
 20
-63.2452583336275893
 30
0.0
 40
0.9999999999998749
 50
62.9999999999981881
 51
153.0000000000040075
  0
ARC
  5
3698
  8
0
  6
VERDECKT
 62
     1
 10
-0.000000000000568
 20
-0.0000000000008476
 30
0.0
 40
34.2814676152499516
 50
57.4921984785795672
 51
62.507801521420383
  0
ARC
  5
3699
  8
0
  6
VERDECKT
 62
     1
 10
0.0000000000010236
 20
-0.0000000000019099
 30
0.0
 40
34.2814676152467399
 50
297.4921984785793825
 51
302.5078015214206744
  0
ARC
  5
369A
  8
0
  6
VERDECKT
 62
     1
 10
0.0000000000047907
 20
0.0000000000085962
 30
0.0
 40
34.899999999989987
 50
57.5366718750239485
 51
62.4633281249758809
  0
ARC
  5
369B
  8
0
  6
VERDECKT
 62
     1
 10
0.0000000000047907
 20
-0.000000000008567
 30
0.0
 40
34.8999999999900012
 50
297.5366718750241262
 51
302.4633281249759875
  0
ARC
  5
369C
  8
0
  6
VERDECKT
 62
     1
 10
0.000000000000818
 20
-0.0000000000000707
 30
0.0
 40
57.8686291501024925
 50
170.0601924205784883
 51
179.9999999999998863
  0
ARC
  5
369D
  8
0
  6
VERDECKT
 62
     1
 10
-0.0000000000000915
 20
-0.0000000000000813
 30
0.0
 40
57.8686291501016825
 50
80.0601924205791562
 51
99.9398075794208154
  0
ARC
  5
369E
  8
0
  6
VERDECKT
 62
     1
 10
-0.0000000000143023
 20
-0.0000000000247443
 30
0.0
 40
57.8686291501301184
 50
58.5146823501286519
 51
61.4853176498715399
  0
ARC
  5
369F
  8
0
  6
VERDECKT
 62
     1
 10
-0.0000000000000915
 20
0.0000000000000155
 30
0.0
 40
57.8686291501015901
 50
350.0601924205785167
 51
9.9398075794215117
  0
ARC
  5
36A0
  8
0
  6
VERDECKT
 62
     1
 10
0.0000000000180984
 20
-0.0000000000310965
 30
0.0
 40
57.8686291500655585
 50
298.5146823501266908
 51
301.4853176498730249
  0
ARC
  5
36A1
  8
0
  6
VERDECKT
 62
     1
 10
-0.0000000000000915
 20
-0.0000000000009624
 30
0.0
 40
57.8686291501006096
 50
260.0601924205772093
 51
279.939807579422677
  0
ARC
  5
36A2
  8
0
  6
VERDECKT
 62
     1
 10
0.0000000000013864
 20
0.0000000000001323
 30
0.0
 40
57.868629150103061
 50
180.0000000000001137
 51
189.9398075794213128
  0
CIRCLE
  5
36A3
  8
0
  6
VERDECKT
 62
     1
 10
-0.0000000000000978
 20
0.0000000000000164
 30
0.0
 40
36.5
  0
CIRCLE
  5
36A4
  8
0
  6
VERDECKT
 62
     1
 10
-0.0000000000001132
 20
0.0000000000000122
 30
0.0
 40
35.887579355318401
  0
LINE
  5
36A5
  8
0
  6
VERDECKT
 62
     1
 10
-0.0000000000000799
 20
59.0000000000000284
 30
0.0
 11
15.4919333848295402
 21
59.0000000000000284
 31
0.0000000000000034
  0
LINE
  5
36A6
  8
0
  6
VERDECKT
 62
     1
 10
-15.4919333848297001
 20
59.0000000000000284
 30
0.0
 11
-0.0000000000000799
 21
59.0000000000000284
 31
0.0000000000000034
  0
LINE
  5
36A7
  8
0
  6
VERDECKT
 62
     1
 10
-0.0000000000000799
 20
-58.9999999999999716
 30
0.0
 11
-15.4919333848297001
 21
-58.9999999999999574
 31
-0.0000000000000034
  0
LINE
  5
36A8
  8
0
  6
VERDECKT
 62
     1
 10
15.4919333848295402
 20
-58.9999999999999787
 30
0.0
 11
-0.0000000000000799
 21
-58.9999999999999716
 31
-0.0000000000000034
  0
LINE
  5
36A9
  8
0
  6
VERDECKT
 62
     1
 10
58.9999999999999218
 20
0.0000000000000272
 30
0.0
 11
58.9999999999999218
 21
-15.4919333848296503
 31
0.0
  0
LINE
  5
36AA
  8
0
  6
VERDECKT
 62
     1
 10
58.9999999999999218
 20
15.4919333848296503
 30
0.0
 11
58.9999999999999218
 21
0.0000000000000266
 31
0.0
  0
LINE
  5
36AB
  8
0
  6
VERDECKT
 62
     1
 10
-59.0000000000000782
 20
0.0000000000000272
 30
0.0
 11
-59.0000000000000782
 21
15.4919333848296503
 31
0.0
  0
LINE
  5
36AC
  8
0
  6
VERDECKT
 62
     1
 10
-59.0000000000000782
 20
-15.4919333848296503
 30
0.0
 11
-59.0000000000000782
 21
0.0000000000000266
 31
0.0
  0
CIRCLE
  5
36AD
  8
0
  6
VERDECKT
 62
     1
 10
0.0000000000000028
 20
0.0000000000000128
 30
0.0
 40
61.9999999999999929
  0
CIRCLE
  5
36AE
  8
0
  6
VERDECKT
 62
     1
 10
0.000000000000013
 20
0.0000000000000156
 30
0.0
 40
48.9999999999999503
  0
CIRCLE
  5
36AF
  8
0
  6
VERDECKT
 62
     1
 10
0.000000000000013
 20
0.0000000000000156
 30
0.0
 40
50.9999999999999574
  0
CIRCLE
  5
36B0
  8
0
  6
VERDECKT
 62
     1
 10
0.0000000000000028
 20
0.0000000000000128
 30
0.0
 40
64.0000000000000995
  0
LINE
  5
36B1
  8
0
  6
VERDECKT
 62
     1
 10
29.7895026662766114
 20
-48.5969321501996916
 30
0.0
 11
27.1914264549233486
 21
-50.0969321501996987
 31
-0.0000000000000006
  0
LINE
  5
36B2
  8
0
  6
VERDECKT
 62
     1
 10
29.7895026662766114
 20
48.5969321501997129
 30
0.0
 11
27.1914264549233486
 21
50.09693215019972
 31
-0.0000000000000006
  0
CIRCLE
  5
36B3
  8
0
  6
VERDECKT
 62
     1
 10
0.0000000000001318
 20
0.0000000000000284
 30
0.0
 40
58.5
  0
ENDBLK
  5
36B5
  8
0
  0
ENDSEC
  0
SECTION
  2
ENTITIES
  0
TEXT
  5
1871
  8
TEXT35
 10
339.4627620700201192
 20
530.8138270605206799
 30
0.0
 40
3.5
  1

 41
0.8
  0
INSERT
  5
35F7
  8
0
  2
A$C61530B08
 10
0.0
 20
0.000000000000012
 30
0.0
  0
INSERT
  5
36B6
  8
0
  2
A$C5FD03CA2
 10
-1.9846761844987491
 20
-115.6535948095787063
 30
0.0
  0
VIEWPORT
  5
316F
 67
     1
  8
0
 10
5.0283233288129896
 20
5.9746913746918864
 30
0.0
 40
23.3512288176918013
 41
12.3705914569914892
 68
     1
 69
     1
1001
ACAD
1000
MVIEW
1002
{
1070
    16
1010
0.0
1020
0.0
1030
0.0
1010
0.0
1020
0.0
1030
1.0
1040
0.0
1040
12.3705914569914892
1040
5.0283233288129896
1040
5.9746913746918864
1040
50.0
1040
0.0
1040
0.0
1070
     0
1070
  1500
1070
     1
1070
     1
1070
     0
1070
     0
1070
     0
1070
     0
1040
0.0
1040
0.0
1040
0.0
1040
10.0
1040
10.0
1040
10.0
1040
10.0
1070
     0
1002
{
1002
}
1002
}
  0
ENDSEC
  0
EOF
