  0
SECTION
  2
HEADER
  9
$ACADVER
  1
AC1009
  9
$INSBASE
 10
0.0
 20
0.0
 30
0.0
  9
$EXTMIN
 10
-62.7571590523549503
 20
-242.8106819374962129
 30
-0.0000000000000217
  9
$EXTMAX
 10
64.1826972858403906
 20
77.4402869974364734
 30
0.0000000000000394
  9
$LIMMIN
 10
0.0
 20
0.0
  9
$LIMMAX
 10
297.0
 20
420.0
  9
$ORTHOMODE
 70
     1
  9
$REGENMODE
 70
     1
  9
$FILLMODE
 70
     1
  9
$QTEXTMODE
 70
     0
  9
$MIRRTEXT
 70
     1
  9
$DRAGMODE
 70
     2
  9
$LTSCALE
 40
10.0
  9
$OSMODE
 70
  1327
  9
$ATTMODE
 70
     1
  9
$TEXTSIZE
 40
3.5
  9
$TRACEWID
 40
0.5
  9
$TEXTSTYLE
  7
STANDARD
  9
$CLAYER
  8
0
  9
$CELTYPE
  6
BYLAYER
  9
$CECOLOR
 62
   256
  9
$DIMSCALE
 40
0.0
  9
$DIMASZ
 40
3.5
  9
$DIMEXO
 40
1.0
  9
$DIMDLI
 40
8.0
  9
$DIMRND
 40
0.0
  9
$DIMDLE
 40
0.0
  9
$DIMEXE
 40
1.0
  9
$DIMTP
 40
0.8
  9
$DIMTM
 40
0.0
  9
$DIMTXT
 40
3.5
  9
$DIMCEN
 40
1.5
  9
$DIMTSZ
 40
0.0
  9
$DIMTOL
 70
     0
  9
$DIMLIM
 70
     0
  9
$DIMTIH
 70
     0
  9
$DIMTOH
 70
     0
  9
$DIMSE1
 70
     0
  9
$DIMSE2
 70
     0
  9
$DIMTAD
 70
     1
  9
$DIMZIN
 70
     8
  9
$DIMBLK
  1

  9
$DIMASO
 70
     1
  9
$DIMSHO
 70
     0
  9
$DIMPOST
  1

  9
$DIMAPOST
  1

  9
$DIMALT
 70
     0
  9
$DIMALTD
 70
     2
  9
$DIMALTF
 40
25.3999999999999986
  9
$DIMLFAC
 40
1.0
  9
$DIMTOFL
 70
     1
  9
$DIMTVP
 40
0.0
  9
$DIMTIX
 70
     0
  9
$DIMSOXD
 70
     0
  9
$DIMSAH
 70
     0
  9
$DIMBLK1
  1

  9
$DIMBLK2
  1

  9
$DIMSTYLE
  2
STANDARD
  9
$DIMCLRD
 70
     0
  9
$DIMCLRE
 70
     0
  9
$DIMCLRT
 70
     1
  9
$DIMTFAC
 40
0.5
  9
$DIMGAP
 40
1.5
  9
$LUNITS
 70
     2
  9
$LUPREC
 70
     2
  9
$SKETCHINC
 40
1.0
  9
$FILLETRAD
 40
0.0
  9
$AUNITS
 70
     0
  9
$AUPREC
 70
     0
  9
$MENU
  1
ACAD
  9
$ELEVATION
 40
0.0
  9
$PELEVATION
 40
0.0
  9
$THICKNESS
 40
0.0
  9
$LIMCHECK
 70
     0
  9
$BLIPMODE
 70
     0
  9
$CHAMFERA
 40
0.0
  9
$CHAMFERB
 40
0.0
  9
$SKPOLY
 70
     0
  9
$TDCREATE
 40
2451879.5874421298503876
  9
$TDUPDATE
 40
2458401.6016782410442829
  9
$TDINDWG
 40
0.0769259606
  9
$TDUSRTIMER
 40
0.0769259606
  9
$USRTIMER
 70
     1
  9
$ANGBASE
 50
0.0
  9
$ANGDIR
 70
     0
  9
$PDMODE
 70
     0
  9
$PDSIZE
 40
0.0
  9
$PLINEWID
 40
0.0
  9
$COORDS
 70
     1
  9
$SPLFRAME
 70
     0
  9
$SPLINETYPE
 70
     6
  9
$SPLINESEGS
 70
     8
  9
$ATTDIA
 70
     0
  9
$ATTREQ
 70
     0
  9
$HANDLING
 70
     1
  9
$HANDSEED
  5
2A60
  9
$SURFTAB1
 70
     6
  9
$SURFTAB2
 70
     6
  9
$SURFTYPE
 70
     6
  9
$SURFU
 70
     6
  9
$SURFV
 70
     6
  9
$UCSNAME
  2

  9
$UCSORG
 10
0.0
 20
0.0
 30
0.0
  9
$UCSXDIR
 10
1.0
 20
0.0
 30
0.0
  9
$UCSYDIR
 10
0.0
 20
1.0
 30
0.0
  9
$PUCSNAME
  2

  9
$PUCSORG
 10
0.0
 20
0.0
 30
0.0
  9
$PUCSXDIR
 10
1.0
 20
0.0
 30
0.0
  9
$PUCSYDIR
 10
0.0
 20
1.0
 30
0.0
  9
$USERI1
 70
     0
  9
$USERI2
 70
     0
  9
$USERI3
 70
     0
  9
$USERI4
 70
     0
  9
$USERI5
 70
     0
  9
$USERR1
 40
0.0
  9
$USERR2
 40
0.0
  9
$USERR3
 40
0.0
  9
$USERR4
 40
0.0
  9
$USERR5
 40
0.0
  9
$WORLDVIEW
 70
     1
  9
$SHADEDGE
 70
     3
  9
$SHADEDIF
 70
    70
  9
$TILEMODE
 70
     1
  9
$MAXACTVP
 70
    16
  9
$PLIMCHECK
 70
     0
  9
$PEXTMIN
 10
-0.1068269998720375
 20
-0.1035334573870799
 30
-0.0000000000000058
  9
$PEXTMAX
 10
10.5866847290611492
 20
14.5623293895463704
 30
0.0000000000000104
  9
$PLIMMIN
 10
-0.2500002402958907
 20
-0.2499999962453767
  9
$PLIMMAX
 10
10.7499995194082203
 20
8.2499997634587334
  9
$UNITMODE
 70
     0
  9
$VISRETAIN
 70
     0
  9
$PLINEGEN
 70
     0
  9
$PSLTSCALE
 70
     0
  0
ENDSEC
  0
SECTION
  2
TABLES
  0
TABLE
  2
VPORT
 70
     1
  0
VPORT
  2
*ACTIVE
 70
     0
 10
0.0
 20
0.0
 11
1.0
 21
1.0
 12
0.0056623355558258
 22
-48.3892186187114604
 13
0.0
 23
0.0
 14
1.0
 24
1.0
 15
10.0
 25
10.0
 16
-0.0000000000001479
 26
0.0
 36
666.0111592855747631
 17
0.7071067811868943
 27
-34.295978851318381
 37
0.0000000000000088
 40
322.6468614706054723
 41
1.887640449438202
 42
50.0
 43
0.0
 44
0.0
 50
0.0
 51
0.0
 71
     0
 72
  1500
 73
     1
 74
     0
 75
     0
 76
     0
 77
     0
 78
     0
  0
ENDTAB
  0
TABLE
  2
LTYPE
 70
     4
  0
LTYPE
  2
AUSGEZOGEN
 70
     0
  3
Ausgezogene Linie
 72
    65
 73
     0
 40
0.0
  0
LTYPE
  2
CONTINUOUS
 70
     0
  3
Solid line
 72
    65
 73
     0
 40
0.0
  0
LTYPE
  2
VERDECKT
 70
     0
  3
Verdeckt __ __ __ __ __ __ __ __ __ __ __ __ __
 72
    65
 73
     2
 40
0.375
 49
0.25
 49
-0.125
  0
ENDTAB
  0
TABLE
  2
LAYER
 70
    12
  0
LAYER
  2
0
 70
     0
 62
     7
  6
AUSGEZOGEN
  0
LAYER
  2
DEFPOINTS
 70
     0
 62
     7
  6
AUSGEZOGEN
  0
LAYER
  2
TEXT35
 70
     0
 62
     1
  6
AUSGEZOGEN
  0
ENDTAB
  0
TABLE
  2
STYLE
 70
     4
  0
STYLE
  2
STANDARD
 70
     0
 40
0.0
 41
0.8
 50
0.0
 71
     0
 42
3.5
  3
simplex.shx
  4

  0
ENDTAB
  0
TABLE
  2
VIEW
 70
     2
  0
ENDTAB
  0
TABLE
  2
UCS
 70
     0
  0
ENDTAB
  0
TABLE
  2
APPID
 70
     9
  0
APPID
  2
ACAD
 70
     0
  0
APPID
  2
ACAD_NAV_VCDISPLAY
 70
     0
  0
APPID
  2
ACAD_PSEXT
 70
     0
  0
APPID
  2
ACAECLAYERSTANDARD
 70
     0
  0
APPID
  2
ACCMTRANSPARENCY
 70
     0
  0
APPID
  2
ACAD_EXEMPT_FROM_CAD_STANDARDS
 70
     0
  0
APPID
  2
ACAD_MLEADERVER
 70
     0
  0
APPID
  2
ACAD_OBJECT_CHANGE_GUID
 70
     0
  0
APPID
  2
ACADANNOMONITORALERTICONDI
 70
     0
  0
ENDTAB
  0
TABLE
  2
DIMSTYLE
 70
     2
  0
DIMSTYLE
  2
STANDARD
 70
     0
  3

  4

  5

  6

  7

 40
0.0
 41
3.5
 42
1.0
 43
8.0
 44
1.5
 45
0.0
 46
0.0
 47
0.5
 48
0.0
140
3.5
141
1.5
142
0.0
143
25.3999999999999986
144
1.0
145
0.0
146
1.0
147
1.0
 71
     0
 72
     0
 73
     0
 74
     0
 75
     0
 76
     0
 77
     1
 78
     8
170
     0
171
     2
172
     1
173
     0
174
     0
175
     0
176
     0
177
     0
178
     1
  0
ENDTAB
  0
ENDSEC
  0
SECTION
  2
BLOCKS
  0
BLOCK
  8
0
  2
$MODEL_SPACE
 70
     0
 10
0.0
 20
0.0
 30
0.0
  3
$MODEL_SPACE
  1

  0
ENDBLK
  5
1DFE
  8
0
  0
BLOCK
 67
     1
  8
0
  2
$PAPER_SPACE
 70
     0
 10
0.0
 20
0.0
 30
0.0
  3
$PAPER_SPACE
  1

  0
ENDBLK
  5
1DFC
 67
     1
  8
0
  0
BLOCK
  8
0
  2
A$C42331C51
 70
     0
 10
0.0
 20
0.0
 30
0.0
  3
A$C42331C51
  1

  0
LINE
  5
2866
  8
0
  6
AUSGEZOGEN
 62
     3
 10
-13.5674797050269191
 20
144.999999999999801
 30
-0.0000000000000322
 11
-35.4325202949733011
 21
144.999999999999801
 31
-0.0000000000000322
210
0.0
220
1.0
230
-0.0000000000000002
  0
LINE
  5
2867
  8
0
  6
AUSGEZOGEN
 62
     3
 10
-35.4325202949733011
 20
151.999999999999801
 30
-0.0000000000000338
 11
-35.4325202949733011
 21
144.999999999999801
 31
-0.0000000000000322
210
0.0
220
1.0
230
-0.0000000000000002
  0
LINE
  5
2868
  8
0
  6
AUSGEZOGEN
 62
     3
 10
-13.5674797050269298
 20
144.999999999999801
 30
-0.0000000000000322
 11
-13.5674797050269298
 21
151.999999999999801
 31
-0.0000000000000338
210
0.0
220
1.0
230
-0.0000000000000002
  0
LINE
  5
2869
  8
0
  6
AUSGEZOGEN
 62
     3
 10
50.5999999999999019
 20
144.999999999999801
 30
-0.0000000000000322
 11
49.0
 21
144.999999999999801
 31
-0.0000000000000322
210
0.0
220
1.0
230
-0.0000000000000002
  0
LINE
  5
286A
  8
0
  6
AUSGEZOGEN
 62
     3
 10
49.0
 20
151.999999999999801
 30
-0.0000000000000338
 11
49.0
 21
144.999999999999801
 31
-0.0000000000000322
210
0.0
220
1.0
230
-0.0000000000000002
  0
LINE
  5
286B
  8
0
  6
AUSGEZOGEN
 62
     3
 10
-50.6000000000001222
 20
151.999999999999801
 30
-0.0000000000000338
 11
-49.0000000000001066
 21
151.999999999999801
 31
-0.0000000000000338
210
0.0
220
1.0
230
-0.0000000000000002
  0
LINE
  5
286C
  8
0
  6
AUSGEZOGEN
 62
     3
 10
-49.0000000000001066
 20
144.999999999999801
 30
-0.0000000000000322
 11
-49.0000000000001066
 21
151.999999999999801
 31
-0.0000000000000338
210
0.0
220
1.0
230
-0.0000000000000002
  0
LINE
  5
286D
  8
0
  6
AUSGEZOGEN
 62
     3
 10
-35.4325202949733225
 20
151.999999999999801
 30
-0.0000000000000338
 11
-13.5674797050269298
 21
151.999999999999801
 31
-0.0000000000000338
210
0.0
220
1.0
230
-0.0000000000000002
  0
LINE
  5
286E
  8
0
  6
AUSGEZOGEN
 62
     3
 10
49.0
 20
151.999999999999801
 30
-0.0000000000000338
 11
50.5999999999999091
 21
151.999999999999801
 31
-0.0000000000000338
210
0.0
220
1.0
230
-0.0000000000000002
  0
LINE
  5
286F
  8
0
  6
AUSGEZOGEN
 62
     3
 10
-49.0000000000001066
 20
144.999999999999801
 30
-0.0000000000000322
 11
-50.6000000000001293
 21
144.999999999999801
 31
-0.0000000000000322
210
0.0
220
1.0
230
-0.0000000000000002
  0
LINE
  5
2870
  8
0
  6
AUSGEZOGEN
 62
     3
 10
50.5999999999999019
 20
159.9999999999998863
 30
-0.0000000000000355
 11
-50.6000000000001222
 21
159.9999999999998863
 31
-0.0000000000000355
210
0.0
220
1.0
230
-0.0000000000000002
  0
LINE
  5
2871
  8
0
  6
AUSGEZOGEN
 62
     3
 10
-54.0
 20
-0.0000000000000568
 30
0.0
 11
54.0
 21
0.0000000000000568
 31
0.0
210
0.0
220
1.0
230
-0.0000000000000002
  0
ARC
  5
2872
  8
0
  6
AUSGEZOGEN
 62
     3
 10
34.9999999999967883
 20
92.4685777299193177
 30
0.0
 40
15.6000000000034706
210
0.0
220
-0.0000000000000002
230
-1.0
 50
340.0000000000014779
 51
359.9999999999973852
  0
ARC
  5
2873
  8
0
  6
AUSGEZOGEN
 62
     3
 10
-34.9999999999961418
 20
92.4685777299194598
 30
0.0
 40
15.6000000000039005
210
0.0
220
-0.0000000000000002
230
-1.0
 50
180.0000000000027001
 51
199.9999999999980105
  0
LINE
  5
2874
  8
0
  6
AUSGEZOGEN
 62
     3
 10
-45.3443033089972687
 20
75.2779688488334955
 30
-0.0000000000000167
 11
-47.4524302439644785
 21
81.0700000000000358
 31
-0.000000000000018
210
0.0
220
1.0
230
-0.0000000000000002
  0
LINE
  5
2875
  8
0
  6
AUSGEZOGEN
 62
     3
 10
-47.9983855953637786
 20
82.5700000000000358
 30
-0.0000000000000183
 11
-49.6592048842603688
 21
87.1330634940380975
 31
-0.0000000000000193
210
0.0
220
1.0
230
-0.0000000000000002
  0
LINE
  5
2876
  8
0
  6
AUSGEZOGEN
 62
     3
 10
45.3443033089970626
 20
75.2779688488336092
 30
-0.0000000000000167
 11
47.4524302439642227
 21
81.0700000000000358
 31
-0.000000000000018
210
0.0
220
1.0
230
-0.0000000000000002
  0
LINE
  5
2877
  8
0
  6
AUSGEZOGEN
 62
     3
 10
47.9983855953635228
 20
82.5700000000000358
 30
-0.0000000000000183
 11
49.6592048842601272
 21
87.1330634940381969
 31
-0.0000000000000193
210
0.0
220
1.0
230
-0.0000000000000002
  0
ARC
  5
2878
  8
0
  6
AUSGEZOGEN
 62
     3
 10
58.5000000000016414
 20
70.489686842273926
 30
0.0
 40
14.0000000000016094
210
0.0
220
-0.0000000000000002
230
-1.0
 50
160.0000000000013927
 51
179.9999999999984084
  0
ARC
  5
2879
  8
0
  6
AUSGEZOGEN
 62
     3
 10
-58.5000000000016414
 20
70.4896868422739971
 30
0.0
 40
14.0000000000018296
210
0.0
220
-0.0000000000000002
230
-1.0
 50
0.0000000000016921
 51
19.9999999999983586
  0
LINE
  5
287A
  8
0
  6
AUSGEZOGEN
 62
     3
 10
44.4999999999997584
 20
70.4896868422744092
 30
-0.0000000000000157
 11
44.4999999999997797
 21
43.8517363838709997
 31
-0.0000000000000097
210
0.0
220
1.0
230
-0.0000000000000002
  0
LINE
  5
287B
  8
0
  6
AUSGEZOGEN
 62
     3
 10
-44.5000000000000071
 20
70.4896868422743097
 30
-0.0000000000000157
 11
-44.4999999999999787
 21
43.8517363838709002
 31
-0.0000000000000097
210
0.0
220
1.0
230
-0.0000000000000002
  0
ARC
  5
287C
  8
0
  6
AUSGEZOGEN
 62
     3
 10
58.4999999999956231
 20
43.8517363838700831
 30
0.0
 40
13.9999999999955609
210
0.0
220
-0.0000000000000002
230
-1.0
 50
179.9999999999965894
 51
200.000000000002899
  0
ARC
  5
287D
  8
0
  6
AUSGEZOGEN
 62
     3
 10
-58.4999999999949409
 20
43.8517363838700902
 30
0.0
 40
13.9999999999951097
210
0.0
220
-0.0000000000000002
230
-1.0
 50
339.9999999999964757
 51
0.000000000003664
  0
LINE
  5
287E
  8
0
  6
AUSGEZOGEN
 62
     3
 10
45.3443033089971834
 20
39.0634543773116221
 30
-0.0000000000000087
 11
53.0592048842602892
 21
17.866936505961899
 31
-0.000000000000004
210
0.0
220
1.0
230
-0.0000000000000002
  0
LINE
  5
287F
  8
0
  6
AUSGEZOGEN
 62
     3
 10
-45.3443033089972118
 20
39.0634543773115226
 30
-0.0000000000000087
 11
-53.0592048842602821
 21
17.8669365059617817
 31
-0.000000000000004
210
0.0
220
1.0
230
-0.0000000000000002
  0
ARC
  5
2880
  8
0
  6
AUSGEZOGEN
 62
     3
 10
38.3999999999971493
 20
12.5314222700813502
 30
0.0
 40
15.6000000000028205
210
0.0
220
-0.0000000000000002
230
-1.0
 50
0.0000000000004198
 51
19.999999999996291
  0
ARC
  5
2881
  8
0
  6
AUSGEZOGEN
 62
     3
 10
-38.3999999999971209
 20
12.5314222700814106
 30
0.0
 40
15.6000000000028596
210
0.0
220
-0.0000000000000002
230
-1.0
 50
160.0000000000036096
 51
179.9999999999994031
  0
LINE
  5
2882
  8
0
  6
AUSGEZOGEN
 62
     3
 10
53.9999999999999929
 20
12.5314222700815705
 30
-0.0000000000000028
 11
54.0000000000000071
 21
0.000000000000048
 31
0.0
210
0.0
220
1.0
230
-0.0000000000000002
  0
LINE
  5
2883
  8
0
  6
AUSGEZOGEN
 62
     3
 10
-54.0000000000000071
 20
12.5314222700814693
 30
-0.0000000000000028
 11
-53.9999999999999929
 21
-0.0000000000000284
 31
0.0
210
0.0
220
1.0
230
-0.0000000000000002
  0
LINE
  5
2884
  8
0
  6
AUSGEZOGEN
 62
     3
 10
50.5999999999999801
 20
159.999999999999801
 30
-0.0000000000000355
 11
50.5999999999999801
 21
151.999999999999801
 31
-0.0000000000000338
210
0.0
220
1.0
230
-0.0000000000000002
  0
LINE
  5
2885
  8
0
  6
AUSGEZOGEN
 62
     3
 10
50.5999999999999872
 20
144.999999999999801
 30
-0.0000000000000322
 11
50.6000000000000369
 21
92.4685777299187066
 31
-0.0000000000000205
210
0.0
220
1.0
230
-0.0000000000000002
  0
LINE
  5
2886
  8
0
  6
AUSGEZOGEN
 62
     3
 10
-50.6000000000002927
 20
159.9999999999998863
 30
-0.0000000000000355
 11
-50.6000000000002785
 21
151.999999999999801
 31
-0.0000000000000338
210
0.0
220
1.0
230
-0.0000000000000002
  0
LINE
  5
2887
  8
0
  6
AUSGEZOGEN
 62
     3
 10
-50.6000000000002785
 20
144.999999999999801
 30
-0.0000000000000322
 11
-50.6000000000002288
 21
92.4685777299186071
 31
-0.0000000000000205
210
0.0
220
1.0
230
-0.0000000000000002
  0
LINE
  5
2888
  8
0
  6
AUSGEZOGEN
 62
     3
 10
43.2527355812500218
 20
82.5700000000000358
 30
-0.0000000000000183
 11
33.6601938457108716
 21
82.5700000000000358
 31
-0.0000000000000183
210
0.0
220
1.0
230
-0.0000000000000002
  0
LINE
  5
2889
  8
0
  6
AUSGEZOGEN
 62
     3
 10
43.2527355812500218
 20
81.0700000000000358
 30
-0.000000000000018
 11
33.6601938457108716
 21
81.0700000000000358
 31
-0.000000000000018
210
0.0
220
1.0
230
-0.0000000000000002
  0
LINE
  5
288A
  8
0
  6
AUSGEZOGEN
 62
     3
 10
43.2527355812500218
 20
82.5700000000000358
 30
-0.0000000000000183
 11
44.0982044914694598
 21
82.5700000000000358
 31
-0.0000000000000183
210
0.0
220
1.0
230
-0.0000000000000002
  0
LINE
  5
288B
  8
0
  6
AUSGEZOGEN
 62
     3
 10
43.2527355812500218
 20
81.0700000000000358
 30
-0.000000000000018
 11
44.0982044914694598
 21
81.0700000000000358
 31
-0.000000000000018
210
0.0
220
1.0
230
-0.0000000000000002
  0
LINE
  5
288C
  8
0
  6
AUSGEZOGEN
 62
     3
 10
44.0982044914695095
 20
82.5700000000000358
 30
-0.0000000000000183
 11
46.3826299451474071
 21
82.5700000000000358
 31
-0.0000000000000183
210
0.0
220
1.0
230
-0.0000000000000002
  0
LINE
  5
288D
  8
0
  6
AUSGEZOGEN
 62
     3
 10
44.0982044914695095
 20
81.0700000000000358
 30
-0.000000000000018
 11
46.3826299451474071
 21
81.0700000000000358
 31
-0.000000000000018
210
0.0
220
1.0
230
-0.0000000000000002
  0
LINE
  5
288E
  8
0
  6
AUSGEZOGEN
 62
     3
 10
46.3826299451474213
 20
82.5700000000000358
 30
-0.0000000000000183
 11
46.657901352254612
 21
82.5700000000000358
 31
-0.0000000000000183
210
0.0
220
1.0
230
-0.0000000000000002
  0
LINE
  5
288F
  8
0
  6
AUSGEZOGEN
 62
     3
 10
46.3826299451474213
 20
81.0700000000000358
 30
-0.000000000000018
 11
46.657901352254612
 21
81.0700000000000358
 31
-0.000000000000018
210
0.0
220
1.0
230
-0.0000000000000002
  0
LINE
  5
2890
  8
0
  6
AUSGEZOGEN
 62
     3
 10
55.550075949870461
 20
82.5700000000000358
 30
-0.0000000000000183
 11
46.657901352254612
 21
82.5700000000000358
 31
-0.0000000000000183
210
0.0
220
1.0
230
-0.0000000000000002
  0
LINE
  5
2891
  8
0
  6
AUSGEZOGEN
 62
     3
 10
55.550075949870461
 20
81.0700000000000358
 30
-0.000000000000018
 11
46.657901352254612
 21
81.0700000000000358
 31
-0.000000000000018
210
0.0
220
1.0
230
-0.0000000000000002
  0
LINE
  5
2892
  8
0
  6
AUSGEZOGEN
 62
     3
 10
55.5500759498704682
 20
82.5700000000000358
 30
-0.0000000000000183
 11
56.2729056353831467
 21
82.5700000000000358
 31
-0.0000000000000183
210
0.0
220
1.0
230
-0.0000000000000002
  0
LINE
  5
2893
  8
0
  6
AUSGEZOGEN
 62
     3
 10
55.5500759498704682
 20
81.0700000000000358
 30
-0.000000000000018
 11
56.2729056353831467
 21
81.0700000000000358
 31
-0.000000000000018
210
0.0
220
1.0
230
-0.0000000000000002
  0
LINE
  5
2894
  8
0
  6
AUSGEZOGEN
 62
     3
 10
56.2729056353831467
 20
82.5700000000000358
 30
-0.0000000000000183
 11
57.7395970615249396
 21
82.5700000000000358
 31
-0.0000000000000183
210
0.0
220
1.0
230
-0.0000000000000002
  0
LINE
  5
2895
  8
0
  6
AUSGEZOGEN
 62
     3
 10
56.2729056353831467
 20
81.0700000000000358
 30
-0.000000000000018
 11
57.7395970615249396
 21
81.0700000000000358
 31
-0.000000000000018
210
0.0
220
1.0
230
-0.0000000000000002
  0
LINE
  5
2896
  8
0
  6
AUSGEZOGEN
 62
     3
 10
57.7395970615249325
 20
82.5700000000000358
 30
-0.0000000000000183
 11
57.8374158574386001
 21
82.5700000000000358
 31
-0.0000000000000183
210
0.0
220
1.0
230
-0.0000000000000002
  0
LINE
  5
2897
  8
0
  6
AUSGEZOGEN
 62
     3
 10
57.7395970615249325
 20
81.0700000000000358
 30
-0.000000000000018
 11
57.8374158574386001
 21
81.0700000000000358
 31
-0.000000000000018
210
0.0
220
1.0
230
-0.0000000000000002
  0
LINE
  5
2898
  8
0
  6
AUSGEZOGEN
 62
     3
 10
62.4097878443800482
 20
82.5700000000000358
 30
-0.0000000000000183
 11
57.8374158574386001
 21
82.5700000000000358
 31
-0.0000000000000183
210
0.0
220
1.0
230
-0.0000000000000002
  0
LINE
  5
2899
  8
0
  6
AUSGEZOGEN
 62
     3
 10
62.4097878443800482
 20
81.0700000000000358
 30
-0.000000000000018
 11
57.8374158574386001
 21
81.0700000000000358
 31
-0.000000000000018
210
0.0
220
1.0
230
-0.0000000000000002
  0
LINE
  5
289A
  8
0
  6
AUSGEZOGEN
 62
     3
 10
62.4097878443800482
 20
82.5700000000000358
 30
-0.0000000000000183
 11
62.9392226993173765
 21
82.5700000000000358
 31
-0.0000000000000183
210
0.0
220
1.0
230
-0.0000000000000002
  0
LINE
  5
289B
  8
0
  6
AUSGEZOGEN
 62
     3
 10
62.4097878443800482
 20
81.0700000000000358
 30
-0.000000000000018
 11
62.9392226993173765
 21
81.0700000000000358
 31
-0.000000000000018
210
0.0
220
1.0
230
-0.0000000000000002
  0
LINE
  5
289C
  8
0
  6
AUSGEZOGEN
 62
     3
 10
62.9392226993173765
 20
82.5700000000000358
 30
-0.0000000000000183
 11
63.4446101220921719
 21
82.5700000000000358
 31
-0.0000000000000183
210
0.0
220
1.0
230
-0.0000000000000002
  0
LINE
  5
289D
  8
0
  6
AUSGEZOGEN
 62
     3
 10
62.9392226993173765
 20
81.0700000000000358
 30
-0.000000000000018
 11
63.4446101220921719
 21
81.0700000000000358
 31
-0.000000000000018
210
0.0
220
1.0
230
-0.0000000000000002
  0
LINE
  5
289E
  8
0
  6
AUSGEZOGEN
 62
     3
 10
63.4446101220921719
 20
82.5700000000000358
 30
-0.0000000000000183
 11
63.4532880889344071
 21
82.5700000000000358
 31
-0.0000000000000183
210
0.0
220
1.0
230
-0.0000000000000002
  0
LINE
  5
289F
  8
0
  6
AUSGEZOGEN
 62
     3
 10
63.4446101220921719
 20
81.0700000000000358
 30
-0.000000000000018
 11
63.4532880889344071
 21
81.0700000000000358
 31
-0.000000000000018
210
0.0
220
1.0
230
-0.0000000000000002
  0
LINE
  5
28A0
  8
0
  6
AUSGEZOGEN
 62
     3
 10
-63.45328808893521
 20
82.5700000000000358
 30
-0.0000000000000183
 11
-63.4446101220929108
 21
82.5700000000000358
 31
-0.0000000000000183
210
0.0
220
1.0
230
-0.0000000000000002
  0
LINE
  5
28A1
  8
0
  6
AUSGEZOGEN
 62
     3
 10
-63.45328808893521
 20
81.0700000000000358
 30
-0.000000000000018
 11
-63.4446101220929108
 21
81.0700000000000358
 31
-0.000000000000018
210
0.0
220
1.0
230
-0.0000000000000002
  0
LINE
  5
28A2
  8
0
  6
AUSGEZOGEN
 62
     3
 10
-63.4446101220929108
 20
82.5700000000000358
 30
-0.0000000000000183
 11
-62.9392226993181225
 21
82.5700000000000358
 31
-0.0000000000000183
210
0.0
220
1.0
230
-0.0000000000000002
  0
LINE
  5
28A3
  8
0
  6
AUSGEZOGEN
 62
     3
 10
-63.4446101220929108
 20
81.0700000000000358
 30
-0.000000000000018
 11
-62.9392226993181225
 21
81.0700000000000358
 31
-0.000000000000018
210
0.0
220
1.0
230
-0.0000000000000002
  0
LINE
  5
28A4
  8
0
  6
AUSGEZOGEN
 62
     3
 10
-62.9392226993180586
 20
82.5700000000000358
 30
-0.0000000000000183
 11
-62.4097878443809009
 21
82.5700000000000358
 31
-0.0000000000000183
210
0.0
220
1.0
230
-0.0000000000000002
  0
LINE
  5
28A5
  8
0
  6
AUSGEZOGEN
 62
     3
 10
-62.9392226993180586
 20
81.0700000000000358
 30
-0.000000000000018
 11
-62.4097878443809009
 21
81.0700000000000358
 31
-0.000000000000018
210
0.0
220
1.0
230
-0.0000000000000002
  0
LINE
  5
28A6
  8
0
  6
AUSGEZOGEN
 62
     3
 10
-57.8374158574392823
 20
82.5700000000000358
 30
-0.0000000000000183
 11
-62.4097878443809009
 21
82.5700000000000358
 31
-0.0000000000000183
210
0.0
220
1.0
230
-0.0000000000000002
  0
LINE
  5
28A7
  8
0
  6
AUSGEZOGEN
 62
     3
 10
-57.8374158574392823
 20
81.0700000000000358
 30
-0.000000000000018
 11
-62.4097878443809009
 21
81.0700000000000358
 31
-0.000000000000018
210
0.0
220
1.0
230
-0.0000000000000002
  0
LINE
  5
28A8
  8
0
  6
AUSGEZOGEN
 62
     3
 10
-57.8374158574392823
 20
82.5700000000000358
 30
-0.0000000000000183
 11
-57.7395970615256076
 21
82.5700000000000358
 31
-0.0000000000000183
210
0.0
220
1.0
230
-0.0000000000000002
  0
LINE
  5
28A9
  8
0
  6
AUSGEZOGEN
 62
     3
 10
-57.8374158574392823
 20
81.0700000000000358
 30
-0.000000000000018
 11
-57.7395970615256076
 21
81.0700000000000358
 31
-0.000000000000018
210
0.0
220
1.0
230
-0.0000000000000002
  0
LINE
  5
28AA
  8
0
  6
AUSGEZOGEN
 62
     3
 10
-57.7395970615256218
 20
82.5700000000000358
 30
-0.0000000000000183
 11
-56.2729056353838999
 21
82.5700000000000358
 31
-0.0000000000000183
210
0.0
220
1.0
230
-0.0000000000000002
  0
LINE
  5
28AB
  8
0
  6
AUSGEZOGEN
 62
     3
 10
-57.7395970615256218
 20
81.0700000000000358
 30
-0.000000000000018
 11
-56.2729056353838999
 21
81.0700000000000358
 31
-0.000000000000018
210
0.0
220
1.0
230
-0.0000000000000002
  0
LINE
  5
28AC
  8
0
  6
AUSGEZOGEN
 62
     3
 10
-56.2729056353838786
 20
82.5700000000000358
 30
-0.0000000000000183
 11
-55.5500759498712
 21
82.5700000000000358
 31
-0.0000000000000183
210
0.0
220
1.0
230
-0.0000000000000002
  0
LINE
  5
28AD
  8
0
  6
AUSGEZOGEN
 62
     3
 10
-56.2729056353838786
 20
81.0700000000000358
 30
-0.000000000000018
 11
-55.5500759498712
 21
81.0700000000000358
 31
-0.000000000000018
210
0.0
220
1.0
230
-0.0000000000000002
  0
LINE
  5
28AE
  8
0
  6
AUSGEZOGEN
 62
     3
 10
-46.6579013522551804
 20
82.5700000000000358
 30
-0.0000000000000183
 11
-55.5500759498712
 21
82.5700000000000358
 31
-0.0000000000000183
210
0.0
220
1.0
230
-0.0000000000000002
  0
LINE
  5
28AF
  8
0
  6
AUSGEZOGEN
 62
     3
 10
-46.6579013522551804
 20
81.0700000000000358
 30
-0.000000000000018
 11
-55.5500759498712
 21
81.0700000000000358
 31
-0.000000000000018
210
0.0
220
1.0
230
-0.0000000000000002
  0
LINE
  5
28B0
  8
0
  6
AUSGEZOGEN
 62
     3
 10
-46.6579013522551875
 20
82.5700000000000358
 30
-0.0000000000000183
 11
-46.3826299451481034
 21
82.5700000000000358
 31
-0.0000000000000183
210
0.0
220
1.0
230
-0.0000000000000002
  0
LINE
  5
28B1
  8
0
  6
AUSGEZOGEN
 62
     3
 10
-46.6579013522551875
 20
81.0700000000000358
 30
-0.000000000000018
 11
-46.3826299451481034
 21
81.0700000000000358
 31
-0.000000000000018
210
0.0
220
1.0
230
-0.0000000000000002
  0
LINE
  5
28B2
  8
0
  6
AUSGEZOGEN
 62
     3
 10
-46.3826299451480892
 20
82.5700000000000358
 30
-0.0000000000000183
 11
-44.0982044914701419
 21
82.5700000000000358
 31
-0.0000000000000183
210
0.0
220
1.0
230
-0.0000000000000002
  0
LINE
  5
28B3
  8
0
  6
AUSGEZOGEN
 62
     3
 10
-46.3826299451480892
 20
81.0700000000000358
 30
-0.000000000000018
 11
-44.0982044914701419
 21
81.0700000000000358
 31
-0.000000000000018
210
0.0
220
1.0
230
-0.0000000000000002
  0
LINE
  5
28B4
  8
0
  6
AUSGEZOGEN
 62
     3
 10
-44.0982044914701774
 20
82.5700000000000358
 30
-0.0000000000000183
 11
-43.2527355812506968
 21
82.5700000000000358
 31
-0.0000000000000183
210
0.0
220
1.0
230
-0.0000000000000002
  0
LINE
  5
28B5
  8
0
  6
AUSGEZOGEN
 62
     3
 10
-44.0982044914701774
 20
81.0700000000000358
 30
-0.000000000000018
 11
-43.2527355812506968
 21
81.0700000000000358
 31
-0.000000000000018
210
0.0
220
1.0
230
-0.0000000000000002
  0
LINE
  5
28B6
  8
0
  6
AUSGEZOGEN
 62
     3
 10
-33.6601938457115466
 20
82.5700000000000358
 30
-0.0000000000000183
 11
-43.2527355812506968
 21
82.5700000000000358
 31
-0.0000000000000183
210
0.0
220
1.0
230
-0.0000000000000002
  0
LINE
  5
28B7
  8
0
  6
AUSGEZOGEN
 62
     3
 10
-33.6601938457115466
 20
81.0700000000000358
 30
-0.000000000000018
 11
-43.2527355812506968
 21
81.0700000000000358
 31
-0.000000000000018
210
0.0
220
1.0
230
-0.0000000000000002
  0
LINE
  5
28B8
  8
0
  6
AUSGEZOGEN
 62
     3
 10
-32.5160710400762127
 20
82.5700000000000358
 30
-0.0000000000000183
 11
-33.6601938457115466
 21
82.5700000000000358
 31
-0.0000000000000183
210
0.0
220
1.0
230
-0.0000000000000002
  0
LINE
  5
28B9
  8
0
  6
AUSGEZOGEN
 62
     3
 10
-32.5160710400762127
 20
81.0700000000000358
 30
-0.000000000000018
 11
-33.6601938457115466
 21
81.0700000000000358
 31
-0.000000000000018
210
0.0
220
1.0
230
-0.0000000000000002
  0
LINE
  5
28BA
  8
0
  6
AUSGEZOGEN
 62
     3
 10
-30.9967616860030297
 20
82.5700000000000358
 30
-0.0000000000000183
 11
-32.5160710400762127
 21
82.5700000000000358
 31
-0.0000000000000183
210
0.0
220
1.0
230
-0.0000000000000002
  0
LINE
  5
28BB
  8
0
  6
AUSGEZOGEN
 62
     3
 10
-30.9967616860030297
 20
81.0700000000000358
 30
-0.000000000000018
 11
-32.5160710400762127
 21
81.0700000000000358
 31
-0.000000000000018
210
0.0
220
1.0
230
-0.0000000000000002
  0
LINE
  5
28BC
  8
0
  6
AUSGEZOGEN
 62
     3
 10
-30.9967616860030013
 20
82.5700000000000358
 30
-0.0000000000000183
 11
-30.4854078429540287
 21
82.5700000000000358
 31
-0.0000000000000183
210
0.0
220
1.0
230
-0.0000000000000002
  0
LINE
  5
28BD
  8
0
  6
AUSGEZOGEN
 62
     3
 10
-30.9967616860030013
 20
81.0700000000000358
 30
-0.000000000000018
 11
-30.4854078429540287
 21
81.0700000000000358
 31
-0.000000000000018
210
0.0
220
1.0
230
-0.0000000000000002
  0
LINE
  5
28BE
  8
0
  6
AUSGEZOGEN
 62
     3
 10
-30.4854078429540287
 20
82.5700000000000358
 30
-0.0000000000000183
 11
-27.6068638416738885
 21
82.5700000000000358
 31
-0.0000000000000183
210
0.0
220
1.0
230
-0.0000000000000002
  0
LINE
  5
28BF
  8
0
  6
AUSGEZOGEN
 62
     3
 10
-30.4854078429540287
 20
81.0700000000000358
 30
-0.000000000000018
 11
-27.6068638416738885
 21
81.0700000000000358
 31
-0.000000000000018
210
0.0
220
1.0
230
-0.0000000000000002
  0
LINE
  5
28C0
  8
0
  6
AUSGEZOGEN
 62
     3
 10
-27.6068638416738708
 20
82.5700000000000358
 30
-0.0000000000000183
 11
-26.7215160944082299
 21
82.5700000000000358
 31
-0.0000000000000183
210
0.0
220
1.0
230
-0.0000000000000002
  0
LINE
  5
28C1
  8
0
  6
AUSGEZOGEN
 62
     3
 10
-27.6068638416738708
 20
81.0700000000000358
 30
-0.000000000000018
 11
-26.7215160944082299
 21
81.0700000000000358
 31
-0.000000000000018
210
0.0
220
1.0
230
-0.0000000000000002
  0
LINE
  5
28C2
  8
0
  6
AUSGEZOGEN
 62
     3
 10
-18.067959179111881
 20
82.5700000000000358
 30
-0.0000000000000183
 11
-26.7215160944082299
 21
82.5700000000000358
 31
-0.0000000000000183
210
0.0
220
1.0
230
-0.0000000000000002
  0
LINE
  5
28C3
  8
0
  6
AUSGEZOGEN
 62
     3
 10
-18.067959179111881
 20
81.0700000000000358
 30
-0.000000000000018
 11
-26.7215160944082299
 21
81.0700000000000358
 31
-0.000000000000018
210
0.0
220
1.0
230
-0.0000000000000002
  0
LINE
  5
28C4
  8
0
  6
AUSGEZOGEN
 62
     3
 10
-16.7229621551839998
 20
82.5700000000000358
 30
-0.0000000000000183
 11
-18.0679591791119485
 21
82.5700000000000358
 31
-0.0000000000000183
210
0.0
220
1.0
230
-0.0000000000000002
  0
LINE
  5
28C5
  8
0
  6
AUSGEZOGEN
 62
     3
 10
-16.7229621551839998
 20
81.0700000000000358
 30
-0.000000000000018
 11
-18.0679591791119485
 21
81.0700000000000358
 31
-0.000000000000018
210
0.0
220
1.0
230
-0.0000000000000002
  0
LINE
  5
28C6
  8
0
  6
AUSGEZOGEN
 62
     3
 10
-12.31375467819203
 20
82.5700000000000358
 30
-0.0000000000000183
 11
-16.7229621551839998
 21
82.5700000000000358
 31
-0.0000000000000183
210
0.0
220
1.0
230
-0.0000000000000002
  0
LINE
  5
28C7
  8
0
  6
AUSGEZOGEN
 62
     3
 10
-12.31375467819203
 20
81.0700000000000358
 30
-0.000000000000018
 11
-16.7229621551839998
 21
81.0700000000000358
 31
-0.000000000000018
210
0.0
220
1.0
230
-0.0000000000000002
  0
LINE
  5
28C8
  8
0
  6
AUSGEZOGEN
 62
     3
 10
-12.31375467819203
 20
82.5700000000000358
 30
-0.0000000000000183
 11
-11.6040616167656498
 21
82.5700000000000358
 31
-0.0000000000000183
210
0.0
220
1.0
230
-0.0000000000000002
  0
LINE
  5
28C9
  8
0
  6
AUSGEZOGEN
 62
     3
 10
-12.31375467819203
 20
81.0700000000000358
 30
-0.000000000000018
 11
-11.6040616167656498
 21
81.0700000000000358
 31
-0.000000000000018
210
0.0
220
1.0
230
-0.0000000000000002
  0
LINE
  5
28CA
  8
0
  6
AUSGEZOGEN
 62
     3
 10
-11.6040616167656498
 20
82.57000000000005
 30
-0.0000000000000183
 11
-8.4131710107240014
 21
82.57000000000005
 31
-0.0000000000000183
210
0.0
220
1.0
230
-0.0000000000000002
  0
LINE
  5
28CB
  8
0
  6
AUSGEZOGEN
 62
     3
 10
-11.6040616167656498
 20
81.0700000000000358
 30
-0.000000000000018
 11
-8.4131710107240014
 21
81.0700000000000358
 31
-0.000000000000018
210
0.0
220
1.0
230
-0.0000000000000002
  0
LINE
  5
28CC
  8
0
  6
AUSGEZOGEN
 62
     3
 10
-8.4131710107239979
 20
82.5700000000000358
 30
-0.0000000000000183
 11
-7.5746084324948688
 21
82.5700000000000358
 31
-0.0000000000000183
210
0.0
220
1.0
230
-0.0000000000000002
  0
LINE
  5
28CD
  8
0
  6
AUSGEZOGEN
 62
     3
 10
-8.4131710107239979
 20
81.0700000000000358
 30
-0.000000000000018
 11
-7.5746084324948688
 21
81.0700000000000358
 31
-0.000000000000018
210
0.0
220
1.0
230
-0.0000000000000002
  0
LINE
  5
28CE
  8
0
  6
AUSGEZOGEN
 62
     3
 10
-0.7071067811868943
 20
82.5700000000000358
 30
-0.0000000000000183
 11
-7.5746084324948688
 21
82.5700000000000358
 31
-0.0000000000000183
210
0.0
220
1.0
230
-0.0000000000000002
  0
LINE
  5
28CF
  8
0
  6
AUSGEZOGEN
 62
     3
 10
-0.7071067811868943
 20
81.0700000000000358
 30
-0.000000000000018
 11
-7.5746084324948688
 21
81.0700000000000358
 31
-0.000000000000018
210
0.0
220
1.0
230
-0.0000000000000002
  0
LINE
  5
28D0
  8
0
  6
AUSGEZOGEN
 62
     3
 10
0.7071067811862122
 20
82.5700000000000358
 30
-0.0000000000000183
 11
-0.7071067811868943
 21
82.5700000000000358
 31
-0.0000000000000183
210
0.0
220
1.0
230
-0.0000000000000002
  0
LINE
  5
28D1
  8
0
  6
AUSGEZOGEN
 62
     3
 10
0.7071067811862122
 20
81.0700000000000358
 30
-0.000000000000018
 11
-0.7071067811868943
 21
81.0700000000000358
 31
-0.000000000000018
210
0.0
220
1.0
230
-0.0000000000000002
  0
LINE
  5
28D2
  8
0
  6
AUSGEZOGEN
 62
     3
 10
7.574608432494073
 20
82.5700000000000358
 30
-0.0000000000000183
 11
0.7071067811862122
 21
82.5700000000000358
 31
-0.0000000000000183
210
0.0
220
1.0
230
-0.0000000000000002
  0
LINE
  5
28D3
  8
0
  6
AUSGEZOGEN
 62
     3
 10
7.574608432494073
 20
81.0700000000000358
 30
-0.000000000000018
 11
0.7071067811862122
 21
81.0700000000000358
 31
-0.000000000000018
210
0.0
220
1.0
230
-0.0000000000000002
  0
LINE
  5
28D4
  8
0
  6
AUSGEZOGEN
 62
     3
 10
7.5746084324940854
 20
82.5700000000000358
 30
-0.0000000000000183
 11
8.4131710107232038
 21
82.5700000000000358
 31
-0.0000000000000183
210
0.0
220
1.0
230
-0.0000000000000002
  0
LINE
  5
28D5
  8
0
  6
AUSGEZOGEN
 62
     3
 10
7.5746084324940854
 20
81.0700000000000358
 30
-0.000000000000018
 11
8.4131710107232038
 21
81.0700000000000358
 31
-0.000000000000018
210
0.0
220
1.0
230
-0.0000000000000002
  0
LINE
  5
28D6
  8
0
  6
AUSGEZOGEN
 62
     3
 10
8.4131710107232056
 20
82.57000000000005
 30
-0.0000000000000183
 11
11.6040616167648505
 21
82.57000000000005
 31
-0.0000000000000183
210
0.0
220
1.0
230
-0.0000000000000002
  0
LINE
  5
28D7
  8
0
  6
AUSGEZOGEN
 62
     3
 10
8.4131710107232056
 20
81.0700000000000358
 30
-0.000000000000018
 11
11.6040616167648505
 21
81.0700000000000358
 31
-0.000000000000018
210
0.0
220
1.0
230
-0.0000000000000002
  0
LINE
  5
28D8
  8
0
  6
AUSGEZOGEN
 62
     3
 10
11.6040616167648505
 20
82.5700000000000358
 30
-0.0000000000000183
 11
12.3137546781912892
 21
82.5700000000000358
 31
-0.0000000000000183
210
0.0
220
1.0
230
-0.0000000000000002
  0
LINE
  5
28D9
  8
0
  6
AUSGEZOGEN
 62
     3
 10
11.6040616167648505
 20
81.0700000000000358
 30
-0.000000000000018
 11
12.3137546781912892
 21
81.0700000000000358
 31
-0.000000000000018
210
0.0
220
1.0
230
-0.0000000000000002
  0
LINE
  5
28DA
  8
0
  6
AUSGEZOGEN
 62
     3
 10
16.7229621551832714
 20
82.5700000000000358
 30
-0.0000000000000183
 11
12.3137546781912892
 21
82.5700000000000358
 31
-0.0000000000000183
210
0.0
220
1.0
230
-0.0000000000000002
  0
LINE
  5
28DB
  8
0
  6
AUSGEZOGEN
 62
     3
 10
16.7229621551832714
 20
81.0700000000000358
 30
-0.000000000000018
 11
12.3137546781912892
 21
81.0700000000000358
 31
-0.000000000000018
210
0.0
220
1.0
230
-0.0000000000000002
  0
LINE
  5
28DC
  8
0
  6
AUSGEZOGEN
 62
     3
 10
18.0679591791111989
 20
82.5700000000000358
 30
-0.0000000000000183
 11
16.7229621551832892
 21
82.5700000000000358
 31
-0.0000000000000183
210
0.0
220
1.0
230
-0.0000000000000002
  0
LINE
  5
28DD
  8
0
  6
AUSGEZOGEN
 62
     3
 10
18.0679591791111989
 20
81.0700000000000358
 30
-0.000000000000018
 11
16.7229621551832892
 21
81.0700000000000358
 31
-0.000000000000018
210
0.0
220
1.0
230
-0.0000000000000002
  0
LINE
  5
28DE
  8
0
  6
AUSGEZOGEN
 62
     3
 10
26.721516094407491
 20
82.5700000000000358
 30
-0.0000000000000183
 11
18.0679591791111989
 21
82.5700000000000358
 31
-0.0000000000000183
210
0.0
220
1.0
230
-0.0000000000000002
  0
LINE
  5
28DF
  8
0
  6
AUSGEZOGEN
 62
     3
 10
26.721516094407491
 20
81.0700000000000358
 30
-0.000000000000018
 11
18.0679591791111989
 21
81.0700000000000358
 31
-0.000000000000018
210
0.0
220
1.0
230
-0.0000000000000002
  0
LINE
  5
28E0
  8
0
  6
AUSGEZOGEN
 62
     3
 10
26.7215160944075016
 20
82.5700000000000358
 30
-0.0000000000000183
 11
27.6068638416731993
 21
82.5700000000000358
 31
-0.0000000000000183
210
0.0
220
1.0
230
-0.0000000000000002
  0
LINE
  5
28E1
  8
0
  6
AUSGEZOGEN
 62
     3
 10
26.7215160944075016
 20
81.0700000000000358
 30
-0.000000000000018
 11
27.6068638416731993
 21
81.0700000000000358
 31
-0.000000000000018
210
0.0
220
1.0
230
-0.0000000000000002
  0
LINE
  5
28E2
  8
0
  6
AUSGEZOGEN
 62
     3
 10
27.6068638416731993
 20
82.5700000000000358
 30
-0.0000000000000183
 11
30.4854078429534106
 21
82.5700000000000358
 31
-0.0000000000000183
210
0.0
220
1.0
230
-0.0000000000000002
  0
LINE
  5
28E3
  8
0
  6
AUSGEZOGEN
 62
     3
 10
27.6068638416731993
 20
81.0700000000000358
 30
-0.000000000000018
 11
30.4854078429534106
 21
81.0700000000000358
 31
-0.000000000000018
210
0.0
220
1.0
230
-0.0000000000000002
  0
LINE
  5
28E4
  8
0
  6
AUSGEZOGEN
 62
     3
 10
30.4854078429534106
 20
82.5700000000000358
 30
-0.0000000000000183
 11
30.9967616860024009
 21
82.5700000000000358
 31
-0.0000000000000183
210
0.0
220
1.0
230
-0.0000000000000002
  0
LINE
  5
28E5
  8
0
  6
AUSGEZOGEN
 62
     3
 10
30.4854078429534106
 20
81.0700000000000358
 30
-0.000000000000018
 11
30.9967616860024009
 21
81.0700000000000358
 31
-0.000000000000018
210
0.0
220
1.0
230
-0.0000000000000002
  0
LINE
  5
28E6
  8
0
  6
AUSGEZOGEN
 62
     3
 10
32.5160710400755306
 20
82.5700000000000358
 30
-0.0000000000000183
 11
30.9967616860024009
 21
82.5700000000000358
 31
-0.0000000000000183
210
0.0
220
1.0
230
-0.0000000000000002
  0
LINE
  5
28E7
  8
0
  6
AUSGEZOGEN
 62
     3
 10
32.5160710400755306
 20
81.0700000000000358
 30
-0.000000000000018
 11
30.9967616860024009
 21
81.0700000000000358
 31
-0.000000000000018
210
0.0
220
1.0
230
-0.0000000000000002
  0
LINE
  5
28E8
  8
0
  6
AUSGEZOGEN
 62
     3
 10
33.6601938457108716
 20
82.5700000000000358
 30
-0.0000000000000183
 11
32.5160710400755377
 21
82.5700000000000358
 31
-0.0000000000000183
210
0.0
220
1.0
230
-0.0000000000000002
  0
LINE
  5
28E9
  8
0
  6
AUSGEZOGEN
 62
     3
 10
33.6601938457108716
 20
81.0700000000000358
 30
-0.000000000000018
 11
32.5160710400755377
 21
81.0700000000000358
 31
-0.000000000000018
210
0.0
220
1.0
230
-0.0000000000000002
  0
LINE
  5
28EA
  8
0
  6
AUSGEZOGEN
 62
     3
 10
46.6579013522545765
 20
82.5700000000000358
 30
-0.0000000000000183
 11
46.6579013522545765
 21
81.0700000000000358
 31
-0.000000000000018
210
0.0
220
1.0
230
-0.0000000000000002
  0
LINE
  5
28EB
  8
0
  6
AUSGEZOGEN
 62
     3
 10
57.8374158574386428
 20
82.5700000000000358
 30
-0.0000000000000183
 11
57.8374158574386428
 21
81.0700000000000358
 31
-0.000000000000018
210
0.0
220
1.0
230
-0.0000000000000002
  0
LINE
  5
28EC
  8
0
  6
AUSGEZOGEN
 62
     3
 10
63.4532880889344426
 20
82.5700000000000358
 30
-0.0000000000000183
 11
63.4532880889344426
 21
81.0700000000000358
 31
-0.000000000000018
210
0.0
220
1.0
230
-0.0000000000000002
  0
LINE
  5
28ED
  8
0
  6
AUSGEZOGEN
 62
     3
 10
-63.45328808893521
 20
82.5700000000000358
 30
-0.0000000000000183
 11
-63.45328808893521
 21
81.0700000000000358
 31
-0.000000000000018
210
0.0
220
1.0
230
-0.0000000000000002
  0
LINE
  5
28EE
  8
0
  6
AUSGEZOGEN
 62
     3
 10
-57.8374158574392823
 20
82.5700000000000358
 30
-0.0000000000000183
 11
-57.8374158574392823
 21
81.0700000000000358
 31
-0.000000000000018
210
0.0
220
1.0
230
-0.0000000000000002
  0
LINE
  5
28EF
  8
0
  6
AUSGEZOGEN
 62
     3
 10
-46.6579013522551733
 20
82.5700000000000358
 30
-0.0000000000000183
 11
-46.6579013522551733
 21
81.0700000000000358
 31
-0.000000000000018
210
0.0
220
1.0
230
-0.0000000000000002
  0
LINE
  5
28F0
  8
0
  6
VERDECKT
 62
     1
 10
46.9999999999996589
 20
152.0
 30
-0.0000000000000338
 11
46.9999999999996589
 21
145.0
 31
-0.0000000000000322
210
0.0
220
1.0
230
-0.0000000000000002
  0
LINE
  5
28F1
  8
0
  6
VERDECKT
 62
     1
 10
48.9999999999998792
 20
145.0
 30
-0.0000000000000322
 11
46.9999999999998792
 21
145.0
 31
-0.0000000000000322
210
0.0
220
1.0
230
-0.0000000000000002
  0
LINE
  5
28F2
  8
0
  6
VERDECKT
 62
     1
 10
46.9999999999998792
 20
152.0
 30
-0.0000000000000338
 11
48.9999999999998792
 21
152.0
 31
-0.0000000000000338
210
0.0
220
1.0
230
-0.0000000000000002
  0
LINE
  5
28F3
  8
0
  6
VERDECKT
 62
     1
 10
-11.5000000000017
 20
145.0
 30
-0.0000000000000322
 11
-11.5000000000017
 21
152.0
 31
-0.0000000000000338
210
0.0
220
1.0
230
-0.0000000000000002
  0
LINE
  5
28F4
  8
0
  6
VERDECKT
 62
     1
 10
-35.4999999999989768
 20
152.0
 30
-0.0000000000000338
 11
-35.4999999999989768
 21
145.0
 31
-0.0000000000000322
210
0.0
220
1.0
230
-0.0000000000000002
  0
LINE
  5
28F5
  8
0
  6
VERDECKT
 62
     1
 10
-13.5674797050269191
 20
152.0
 30
-0.0000000000000338
 11
-11.5000000000002292
 21
152.0
 31
-0.0000000000000338
210
0.0
220
1.0
230
-0.0000000000000002
  0
LINE
  5
28F6
  8
0
  6
VERDECKT
 62
     1
 10
-35.5
 20
152.0
 30
-0.0000000000000338
 11
-35.4325202949733082
 21
152.0
 31
-0.0000000000000338
210
0.0
220
1.0
230
-0.0000000000000002
  0
LINE
  5
28F7
  8
0
  6
VERDECKT
 62
     1
 10
-11.5000000000002292
 20
145.0
 30
-0.0000000000000322
 11
-13.5674797050269298
 21
145.0
 31
-0.0000000000000322
210
0.0
220
1.0
230
-0.0000000000000002
  0
LINE
  5
28F8
  8
0
  6
VERDECKT
 62
     1
 10
-35.4325202949733011
 20
145.0
 30
-0.0000000000000322
 11
-35.5
 21
145.0
 31
-0.0000000000000322
210
0.0
220
1.0
230
-0.0000000000000002
  0
LINE
  5
28F9
  8
0
  6
VERDECKT
 62
     1
 10
-47.0000000000003268
 20
145.0
 30
-0.0000000000000322
 11
-47.0000000000003268
 21
152.0
 31
-0.0000000000000338
210
0.0
220
1.0
230
-0.0000000000000002
  0
LINE
  5
28FA
  8
0
  6
VERDECKT
 62
     1
 10
-46.9999999999999929
 20
145.0
 30
-0.0000000000000322
 11
-49.0000000000001066
 21
145.0
 31
-0.0000000000000322
210
0.0
220
1.0
230
-0.0000000000000002
  0
LINE
  5
28FB
  8
0
  6
VERDECKT
 62
     1
 10
-49.0000000000001066
 20
152.0
 30
-0.0000000000000338
 11
-47.0
 21
152.0
 31
-0.0000000000000338
210
0.0
220
1.0
230
-0.0000000000000002
  0
LINE
  5
28FC
  8
0
  6
VERDECKT
 62
     1
 10
-47.4524302439644785
 20
81.0700000000000358
 30
-0.000000000000018
 11
-47.9983855953637786
 21
82.5700000000000358
 31
-0.0000000000000183
210
0.0
220
1.0
230
-0.0000000000000002
  0
LINE
  5
28FD
  8
0
  6
VERDECKT
 62
     1
 10
47.4524302439642227
 20
81.0700000000000358
 30
-0.000000000000018
 11
47.9983855953635228
 21
82.5700000000000358
 31
-0.0000000000000183
210
0.0
220
1.0
230
-0.0000000000000002
  0
LINE
  5
28FE
  8
0
  6
VERDECKT
 62
     1
 10
52.4000000000000909
 20
12.5314222700815705
 30
-0.0000000000000028
 11
52.4000000000000909
 21
0.0000000000000462
 31
0.0
210
0.0
220
1.0
230
-0.0000000000000002
  0
LINE
  5
28FF
  8
0
  6
VERDECKT
 62
     1
 10
-52.4000000000000909
 20
12.5314222700814693
 30
-0.0000000000000028
 11
-52.4000000000000909
 21
-0.0000000000000284
 31
0.0
210
0.0
220
1.0
230
-0.0000000000000002
  0
ARC
  5
2900
  8
0
  6
VERDECKT
 62
     1
 10
38.3999999999977106
 20
12.5314222700810909
 30
0.0
 40
14.0000000000023501
210
0.0
220
-0.0000000000000002
230
-1.0
 50
0.0000000000015521
 51
19.9999999999981313
  0
ARC
  5
2901
  8
0
  6
VERDECKT
 62
     1
 10
-38.3999999999976467
 20
12.5314222700811495
 30
0.0
 40
14.0000000000024105
210
0.0
220
-0.0000000000000002
230
-1.0
 50
160.0000000000017053
 51
179.9999999999982947
  0
LINE
  5
2902
  8
0
  6
VERDECKT
 62
     1
 10
43.840795115739823
 20
38.5162221479905895
 30
-0.0000000000000086
 11
51.5556966910028294
 21
17.3197042766409588
 31
-0.0000000000000038
210
0.0
220
1.0
230
-0.0000000000000002
  0
LINE
  5
2903
  8
0
  6
VERDECKT
 62
     1
 10
-43.8407951157398372
 20
38.51622214799049
 30
-0.0000000000000086
 11
-51.5556966910028081
 21
17.3197042766408416
 31
-0.0000000000000038
210
0.0
220
1.0
230
-0.0000000000000002
  0
ARC
  5
2904
  8
0
  6
VERDECKT
 62
     1
 10
58.5000000000003197
 20
43.8517363838707368
 30
0.0
 40
15.6000000000001702
210
0.0
220
-0.0000000000000002
230
-1.0
 50
179.9999999999994031
 51
199.9999999999990052
  0
ARC
  5
2905
  8
0
  6
VERDECKT
 62
     1
 10
-58.5
 20
43.8517363838708292
 30
0.0
 40
15.6000000000000796
210
0.0
220
-0.0000000000000002
230
-1.0
 50
340.0000000000006253
 51
0.0000000000005852
  0
LINE
  5
2906
  8
0
  6
VERDECKT
 62
     1
 10
42.8999999999998423
 20
70.4896868422744092
 30
-0.0000000000000157
 11
42.8999999999998707
 21
43.8517363838709997
 31
-0.0000000000000097
210
0.0
220
1.0
230
-0.0000000000000002
  0
LINE
  5
2907
  8
0
  6
VERDECKT
 62
     1
 10
-42.9000000000000981
 20
70.4896868422743097
 30
-0.0000000000000157
 11
-42.9000000000000767
 21
43.8517363838709002
 31
-0.0000000000000097
210
0.0
220
1.0
230
-0.0000000000000002
  0
ARC
  5
2908
  8
0
  6
VERDECKT
 62
     1
 10
58.499999999999531
 20
70.4896868422745513
 30
0.0
 40
15.5999999999993904
210
0.0
220
-0.0000000000000002
230
-1.0
 50
160.0000000000003126
 51
180.0000000000007958
  0
ARC
  5
2909
  8
0
  6
VERDECKT
 62
     1
 10
-58.4999999999990834
 20
70.4896868422746934
 30
0.0
 40
15.5999999999991701
210
0.0
220
-0.0000000000000002
230
-1.0
 50
359.99999999999892
 51
19.999999999999801
  0
LINE
  5
290A
  8
0
  6
VERDECKT
 62
     1
 10
-43.8407951157398728
 20
75.8252010781547057
 30
-0.0000000000000168
 11
-48.1556966910029516
 21
87.6802957233591229
 31
-0.0000000000000195
210
0.0
220
1.0
230
-0.0000000000000002
  0
LINE
  5
290B
  8
0
  6
VERDECKT
 62
     1
 10
43.8407951157396596
 20
75.8252010781548051
 30
-0.0000000000000168
 11
48.1556966910027171
 21
87.6802957233592366
 31
-0.0000000000000195
210
0.0
220
1.0
230
-0.0000000000000002
  0
ARC
  5
290C
  8
0
  6
VERDECKT
 62
     1
 10
34.9999999999973213
 20
92.468577729919005
 30
0.0
 40
14.0000000000029203
210
0.0
220
-0.0000000000000002
230
-1.0
 50
340.0000000000019895
 51
359.9999999999980105
  0
ARC
  5
290D
  8
0
  6
VERDECKT
 62
     1
 10
-34.9999999999971223
 20
92.4685777299190903
 30
0.0
 40
14.0000000000029008
210
0.0
220
-0.0000000000000002
230
-1.0
 50
180.0000000000017053
 51
199.9999999999978115
  0
LINE
  5
290E
  8
0
  6
VERDECKT
 62
     1
 10
48.9999999999999503
 20
160.0
 30
-0.0000000000000355
 11
48.9999999999999574
 21
152.0
 31
-0.0000000000000338
210
0.0
220
1.0
230
-0.0000000000000002
  0
LINE
  5
290F
  8
0
  6
VERDECKT
 62
     1
 10
48.9999999999999716
 20
145.0
 30
-0.0000000000000322
 11
49.0000000000000213
 21
92.4685777299186356
 31
-0.0000000000000205
210
0.0
220
1.0
230
-0.0000000000000002
  0
LINE
  5
2910
  8
0
  6
VERDECKT
 62
     1
 10
-49.00000000000027
 20
160.0
 30
-0.0000000000000355
 11
-49.00000000000027
 21
152.0
 31
-0.0000000000000338
210
0.0
220
1.0
230
-0.0000000000000002
  0
LINE
  5
2911
  8
0
  6
VERDECKT
 62
     1
 10
-49.0000000000002629
 20
145.0
 30
-0.0000000000000322
 11
-49.0000000000002132
 21
92.4685777299185503
 31
-0.0000000000000205
210
0.0
220
1.0
230
-0.0000000000000002
  0
LINE
  5
2912
  8
0
  6
VERDECKT
 62
     1
 10
-47.9393398282202199
 20
100.0
 30
-0.0000000000000222
 11
47.9393398282202199
 21
100.0
 31
-0.0000000000000222
210
0.0
220
1.0
230
-0.0000000000000002
  0
LINE
  5
2913
  8
0
  6
VERDECKT
 62
     1
 10
-48.9999999999996518
 20
98.9393398282207102
 30
-0.000000000000022
 11
48.9999999999996518
 21
98.9393398282207102
 31
-0.000000000000022
210
0.0
220
1.0
230
-0.0000000000000002
  0
LINE
  5
2914
  8
0
  6
VERDECKT
 62
     1
 10
-26.0682864386853907
 20
2.0
 30
-0.0000000000000004
 11
26.0682864386853907
 21
2.0
 31
-0.0000000000000004
210
0.0
220
1.0
230
-0.0000000000000002
  0
LINE
  5
2915
  8
0
  6
VERDECKT
 62
     1
 10
-24.5625566823704808
 20
1.9999999999999949
 30
-0.0000000000000004
 11
-25.0000000000000604
 21
6.999999999999825
 31
-0.0000000000000016
210
0.0
220
1.0
230
-0.0000000000000002
  0
LINE
  5
2916
  8
0
  6
VERDECKT
 62
     1
 10
24.5625566823704808
 20
1.9999999999999949
 30
-0.0000000000000004
 11
25.0000000000000604
 21
6.999999999999825
 31
-0.0000000000000016
210
0.0
220
1.0
230
-0.0000000000000002
  0
LINE
  5
2917
  8
0
  6
VERDECKT
 62
     1
 10
25.0
 20
73.9540584539815455
 30
-0.0000000000000164
 11
25.0
 21
6.9999999999998312
 31
-0.0000000000000016
210
0.0
220
1.0
230
-0.0000000000000002
  0
LINE
  5
2918
  8
0
  6
VERDECKT
 62
     1
 10
-25.0
 20
73.9540584539815455
 30
-0.0000000000000164
 11
-25.0
 21
6.9999999999998312
 31
-0.0000000000000016
210
0.0
220
1.0
230
-0.0000000000000002
  0
ARC
  5
2919
  8
0
  6
VERDECKT
 62
     1
 10
32.4999999999999218
 20
73.9540584539815313
 30
0.0
 40
7.4999999999999289
210
0.0
220
-0.0000000000000002
230
-1.0
 50
134.9999999999994031
 51
179.9999999999998863
  0
ARC
  5
291A
  8
0
  6
VERDECKT
 62
     1
 10
-32.4999999999999218
 20
73.9540584539815313
 30
0.0
 40
7.4999999999999281
210
0.0
220
-0.0000000000000002
230
-1.0
 50
0.0000000000001145
 51
45.0000000000005471
  0
LINE
  5
291B
  8
0
  6
VERDECKT
 62
     1
 10
-27.1966991411008898
 20
79.2573593128806522
 30
-0.0000000000000176
 11
-47.9393398282202128
 21
100.0
 31
-0.0000000000000222
210
0.0
220
1.0
230
-0.0000000000000002
  0
LINE
  5
291C
  8
0
  6
VERDECKT
 62
     1
 10
27.1966991411008898
 20
79.2573593128806522
 30
-0.0000000000000176
 11
47.9393398282202128
 21
100.0
 31
-0.0000000000000222
210
0.0
220
1.0
230
-0.0000000000000002
  0
LINE
  5
291D
  8
0
  6
VERDECKT
 62
     1
 10
47.9393398282202483
 20
100.0
 30
-0.0000000000000222
 11
48.9999999999996874
 21
98.9393398282207386
 31
-0.000000000000022
210
0.0
220
1.0
230
-0.0000000000000002
  0
LINE
  5
291E
  8
0
  6
VERDECKT
 62
     1
 10
-47.9393398282202483
 20
100.0
 30
-0.0000000000000222
 11
-48.9999999999996874
 21
98.9393398282207386
 31
-0.000000000000022
210
0.0
220
1.0
230
-0.0000000000000002
  0
LINE
  5
291F
  8
0
  6
VERDECKT
 62
     1
 10
-28.2573593128807907
 20
78.1966991411008081
 30
-0.0000000000000174
 11
-48.9999999999996589
 21
98.9393398282207102
 31
-0.000000000000022
210
0.0
220
1.0
230
-0.0000000000000002
  0
LINE
  5
2920
  8
0
  6
VERDECKT
 62
     1
 10
28.2573593128807907
 20
78.1966991411008081
 30
-0.0000000000000174
 11
48.9999999999996589
 21
98.9393398282207102
 31
-0.000000000000022
210
0.0
220
1.0
230
-0.0000000000000002
  0
ARC
  5
2921
  8
0
  6
VERDECKT
 62
     1
 10
32.4999999999994529
 20
73.954058453981645
 30
0.0
 40
5.9999999999994511
210
0.0
220
-0.0000000000000002
230
-1.0
 50
134.9999999999965894
 51
180.0000000000009095
  0
ARC
  5
2922
  8
0
  6
VERDECKT
 62
     1
 10
-32.4999999999994529
 20
73.954058453981645
 30
0.0
 40
5.9999999999994449
210
0.0
220
-0.0000000000000002
230
-1.0
 50
359.9999999999989768
 51
45.0000000000034319
  0
LINE
  5
2923
  8
0
  6
VERDECKT
 62
     1
 10
26.5
 20
73.9540584539815455
 30
-0.0000000000000164
 11
26.5
 21
6.9345085856372188
 31
-0.0000000000000015
210
0.0
220
1.0
230
-0.0000000000000002
  0
LINE
  5
2924
  8
0
  6
VERDECKT
 62
     1
 10
-26.5
 20
73.9540584539815455
 30
-0.0000000000000164
 11
-26.5
 21
6.9345085856372188
 31
-0.0000000000000015
210
0.0
220
1.0
230
-0.0000000000000002
  0
LINE
  5
2925
  8
0
  6
VERDECKT
 62
     1
 10
-26.0682864386853907
 20
2.0
 30
-0.0000000000000004
 11
-26.5
 21
6.9345085856372188
 31
-0.0000000000000015
210
0.0
220
1.0
230
-0.0000000000000002
  0
LINE
  5
2926
  8
0
  6
VERDECKT
 62
     1
 10
26.0682864386853907
 20
2.0
 30
-0.0000000000000004
 11
26.5
 21
6.9345085856372188
 31
-0.0000000000000015
210
0.0
220
1.0
230
-0.0000000000000002
  0
LINE
  5
2927
  8
0
  6
VERDECKT
 62
     1
 10
47.9999999999996589
 20
82.5700000000000358
 30
-0.0000000000000183
 11
47.9999999999996589
 21
81.0700000000000358
 31
-0.000000000000018
210
0.0
220
1.0
230
-0.0000000000000002
  0
LINE
  5
2928
  8
0
  6
VERDECKT
 62
     1
 10
-48.0000000000003411
 20
82.5700000000000358
 30
-0.0000000000000183
 11
-48.0000000000003411
 21
81.0700000000000358
 31
-0.000000000000018
210
0.0
220
1.0
230
-0.0000000000000002
  0
LINE
  5
2929
  8
0
  6
VERDECKT
 62
     1
 10
45.1139686793716024
 20
82.5700000000000358
 30
-0.0000000000000183
 11
45.1139686793716024
 21
81.0700000000000358
 31
-0.000000000000018
210
0.0
220
1.0
230
-0.0000000000000002
  0
LINE
  5
292A
  8
0
  6
VERDECKT
 62
     1
 10
53.2102214288234165
 20
82.5700000000000358
 30
-0.0000000000000183
 11
53.2102214288234165
 21
81.0700000000000358
 31
-0.000000000000018
210
0.0
220
1.0
230
-0.0000000000000002
  0
LINE
  5
292B
  8
0
  6
VERDECKT
 62
     1
 10
55.9999999999996732
 20
82.5700000000000358
 30
-0.0000000000000183
 11
55.9999999999996732
 21
81.0700000000000358
 31
-0.000000000000018
210
0.0
220
1.0
230
-0.0000000000000002
  0
LINE
  5
292C
  8
0
  6
VERDECKT
 62
     1
 10
-56.0000000000003268
 20
82.5700000000000358
 30
-0.0000000000000183
 11
-56.0000000000003268
 21
81.0700000000000358
 31
-0.000000000000018
210
0.0
220
1.0
230
-0.0000000000000002
  0
LINE
  5
292D
  8
0
  6
VERDECKT
 62
     1
 10
-53.2102214288241484
 20
82.5700000000000358
 30
-0.0000000000000183
 11
-53.2102214288241484
 21
81.0700000000000358
 31
-0.000000000000018
210
0.0
220
1.0
230
-0.0000000000000002
  0
LINE
  5
292E
  8
0
  6
VERDECKT
 62
     1
 10
-45.1139686793723769
 20
82.5700000000000358
 30
-0.0000000000000183
 11
-45.1139686793723769
 21
81.0700000000000358
 31
-0.000000000000018
210
0.0
220
1.0
230
-0.0000000000000002
  0
LINE
  5
292F
  8
0
  6
VERDECKT
 62
     1
 10
22.2990381056764591
 20
151.9999999999996874
 30
-0.0000000000000338
 11
15.2990381056765692
 21
146.9999999999996874
 31
-0.0000000000000326
210
0.0
220
1.0
230
-0.0000000000000002
  0
LINE
  5
2930
  8
0
  6
VERDECKT
 62
     1
 10
12.70096189432331
 20
146.9999999999996874
 30
-0.0000000000000326
 11
15.2990381056766793
 21
146.9999999999996874
 31
-0.0000000000000326
210
0.0
220
1.0
230
-0.0000000000000002
  0
LINE
  5
2931
  8
0
  6
VERDECKT
 62
     1
 10
12.70096189432331
 20
146.9999999999996874
 30
-0.0000000000000326
 11
19.7009618943231999
 21
151.9999999999996874
 31
-0.0000000000000338
210
0.0
220
1.0
230
-0.0000000000000002
  0
LINE
  5
2932
  8
0
  6
VERDECKT
 62
     1
 10
9.2009618943233136
 20
146.999999999999801
 30
-0.0000000000000326
 11
12.70096189432331
 21
146.9999999999996874
 31
-0.0000000000000326
210
0.0
220
1.0
230
-0.0000000000000002
  0
LINE
  5
2933
  8
0
  6
VERDECKT
 62
     1
 10
11.7990381056766793
 20
146.999999999999801
 30
-0.0000000000000326
 11
11.7990381056765692
 21
139.7999999999998977
 31
-0.000000000000031
210
0.0
220
1.0
230
-0.0000000000000002
  0
LINE
  5
2934
  8
0
  6
VERDECKT
 62
     1
 10
9.2009618943231999
 20
139.7999999999998977
 30
-0.000000000000031
 11
9.2009618943233136
 21
146.999999999999801
 31
-0.0000000000000326
210
0.0
220
1.0
230
-0.0000000000000002
  0
LINE
  5
2935
  8
0
  6
VERDECKT
 62
     1
 10
12.70096189432331
 20
139.7999999999998977
 30
-0.000000000000031
 11
15.2990381056766793
 21
139.7999999999998977
 31
-0.000000000000031
210
0.0
220
1.0
230
-0.0000000000000002
  0
LINE
  5
2936
  8
0
  6
VERDECKT
 62
     1
 10
12.70096189432331
 20
139.7999999999998977
 30
-0.000000000000031
 11
9.2009618943233136
 21
139.7999999999998977
 31
-0.000000000000031
210
0.0
220
1.0
230
-0.0000000000000002
  0
LINE
  5
2937
  8
0
  6
VERDECKT
 62
     1
 10
15.2990381056766793
 20
139.7999999999998977
 30
-0.000000000000031
 11
22.2990381056765692
 21
134.7999999999998124
 31
-0.0000000000000299
210
0.0
220
1.0
230
-0.0000000000000002
  0
LINE
  5
2938
  8
0
  6
VERDECKT
 62
     1
 10
19.7009618943231999
 20
134.7999999999998124
 30
-0.0000000000000299
 11
12.70096189432331
 21
139.7999999999998977
 31
-0.000000000000031
210
0.0
220
1.0
230
-0.0000000000000002
  0
LINE
  5
2939
  8
0
  6
VERDECKT
 62
     1
 10
23.2009618943231999
 20
134.7999999999996987
 30
-0.0000000000000299
 11
25.7990381056765692
 21
134.7999999999996987
 31
-0.0000000000000299
210
0.0
220
1.0
230
-0.0000000000000002
  0
LINE
  5
293A
  8
0
  6
VERDECKT
 62
     1
 10
23.2009618943231999
 20
134.7999999999996987
 30
-0.0000000000000299
 11
19.7009618943231999
 21
134.7999999999998124
 31
-0.0000000000000299
210
0.0
220
1.0
230
-0.0000000000000002
  0
LINE
  5
293B
  8
0
  6
VERDECKT
 62
     1
 10
25.7990381056765692
 20
134.7999999999996987
 30
-0.0000000000000299
 11
25.7990381056765692
 21
137.2999999999996987
 31
-0.0000000000000305
210
0.0
220
1.0
230
-0.0000000000000002
  0
LINE
  5
293C
  8
0
  6
VERDECKT
 62
     1
 10
23.2009618943231999
 20
137.2999999999996987
 30
-0.0000000000000305
 11
25.7990381056765692
 21
137.2999999999996987
 31
-0.0000000000000305
210
0.0
220
1.0
230
-0.0000000000000002
  0
LINE
  5
293D
  8
0
  6
VERDECKT
 62
     1
 10
23.2009618943231999
 20
137.2999999999996987
 30
-0.0000000000000305
 11
23.2009618943231999
 21
134.7999999999996987
 31
-0.0000000000000299
210
0.0
220
1.0
230
-0.0000000000000002
  0
LINE
  5
293E
  8
0
  6
VERDECKT
 62
     1
 10
25.7990381056765692
 20
137.2999999999996987
 30
-0.0000000000000305
 11
24.7990381056765798
 21
138.4547005383790008
 31
-0.0000000000000307
210
0.0
220
1.0
230
-0.0000000000000002
  0
LINE
  5
293F
  8
0
  6
VERDECKT
 62
     1
 10
22.2009618943231999
 20
138.4547005383790008
 30
-0.0000000000000307
 11
24.7990381056765798
 21
138.4547005383790008
 31
-0.0000000000000307
210
0.0
220
1.0
230
-0.0000000000000002
  0
LINE
  5
2940
  8
0
  6
VERDECKT
 62
     1
 10
22.2009618943231999
 20
138.4547005383790008
 30
-0.0000000000000307
 11
23.2009618943231999
 21
137.2999999999996987
 31
-0.0000000000000305
210
0.0
220
1.0
230
-0.0000000000000002
  0
LINE
  5
2941
  8
0
  6
VERDECKT
 62
     1
 10
24.7990381056765798
 20
138.4547005383790008
 30
-0.0000000000000307
 11
24.7990381056765798
 21
148.345299461620499
 31
-0.0000000000000329
210
0.0
220
1.0
230
-0.0000000000000002
  0
LINE
  5
2942
  8
0
  6
VERDECKT
 62
     1
 10
22.2009618943231999
 20
148.345299461620499
 30
-0.0000000000000329
 11
24.7990381056765798
 21
148.345299461620499
 31
-0.0000000000000329
210
0.0
220
1.0
230
-0.0000000000000002
  0
LINE
  5
2943
  8
0
  6
VERDECKT
 62
     1
 10
22.2009618943231999
 20
148.345299461620499
 30
-0.0000000000000329
 11
22.2009618943231999
 21
138.4547005383790008
 31
-0.0000000000000307
210
0.0
220
1.0
230
-0.0000000000000002
  0
LINE
  5
2944
  8
0
  6
VERDECKT
 62
     1
 10
24.7990381056765798
 20
148.345299461620499
 30
-0.0000000000000329
 11
25.7990381056765692
 21
149.499999999999801
 31
-0.0000000000000332
210
0.0
220
1.0
230
-0.0000000000000002
  0
LINE
  5
2945
  8
0
  6
VERDECKT
 62
     1
 10
23.2009618943231999
 20
149.499999999999801
 30
-0.0000000000000332
 11
25.7990381056765692
 21
149.499999999999801
 31
-0.0000000000000332
210
0.0
220
1.0
230
-0.0000000000000002
  0
LINE
  5
2946
  8
0
  6
VERDECKT
 62
     1
 10
23.2009618943231999
 20
149.499999999999801
 30
-0.0000000000000332
 11
22.2009618943231999
 21
148.345299461620499
 31
-0.0000000000000329
210
0.0
220
1.0
230
-0.0000000000000002
  0
LINE
  5
2947
  8
0
  6
VERDECKT
 62
     1
 10
25.7990381056765692
 20
149.499999999999801
 30
-0.0000000000000332
 11
25.7990381056765692
 21
151.999999999999801
 31
-0.0000000000000338
210
0.0
220
1.0
230
-0.0000000000000002
  0
LINE
  5
2948
  8
0
  6
VERDECKT
 62
     1
 10
23.2009618943231999
 20
151.999999999999801
 30
-0.0000000000000338
 11
25.7990381056765692
 21
151.999999999999801
 31
-0.0000000000000338
210
0.0
220
1.0
230
-0.0000000000000002
  0
LINE
  5
2949
  8
0
  6
VERDECKT
 62
     1
 10
23.2009618943231999
 20
151.999999999999801
 30
-0.0000000000000338
 11
23.2009618943231999
 21
149.499999999999801
 31
-0.0000000000000332
210
0.0
220
1.0
230
-0.0000000000000002
  0
LINE
  5
294A
  8
0
  6
VERDECKT
 62
     1
 10
19.7009618943231999
 20
151.9999999999996874
 30
-0.0000000000000338
 11
23.2009618943231999
 21
151.999999999999801
 31
-0.0000000000000338
210
0.0
220
1.0
230
-0.0000000000000002
  0
ENDBLK
  5
294C
  8
0
  0
BLOCK
  8
0
  2
A$C214C5559
 70
     0
 10
0.0
 20
0.0
 30
0.0
  3
A$C214C5559
  1

  0
LINE
  5
2950
  8
0
  6
AUSGEZOGEN
 62
     3
 10
46.9999999999996874
 20
-13.8564064605510495
 30
0.0
 11
46.9999999999996874
 21
13.8564064605504207
 31
0.0
  0
LINE
  5
2951
  8
0
  6
AUSGEZOGEN
 62
     3
 10
-35.5000000000003126
 20
-33.7749907475934918
 30
0.0
 11
-11.5000000000003002
 21
-47.6313972081444774
 31
0.0000000000000053
  0
LINE
  5
2952
  8
0
  6
AUSGEZOGEN
 62
     3
 10
-47.0000000000002984
 20
13.8564064605508506
 30
0.0
 11
-47.0000000000002984
 21
-13.8564064605514794
 31
0.0
  0
LINE
  5
2953
  8
0
  6
AUSGEZOGEN
 62
     3
 10
-11.5000000000004192
 20
47.6313972081437811
 30
0.0
 11
-35.5000000000001918
 21
33.7749907475929092
 31
-0.0000000000000053
  0
CIRCLE
  5
2954
  8
0
  6
AUSGEZOGEN
 62
     3
 10
-0.0000000000000782
 20
0.0000000000000259
 30
0.0
 40
50.6000000000000014
  0
CIRCLE
  5
2955
  8
0
  6
AUSGEZOGEN
 62
     3
 10
-0.0000000000000782
 20
0.0000000000000228
 30
0.0
 40
49.0
  0
ARC
  5
2956
  8
0
  6
AUSGEZOGEN
 62
     3
 10
0.0000000000000004
 20
-0.0000000000000117
 30
0.0
 40
24.5625566823704311
 50
63.5011493106753733
 51
180.0
  0
ARC
  5
2957
  8
0
  6
AUSGEZOGEN
 62
     3
 10
0.0000000000000004
 20
0.0000000000000149
 30
0.0
 40
24.5625566823704311
 50
303.5011493106746912
 51
56.4988506893252591
  0
ARC
  5
2958
  8
0
  6
AUSGEZOGEN
 62
     3
 10
0.0000000000000004
 20
0.0000000000000202
 30
0.0
 40
24.5625566823704311
 50
180.0
 51
296.4988506893246836
  0
ARC
  5
2959
  8
0
  6
AUSGEZOGEN
 62
     3
 10
0.0000000000000164
 20
-0.0000000000000287
 30
0.0
 40
25.0
 50
63.4398127675155692
 51
179.9999999999998863
  0
ARC
  5
295A
  8
0
  6
AUSGEZOGEN
 62
     3
 10
0.0000000000001301
 20
0.0000000000000175
 30
0.0
 40
24.9999999999999289
 50
303.4398127675145247
 51
56.5601872324855179
  0
ARC
  5
295B
  8
0
  6
AUSGEZOGEN
 62
     3
 10
0.0000000000000164
 20
-0.000000000000002
 30
0.0
 40
24.9999999999999787
 50
179.9999999999998863
 51
296.5601872324847932
  0
ARC
  5
295C
  8
0
  6
AUSGEZOGEN
 62
     3
 10
-0.0000000000003189
 20
0.0000000000001612
 30
0.0
 40
47.9393398282198575
 50
131.3609507808195076
 51
168.6390492191827946
  0
ARC
  5
295D
  8
0
  6
AUSGEZOGEN
 62
     3
 10
0.0000000000000222
 20
0.0000000000000475
 30
0.0
 40
47.9393398282202128
 50
61.7930513730368816
 51
108.639049219180194
  0
ARC
  5
295E
  8
0
  6
AUSGEZOGEN
 62
     3
 10
0.0000000000000222
 20
0.000000000000012
 30
0.0
 40
47.9393398282202128
 50
11.3609507808213603
 51
58.2069486269633671
  0
ARC
  5
295F
  8
0
  6
AUSGEZOGEN
 62
     3
 10
0.0000000000003633
 20
-0.0000000000002509
 30
0.0
 40
47.9393398282198291
 50
301.793051373036576
 51
348.6390492191789008
  0
ARC
  5
2960
  8
0
  6
AUSGEZOGEN
 62
     3
 10
0.0000000000000222
 20
-0.0000000000000022
 30
0.0
 40
47.9393398282202128
 50
251.3609507808162107
 51
298.2069486269630829
  0
ARC
  5
2961
  8
0
  6
AUSGEZOGEN
 62
     3
 10
0.0000000000000222
 20
0.0000000000000547
 30
0.0
 40
47.9393398282202625
 50
191.3609507808170918
 51
228.639049219183903
  0
LINE
  5
2962
  8
0
  6
AUSGEZOGEN
 62
     3
 10
19.7009618943233384
 20
37.1230669589465094
 30
0.0
 11
12.7009618943233402
 21
24.9987113059644592
 31
-0.0000000000000018
  0
LINE
  5
2963
  8
0
  6
AUSGEZOGEN
 62
     3
 10
15.2990381056765994
 20
23.4987113059644699
 30
0.0
 11
12.7009618943233402
 21
24.9987113059644699
 31
-0.0000000000000006
  0
LINE
  5
2964
  8
0
  6
AUSGEZOGEN
 62
     3
 10
15.2990381056765994
 20
23.4987113059644699
 30
0.0
 11
22.2990381056766083
 21
35.6230669589465094
 31
0.0000000000000018
  0
LINE
  5
2965
  8
0
  6
AUSGEZOGEN
 62
     3
 10
22.2990381056766083
 20
35.6230669589464526
 30
0.0
 11
19.7009618943233384
 21
37.1230669589464526
 31
-0.0000000000000006
  0
LINE
  5
2966
  8
0
  6
AUSGEZOGEN
 62
     3
 10
12.7009618943233402
 20
24.9987113059644805
 30
0.0
 11
9.2009618943233455
 21
18.936533479473411
 31
-0.0000000000000008
  0
LINE
  5
2967
  8
0
  6
AUSGEZOGEN
 62
     3
 10
11.7990381056765994
 20
17.436533479473411
 30
0.0
 11
9.2009618943233455
 21
18.936533479473411
 31
-0.0000000000000006
  0
LINE
  5
2968
  8
0
  6
AUSGEZOGEN
 62
     3
 10
11.7990381056765994
 20
17.436533479473411
 30
0.0
 11
15.2990381056765994
 21
23.4987113059644912
 31
0.0000000000000008
  0
LINE
  5
2969
  8
0
  6
AUSGEZOGEN
 62
     3
 10
23.1894796118168998
 20
43.1653568887496633
 30
0.0
 11
19.7009618943232283
 21
37.1230669589464526
 31
-0.0000000000000008
  0
LINE
  5
296A
  8
0
  6
AUSGEZOGEN
 62
     3
 10
22.2990381056766083
 20
35.6230669589464526
 30
0.0
 11
25.7875558231702691
 21
41.6653568887496419
 31
0.0000000000000008
  0
LINE
  5
296B
  8
0
  6
AUSGEZOGEN
 62
     3
 10
43.2527355812500431
 20
-46.6455896928498532
 30
0.0000000000000142
 11
33.6601938457108929
 21
-45.1262803387768088
 31
0.0000000000000121
  0
ARC
  5
296C
  8
0
  6
AUSGEZOGEN
 62
     3
 10
43.4091700462901926
 20
-45.6579013522544699
 30
0.0000000000000142
 40
1.0000000000002229
 50
261.0000000000068212
 51
313.5537253564021967
  0
ARC
  5
296D
  8
0
  6
AUSGEZOGEN
 62
     3
 10
-0.0000000000693306
 20
0.0000000000685816
 30
0.0
 40
64.0000000000972449
 50
313.5537253564111779
 51
316.4462746435896179
  0
ARC
  5
296E
  8
0
  6
AUSGEZOGEN
 62
     3
 10
45.6579013522560473
 20
-43.4091700462909671
 30
0.0000000000000142
 40
0.9999999999985592
 50
316.4462746435494864
 51
9.0000000000446292
  0
LINE
  5
296F
  8
0
  6
AUSGEZOGEN
 62
     3
 10
45.1262803387765175
 20
-33.6601938457111203
 30
0.0000000000000142
 11
46.6455896928496401
 21
-43.2527355812501924
 31
0.0000000000000145
  0
ARC
  5
2970
  8
0
  6
AUSGEZOGEN
 62
     3
 10
46.1139686793716379
 20
-33.5037593806709211
 30
0.0000000000000142
 40
1.000000000000014
 50
98.999999999998451
 51
188.9999999999986073
  0
LINE
  5
2971
  8
0
  6
AUSGEZOGEN
 62
     3
 10
55.5500759498704824
 20
-30.9967616860025394
 30
0.0000000000000142
 11
45.9575342143314316
 21
-32.516071040075758
 31
0.0000000000000121
  0
ARC
  5
2972
  8
0
  6
AUSGEZOGEN
 62
     3
 10
55.3936414848300487
 20
-30.0090733454073586
 30
0.0000000000000142
 40
1.000000000000232
 50
279.0000000000102887
 51
331.5537253564152138
  0
ARC
  5
2973
  8
0
  6
AUSGEZOGEN
 62
     3
 10
0.000000000114501
 20
-0.0000000000568718
 30
0.0
 40
63.9999999998718607
 50
331.5537253564045272
 51
334.4462746435930853
  0
ARC
  5
2974
  8
0
  6
AUSGEZOGEN
 62
     3
 10
56.8374158574390691
 20
-27.1755065941473504
 30
0.0000000000000142
 40
0.9999999999995839
 50
334.4462746435809208
 51
27.0000000000121716
  0
LINE
  5
2975
  8
0
  6
AUSGEZOGEN
 62
     3
 10
53.3192149046350465
 20
-18.0679591791115115
 30
0.0000000000000142
 11
57.7284223816269773
 21
-26.7215160944078001
 31
0.0000000000000152
  0
ARC
  5
2976
  8
0
  6
AUSGEZOGEN
 62
     3
 10
54.2102214288235231
 20
-17.6139686793719896
 30
0.0000000000000142
 40
1.000000000000079
 50
117.000000000006807
 51
206.9999999999959073
  0
LINE
  5
2977
  8
0
  6
AUSGEZOGEN
 62
     3
 10
62.4097878443800695
 20
-12.3137546781916303
 30
0.0000000000000142
 11
53.7562309290838414
 21
-16.722962155183609
 31
0.0000000000000123
  0
ARC
  5
2978
  8
0
  6
AUSGEZOGEN
 62
     3
 10
61.9557973446403807
 20
-11.4227481540031004
 30
0.0000000000000142
 40
1.0000000000002101
 50
297.0000000000031264
 51
349.5537253564012872
  0
ARC
  5
2979
  8
0
  6
AUSGEZOGEN
 62
     3
 10
0.0000000001099535
 20
-0.0000000000164562
 30
0.0
 40
63.9999999998885301
 50
349.5537253564052094
 51
352.4462746435930853
  0
ARC
  5
297A
  8
0
  6
AUSGEZOGEN
 62
     3
 10
62.4532880889339808
 20
-8.2817152136811387
 30
0.0000000000000142
 40
1.0000000000004701
 50
352.4462746436071257
 51
44.9999999999896474
  0
LINE
  5
297B
  8
0
  6
AUSGEZOGEN
 62
     3
 10
56.2928932188131199
 20
-0.7071067811865533
 30
0.0000000000000142
 11
63.1603948701209887
 21
-7.5746084324943856
 31
0.0000000000000157
  0
ARC
  5
297C
  8
0
  6
AUSGEZOGEN
 62
     3
 10
56.9999999999996803
 20
0.0
 30
0.0000000000000142
 40
0.9999999999999879
 50
135.0000000000011084
 51
225.0
  0
LINE
  5
297D
  8
0
  6
AUSGEZOGEN
 62
     3
 10
63.1603948701209887
 20
7.5746084324945278
 30
0.0000000000000142
 11
56.2928932188131199
 21
0.7071067811865249
 31
0.0000000000000127
  0
ARC
  5
297E
  8
0
  6
AUSGEZOGEN
 62
     3
 10
62.45328808893386
 20
8.2817152136810535
 30
0.0000000000000142
 40
1.0000000000005109
 50
315.0000000000276259
 51
7.5537253564042404
  0
ARC
  5
297F
  8
0
  6
AUSGEZOGEN
 62
     3
 10
-0.0000000000762087
 20
-0.0000000000106297
 30
0.0
 40
64.0000000000765397
 50
7.5537253564090738
 51
10.4462746435885308
  0
ARC
  5
2980
  8
0
  6
AUSGEZOGEN
 62
     3
 10
61.9557973446404873
 20
11.4227481540032691
 30
0.0000000000000142
 40
1.0000000000000779
 50
10.4462746435966505
 51
63.0000000000004619
  0
LINE
  5
2981
  8
0
  6
AUSGEZOGEN
 62
     3
 10
53.7562309290838414
 20
16.7229621551836409
 30
0.0000000000000142
 11
62.4097878443800695
 21
12.3137546781917102
 31
0.0000000000000161
  0
ARC
  5
2982
  8
0
  6
AUSGEZOGEN
 62
     3
 10
54.2102214288234094
 20
17.6139686793719896
 30
0.0000000000000142
 40
0.9999999999999893
 50
152.9999999999996874
 51
242.9999999999982094
  0
LINE
  5
2983
  8
0
  6
AUSGEZOGEN
 62
     3
 10
57.7284223816269773
 20
26.7215160944079493
 30
0.0000000000000142
 11
53.3192149046350465
 21
18.0679591791115399
 31
0.0000000000000132
  0
ARC
  5
2984
  8
0
  6
AUSGEZOGEN
 62
     3
 10
56.8374158574381667
 20
27.1755065941474996
 30
0.0000000000000142
 40
1.0000000000003919
 50
333.0000000000114824
 51
25.5537253563952405
  0
ARC
  5
2985
  8
0
  6
AUSGEZOGEN
 62
     3
 10
-0.0000000000623389
 20
-0.000000000030326
 30
0.0
 40
64.0000000000690505
 50
25.553725356409231
 51
28.4462746435888505
  0
ARC
  5
2986
  8
0
  6
AUSGEZOGEN
 62
     3
 10
55.3936414848298213
 20
30.0090733454068506
 30
0.0000000000000142
 40
1.000000000000786
 50
28.4462746436099394
 51
80.9999999999821938
  0
LINE
  5
2987
  8
0
  6
AUSGEZOGEN
 62
     3
 10
45.9575342143314316
 20
32.5160710400758717
 30
0.0000000000000142
 11
55.5500759498704824
 21
30.9967616860027206
 31
0.0000000000000163
  0
ARC
  5
2988
  8
0
  6
AUSGEZOGEN
 62
     3
 10
46.1139686793717587
 20
33.5037593806709992
 30
0.0000000000000142
 40
1.0000000000000979
 50
171.0000000000023022
 51
260.9999999999919282
  0
LINE
  5
2989
  8
0
  6
AUSGEZOGEN
 62
     3
 10
46.6455896928495335
 20
43.2527355812503629
 30
0.0000000000000142
 11
45.1262803387765175
 21
33.6601938457112126
 31
0.0000000000000139
  0
ARC
  5
298A
  8
0
  6
AUSGEZOGEN
 62
     3
 10
45.6579013522548607
 20
43.409170046290761
 30
0.0000000000000142
 40
0.9999999999995518
 50
350.9999999999860165
 51
43.5537253564208484
  0
ARC
  5
298B
  8
0
  6
AUSGEZOGEN
 62
     3
 10
0.0000000000186061
 20
0.0000000000196394
 30
0.0
 40
63.9999999999727294
 50
43.5537253564076394
 51
46.4462746435916785
  0
ARC
  5
298C
  8
0
  6
AUSGEZOGEN
 62
     3
 10
43.4091700462901287
 20
45.657901352254747
 30
0.0000000000000142
 40
1.0000000000000979
 50
46.4462746435956575
 51
98.9999999999976836
  0
LINE
  5
298D
  8
0
  6
AUSGEZOGEN
 62
     3
 10
33.6601938457108929
 20
45.1262803387769225
 30
0.0000000000000142
 11
43.2527355812499295
 21
46.6455896928499882
 31
0.0000000000000163
  0
ARC
  5
298E
  8
0
  6
AUSGEZOGEN
 62
     3
 10
33.5037593806705729
 20
46.1139686793719576
 30
0.0000000000000142
 40
0.9999999999999211
 50
188.9999999999959073
 51
279.0000000000059117
  0
LINE
  5
298F
  8
0
  6
AUSGEZOGEN
 62
     3
 10
30.9967616860023085
 20
55.5500759498709371
 30
0.0
 11
32.516071040075488
 21
45.9575342143318082
 31
0.0000000000000003
  0
ARC
  5
2990
  8
0
  6
AUSGEZOGEN
 62
     3
 10
30.00907334540695
 20
55.393641484830539
 30
0.0
 40
1.0000000000002269
 50
9.0000000000079385
 51
61.5537253564019977
  0
ARC
  5
2991
  8
0
  6
AUSGEZOGEN
 62
     3
 10
0.0000000000034289
 20
0.0000000000081855
 30
0.0
 40
63.999999999991033
 50
61.5537253564081084
 51
64.446274643591309
  0
ARC
  5
2992
  8
0
  6
AUSGEZOGEN
 62
     3
 10
27.1755065941469702
 20
56.8374158574388275
 30
0.0
 40
1.0000000000001019
 50
64.4462746435912237
 51
116.9999999999950973
  0
LINE
  5
2993
  8
0
  6
AUSGEZOGEN
 62
     3
 10
18.0679591791112202
 20
53.3192149046354302
 30
0.0
 11
26.7215160944074483
 21
57.7284223816273183
 31
0.0000000000000019
  0
ARC
  5
2994
  8
0
  6
AUSGEZOGEN
 62
     3
 10
17.6139686793716415
 20
54.2102214288238713
 30
0.0
 40
1.00000000000004
 50
207.0000000000061107
 51
297.0000000000002274
  0
LINE
  5
2995
  8
0
  6
AUSGEZOGEN
 62
     3
 10
12.3137546781912501
 20
62.409787844380503
 30
0.0
 11
16.7229621551832786
 21
53.7562309290842109
 31
0.000000000000001
  0
ARC
  5
2996
  8
0
  6
AUSGEZOGEN
 62
     3
 10
11.4227481540028908
 20
61.9557973446409775
 30
0.0
 40
0.9999999999999613
 50
26.9999999999988809
 51
79.5537253564069857
  0
ARC
  5
2997
  8
0
  6
AUSGEZOGEN
 62
     3
 10
-0.000000000004586
 20
-0.0000000000227942
 30
0.0
 40
64.0000000000232063
 50
79.5537253564085773
 51
82.4462746435903711
  0
ARC
  5
2998
  8
0
  6
AUSGEZOGEN
 62
     3
 10
8.2817152136806431
 20
62.4532880889349329
 30
0.0
 40
0.9999999999999278
 50
82.4462746435896463
 51
135.0000000000046043
  0
LINE
  5
2999
  8
0
  6
AUSGEZOGEN
 62
     3
 10
0.7071067811862305
 20
56.2928932188134823
 30
0.0
 11
7.5746084324940917
 21
63.1603948701213724
 31
0.0000000000000015
  0
ARC
  5
299A
  8
0
  6
AUSGEZOGEN
 62
     3
 10
-0.0000000000003227
 20
57.0
 30
0.0
 40
0.9999999999999879
 50
224.9999999999988063
 51
315.0
  0
LINE
  5
299B
  8
0
  6
AUSGEZOGEN
 62
     3
 10
-7.5746084324948511
 20
63.1603948701213724
 30
0.0
 11
-0.7071067811868758
 21
56.2928932188134823
 31
0.0000000000000015
  0
ARC
  5
299C
  8
0
  6
AUSGEZOGEN
 62
     3
 10
-8.2817152136814052
 20
62.4532880889346984
 30
0.0
 40
1.000000000000121
 50
45.0000000000057483
 51
97.5537253564088758
  0
ARC
  5
299D
  8
0
  6
AUSGEZOGEN
 62
     3
 10
0.00000000000269
 20
-0.0000000000225953
 30
0.0
 40
64.0000000000228226
 50
97.5537253564086626
 51
100.4462746435903995
  0
ARC
  5
299E
  8
0
  6
AUSGEZOGEN
 62
     3
 10
-11.4227481540035907
 20
61.9557973446410131
 30
0.0
 40
1.0000000000000011
 50
100.4462746435958991
 51
153.0000000000055138
  0
LINE
  5
299F
  8
0
  6
AUSGEZOGEN
 62
     3
 10
-16.7229621551840388
 20
53.7562309290842109
 30
0.0
 11
-12.3137546781920104
 21
62.4097878443804674
 31
0.000000000000001
  0
ARC
  5
29A0
  8
0
  6
AUSGEZOGEN
 62
     3
 10
-17.6139686793724017
 20
54.2102214288234734
 30
0.0
 40
0.999999999999672
 50
242.9999999999959073
 51
333.0000000000126761
  0
LINE
  5
29A1
  8
0
  6
AUSGEZOGEN
 62
     3
 10
-26.7215160944082086
 20
57.7284223816273467
 30
0.0
 11
-18.0679591791118597
 21
53.3192149046354302
 31
0.0000000000000019
  0
ARC
  5
29A2
  8
0
  6
AUSGEZOGEN
 62
     3
 10
-27.1755065941477305
 20
56.8374158574389696
 30
0.0
 40
1.00000000000002
 50
63.0000000000026219
 51
115.5537253564071989
  0
ARC
  5
29A3
  8
0
  6
AUSGEZOGEN
 62
     3
 10
-0.0000000000029375
 20
0.0000000000059117
 30
0.0
 40
63.9999999999935909
 50
115.5537253564087052
 51
118.4462746435918064
  0
ARC
  5
29A4
  8
0
  6
AUSGEZOGEN
 62
     3
 10
-30.0090733454080514
 20
55.3936414848307308
 30
0.0
 40
0.9999999999998088
 50
118.4462746435841041
 51
171.0000000000030127
  0
LINE
  5
29A5
  8
0
  6
AUSGEZOGEN
 62
     3
 10
-32.5160710400761914
 20
45.9575342143317869
 30
-0.0000000000000142
 11
-30.9967616860030013
 21
55.5500759498708803
 31
-0.0000000000000139
  0
ARC
  5
29A6
  8
0
  6
AUSGEZOGEN
 62
     3
 10
-33.5037593806711484
 20
46.1139686793717587
 30
-0.0000000000000142
 40
0.9999999999997601
 50
260.9999999999894271
 51
351.0000000000126761
  0
LINE
  5
29A7
  8
0
  6
AUSGEZOGEN
 62
     3
 10
-43.2527355812506826
 20
46.6455896928499385
 30
-0.0000000000000142
 11
-33.6601938457115324
 21
45.1262803387768869
 31
-0.0000000000000121
  0
ARC
  5
29A8
  8
0
  6
AUSGEZOGEN
 62
     3
 10
-43.4091700462908889
 20
45.6579013522547186
 30
-0.0000000000000142
 40
1.00000000000006
 50
81.0000000000017906
 51
133.5537253564064883
  0
ARC
  5
29A9
  8
0
  6
AUSGEZOGEN
 62
     3
 10
0.0000000000235515
 20
-0.0000000000244427
 30
0.0
 40
64.0000000000341771
 50
133.5537253564089895
 51
136.4462746435901863
  0
ARC
  5
29AA
  8
0
  6
AUSGEZOGEN
 62
     3
 10
-45.657901352255152
 20
43.4091700462905905
 30
-0.0000000000000142
 40
0.999999999999995
 50
136.4462746435912095
 51
189.0000000000019043
  0
LINE
  5
29AB
  8
0
  6
AUSGEZOGEN
 62
     3
 10
-45.1262803387772706
 20
33.6601938457112269
 30
-0.0000000000000142
 11
-46.6455896928502796
 21
43.2527355812503274
 31
-0.0000000000000145
  0
ARC
  5
29AC
  8
0
  6
AUSGEZOGEN
 62
     3
 10
-46.1139686793722774
 20
33.5037593806709424
 30
-0.0000000000000142
 40
0.9999999999999299
 50
278.9999999999992042
 51
9.0000000000045528
  0
LINE
  5
29AD
  8
0
  6
AUSGEZOGEN
 62
     3
 10
-55.5500759498711787
 20
30.9967616860026816
 30
-0.0000000000000142
 11
-45.9575342143320711
 21
32.5160710400758717
 31
-0.0000000000000121
  0
ARC
  5
29AE
  8
0
  6
AUSGEZOGEN
 62
     3
 10
-55.3936414848310292
 20
30.0090733454075895
 30
-0.0000000000000142
 40
0.9999999999999557
 50
98.9999999999957225
 51
151.5537253564102116
  0
ARC
  5
29AF
  8
0
  6
AUSGEZOGEN
 62
     3
 10
-0.0000000000098724
 20
0.0000000000050306
 30
0.0
 40
63.9999999999892495
 50
151.5537253564083926
 51
154.4462746435916927
  0
ARC
  5
29B0
  8
0
  6
AUSGEZOGEN
 62
     3
 10
-56.8374158574391473
 20
27.1755065941474605
 30
-0.0000000000000142
 40
1.000000000000103
 50
154.4462746435949043
 51
206.9999999999986926
  0
LINE
  5
29B1
  8
0
  6
AUSGEZOGEN
 62
     3
 10
-53.3192149046357429
 20
18.0679591791115399
 30
-0.0000000000000142
 11
-57.7284223816276167
 21
26.7215160944078889
 31
-0.0000000000000152
  0
ARC
  5
29B2
  8
0
  6
AUSGEZOGEN
 62
     3
 10
-54.2102214288238784
 20
17.6139686793718795
 30
-0.0000000000000142
 40
0.9999999999997724
 50
296.9999999999938041
 51
27.0000000000134683
  0
LINE
  5
29B3
  8
0
  6
AUSGEZOGEN
 62
     3
 10
-62.4097878443808725
 20
12.3137546781916303
 30
-0.0000000000000142
 11
-53.7562309290845306
 21
16.7229621551836587
 31
-0.0000000000000123
  0
ARC
  5
29B4
  8
0
  6
AUSGEZOGEN
 62
     3
 10
-61.9557973446413612
 20
11.4227481540033793
 30
-0.0000000000000142
 40
0.9999999999999406
 50
117.0000000000002984
 51
169.5537253564133096
  0
ARC
  5
29B5
  8
0
  6
AUSGEZOGEN
 62
     3
 10
0.0000000000657293
 20
-0.000000000009436
 30
0.0
 40
64.0000000000667484
 50
169.5537253564110074
 51
172.4462746435908116
  0
ARC
  5
29B6
  8
0
  6
AUSGEZOGEN
 62
     3
 10
-62.4532880889348974
 20
8.2817152136811103
 30
-0.0000000000000142
 40
1.0000000000002081
 50
172.4462746435968086
 51
224.9999999999930935
  0
LINE
  5
29B7
  8
0
  6
AUSGEZOGEN
 62
     3
 10
-56.2928932188137594
 20
0.7071067811865817
 30
-0.0000000000000142
 11
-63.1603948701216922
 21
7.5746084324945002
 31
-0.0000000000000157
  0
ARC
  5
29B8
  8
0
  6
AUSGEZOGEN
 62
     3
 10
-57.0000000000003197
 20
0.0000000000000568
 30
-0.0000000000000142
 40
1.0000000000000071
 50
315.0
 51
44.9999999999999929
  0
LINE
  5
29B9
  8
0
  6
AUSGEZOGEN
 62
     3
 10
-63.1603948701217419
 20
-7.5746084324945278
 30
-0.0000000000000142
 11
-56.2928932188137594
 21
-0.7071067811864964
 31
-0.0000000000000127
  0
ARC
  5
29BA
  8
0
  6
AUSGEZOGEN
 62
     3
 10
-62.4532880889351887
 20
-8.2817152136811103
 30
-0.0000000000000142
 40
0.9999999999999936
 50
135.0
 51
187.5537253564031914
  0
ARC
  5
29BB
  8
0
  6
AUSGEZOGEN
 62
     3
 10
0.0000000000739148
 20
0.0000000000129035
 30
0.0
 40
64.0000000000753602
 50
187.5537253564112063
 51
190.4462746435906979
  0
ARC
  5
29BC
  8
0
  6
AUSGEZOGEN
 62
     3
 10
-61.9557973446414678
 20
-11.4227481540035001
 30
-0.0000000000000142
 40
0.9999999999996969
 50
190.4462746435825125
 51
243.0000000000003126
  0
LINE
  5
29BD
  8
0
  6
AUSGEZOGEN
 62
     3
 10
-53.7562309290845803
 20
-16.7229621551835805
 30
-0.0000000000000142
 11
-62.4097878443808725
 21
-12.3137546781916001
 31
-0.0000000000000161
  0
ARC
  5
29BE
  8
0
  6
AUSGEZOGEN
 62
     3
 10
-54.2102214288240489
 20
-17.6139686793719612
 30
-0.0000000000000142
 40
0.9999999999999255
 50
332.9999999999997158
 51
63.0000000000040501
  0
LINE
  5
29BF
  8
0
  6
AUSGEZOGEN
 62
     3
 10
-57.7284223816276167
 20
-26.7215160944078391
 30
-0.0000000000000142
 11
-53.3192149046357429
 21
-18.0679591791114795
 31
-0.0000000000000132
  0
ARC
  5
29C0
  8
0
  6
AUSGEZOGEN
 62
     3
 10
-56.8374158574392609
 20
-27.1755065941473788
 30
-0.0000000000000142
 40
0.9999999999999946
 50
152.9999999999996874
 51
205.5537253564079947
  0
ARC
  5
29C1
  8
0
  6
AUSGEZOGEN
 62
     3
 10
-0.0000000000072008
 20
-0.000000000004178
 30
0.0
 40
63.9999999999919922
 50
205.5537253564077957
 51
208.4462746435910105
  0
ARC
  5
29C2
  8
0
  6
AUSGEZOGEN
 62
     3
 10
-55.3936414848310292
 20
-30.0090733454075007
 30
-0.0000000000000142
 40
0.9999999999999772
 50
208.4462746435926022
 51
261.0000000000046043
  0
LINE
  5
29C3
  8
0
  6
AUSGEZOGEN
 62
     3
 10
-45.9575342143320711
 20
-32.5160710400757935
 30
-0.0000000000000142
 11
-55.5500759498711787
 21
-30.9967616860026283
 31
-0.0000000000000163
  0
ARC
  5
29C4
  8
0
  6
AUSGEZOGEN
 62
     3
 10
-46.1139686793723413
 20
-33.5037593806709211
 30
-0.0000000000000142
 40
0.9999999999999861
 50
351.0000000000013074
 51
80.9999999999980957
  0
LINE
  5
29C5
  8
0
  6
AUSGEZOGEN
 62
     3
 10
-46.6455896928502796
 20
-43.2527355812502989
 30
-0.0000000000000142
 11
-45.1262803387772067
 21
-33.6601938457111203
 31
-0.0000000000000139
  0
ARC
  5
29C6
  8
0
  6
AUSGEZOGEN
 62
     3
 10
-45.6579013522552231
 20
-43.4091700462905408
 30
-0.0000000000000142
 40
0.999999999999938
 50
170.9999999999990905
 51
223.5537253564110074
  0
ARC
  5
29C7
  8
0
  6
AUSGEZOGEN
 62
     3
 10
0.0000000000024058
 20
0.0000000000027569
 30
0.0
 40
64.0000000000038654
 50
223.5537253564085916
 51
226.4462746435912948
  0
ARC
  5
29C8
  8
0
  6
AUSGEZOGEN
 62
     3
 10
-43.4091700462908321
 20
-45.6579013522544273
 30
-0.0000000000000142
 40
1.0000000000003131
 50
226.4462746435987981
 51
278.999999999992383
  0
LINE
  5
29C9
  8
0
  6
AUSGEZOGEN
 62
     3
 10
-33.6601938457115324
 20
-45.1262803387768585
 30
-0.0000000000000142
 11
-43.2527355812506826
 21
-46.6455896928499101
 31
-0.0000000000000163
  0
ARC
  5
29CA
  8
0
  6
AUSGEZOGEN
 62
     3
 10
-33.5037593806712621
 20
-46.1139686793719576
 30
-0.0000000000000142
 40
0.9999999999999299
 50
8.9999999999992113
 51
99.0000000000024301
  0
LINE
  5
29CB
  8
0
  6
AUSGEZOGEN
 62
     3
 10
-30.9967616860030084
 20
-55.5500759498708589
 30
0.0
 11
-32.5160710400761985
 21
-45.9575342143317513
 31
-0.0000000000000003
  0
ARC
  5
29CC
  8
0
  6
AUSGEZOGEN
 62
     3
 10
-30.0090733454075398
 20
-55.3936414848304182
 30
0.0
 40
1.0000000000003311
 50
189.0000000000084128
 51
241.5537253563977913
  0
ARC
  5
29CD
  8
0
  6
AUSGEZOGEN
 62
     3
 10
0.0000000000681167
 20
0.0000000001357705
 30
0.0
 40
64.0000000001519567
 50
241.553725356412599
 51
244.4462746435885094
  0
ARC
  5
29CE
  8
0
  6
AUSGEZOGEN
 62
     3
 10
-27.1755065941476701
 20
-56.8374158574387067
 30
0.0
 40
1.0000000000001521
 50
244.4462746435933127
 51
296.9999999999901092
  0
LINE
  5
29CF
  8
0
  6
AUSGEZOGEN
 62
     3
 10
-18.0679591791118597
 20
-53.3192149046353734
 30
0.0
 11
-26.7215160944082086
 21
-57.728422381627297
 31
-0.0000000000000019
  0
ARC
  5
29D0
  8
0
  6
AUSGEZOGEN
 62
     3
 10
-17.6139686793723413
 20
-54.2102214288235587
 30
0.0
 40
0.9999999999999246
 50
26.9999999999930616
 51
117.0000000000047038
  0
LINE
  5
29D1
  8
0
  6
AUSGEZOGEN
 62
     3
 10
-12.3137546781920104
 20
-62.409787844380503
 30
0.0
 11
-16.7229621551839891
 21
-53.7562309290841611
 31
-0.000000000000001
  0
ARC
  5
29D2
  8
0
  6
AUSGEZOGEN
 62
     3
 10
-11.4227481540037701
 20
-61.9557973446410983
 30
0.0
 40
0.9999999999998291
 50
206.9999999999959925
 51
259.5537253564122011
  0
ARC
  5
29D3
  8
0
  6
AUSGEZOGEN
 62
     3
 10
-0.0000000000036196
 20
-0.00000000002089
 30
0.0
 40
63.99999999997884
 50
259.5537253564079947
 51
262.4462746435917779
  0
ARC
  5
29D4
  8
0
  6
AUSGEZOGEN
 62
     3
 10
-8.2817152136816325
 20
-62.4532880889342366
 30
0.0
 40
1.00000000000053
 50
262.4462746436075804
 51
314.9999999999885745
  0
LINE
  5
29D5
  8
0
  6
AUSGEZOGEN
 62
     3
 10
-0.707106781186876
 20
-56.2928932188134397
 30
0.0
 11
-7.5746084324948511
 21
-63.1603948701213085
 31
-0.0000000000000015
  0
ARC
  5
29D6
  8
0
  6
AUSGEZOGEN
 62
     3
 10
-0.0000000000003227
 20
-57.0
 30
0.0
 40
1.0000000000000071
 50
45.0
 51
135.0
  0
LINE
  5
29D7
  8
0
  6
AUSGEZOGEN
 62
     3
 10
7.5746084324940917
 20
-63.1603948701213085
 30
0.0
 11
0.7071067811862309
 21
-56.2928932188134397
 31
-0.0000000000000015
  0
ARC
  5
29D8
  8
0
  6
AUSGEZOGEN
 62
     3
 10
8.2817152136805881
 20
-62.4532880889349826
 30
0.0
 40
0.9999999999997905
 50
224.9999999999930935
 51
277.5537253564145885
  0
ARC
  5
29D9
  8
0
  6
AUSGEZOGEN
 62
     3
 10
0.0000000000028605
 20
-0.00000000002089
 30
0.0
 40
63.99999999997884
 50
277.5537253564082221
 51
280.4462746435920053
  0
ARC
  5
29DA
  8
0
  6
AUSGEZOGEN
 62
     3
 10
11.4227481540029494
 20
-61.955797344640871
 30
0.0
 40
1.0000000000000011
 50
280.44627464358922
 51
332.999999999998181
  0
LINE
  5
29DB
  8
0
  6
AUSGEZOGEN
 62
     3
 10
16.7229621551832786
 20
-53.7562309290842109
 30
0.0
 11
12.3137546781912999
 21
-62.4097878443804532
 31
-0.000000000000001
  0
ARC
  5
29DC
  8
0
  6
AUSGEZOGEN
 62
     3
 10
17.6139686793717516
 20
-54.2102214288239566
 30
0.0
 40
1.0000000000001521
 50
63.0000000000099618
 51
152.9999999999924967
  0
LINE
  5
29DD
  8
0
  6
AUSGEZOGEN
 62
     3
 10
26.7215160944075087
 20
-57.728422381627297
 30
0.0
 11
18.0679591791112202
 21
-53.3192149046353734
 31
-0.0000000000000019
  0
ARC
  5
29DE
  8
0
  6
AUSGEZOGEN
 62
     3
 10
27.175506594147091
 20
-56.8374158574389412
 30
0.0
 40
0.9999999999999946
 50
242.9999999999982094
 51
295.553725356407881
  0
ARC
  5
29DF
  8
0
  6
AUSGEZOGEN
 62
     3
 10
0.0000000000195725
 20
-0.0000000000408136
 30
0.0
 40
63.9999999999545892
 50
295.5537253564082789
 51
298.446274643593199
  0
ARC
  5
29E0
  8
0
  6
AUSGEZOGEN
 62
     3
 10
30.0090733454075718
 20
-55.3936414848308232
 30
0.0
 40
0.9999999999996786
 50
298.4462746435814893
 51
351.0000000000084128
  0
LINE
  5
29E1
  8
0
  6
AUSGEZOGEN
 62
     3
 10
32.5160710400755519
 20
-45.9575342143317016
 30
0.0000000000000142
 11
30.9967616860024187
 21
-55.5500759498708589
 31
0.0000000000000139
  0
ARC
  5
29E2
  8
0
  6
AUSGEZOGEN
 62
     3
 10
33.5037593806706795
 20
-46.1139686793719434
 30
0.0000000000000142
 40
0.9999999999999861
 50
81.0000000000012932
 51
170.9999999999996874
  0
LINE
  5
29E3
  8
0
  6
AUSGEZOGEN
 62
     3
 10
22.299038105676491
 20
-35.6230669589463389
 30
0.0
 11
15.2990381056765994
 21
-23.4987113059642887
 31
-0.0000000000000018
  0
LINE
  5
29E4
  8
0
  6
AUSGEZOGEN
 62
     3
 10
12.7009618943233402
 20
-24.9987113059642887
 30
0.0
 11
15.2990381056767202
 21
-23.4987113059642887
 31
0.0000000000000006
  0
LINE
  5
29E5
  8
0
  6
AUSGEZOGEN
 62
     3
 10
12.7009618943233402
 20
-24.9987113059642887
 30
0.0
 11
19.7009618943232283
 21
-37.1230669589463389
 31
0.0000000000000018
  0
LINE
  5
29E6
  8
0
  6
AUSGEZOGEN
 62
     3
 10
19.7009618943232283
 20
-37.1230669589463389
 30
0.0
 11
22.2990381056766083
 21
-35.6230669589463389
 31
0.0000000000000006
  0
LINE
  5
29E7
  8
0
  6
AUSGEZOGEN
 62
     3
 10
15.2990381056765994
 20
-23.4987113059644201
 30
0.0
 11
11.7990381056765994
 21
-17.4365334794733506
 31
-0.0000000000000008
  0
LINE
  5
29E8
  8
0
  6
AUSGEZOGEN
 62
     3
 10
9.2009618943233455
 20
-18.9365334794732405
 30
0.0
 11
11.7990381056767202
 21
-17.4365334794732405
 31
0.0000000000000006
  0
LINE
  5
29E9
  8
0
  6
AUSGEZOGEN
 62
     3
 10
9.2009618943233455
 20
-18.9365334794732405
 30
0.0
 11
12.7009618943233402
 21
-24.99871130596431
 31
0.0000000000000008
  0
LINE
  5
29EA
  8
0
  6
AUSGEZOGEN
 62
     3
 10
25.7875558231702691
 20
-41.665356888749578
 30
0.0
 11
22.2990381056766083
 21
-35.6230669589463389
 31
-0.0000000000000008
  0
LINE
  5
29EB
  8
0
  6
AUSGEZOGEN
 62
     3
 10
19.7009618943232283
 20
-37.1230669589463389
 30
0.0
 11
23.1894796118168998
 21
-43.1653568887495922
 31
0.0000000000000008
  0
LINE
  5
29EC
  8
0
  6
VERDECKT
 62
     1
 10
-24.5000000000000817
 20
-42.4352447854374617
 30
0.0
 11
-13.5674797050268907
 21
-48.7471383206612714
 31
0.0000000000000024
  0
LINE
  5
29ED
  8
0
  6
VERDECKT
 62
     1
 10
-35.4325202949732727
 20
-36.123351250213652
 30
0.0
 11
-24.5000000000000817
 21
-42.4352447854374617
 31
0.0000000000000024
  0
LINE
  5
29EE
  8
0
  6
VERDECKT
 62
     1
 10
-24.5000000000000817
 20
42.4352447854375114
 30
0.0
 11
-35.4325202949732727
 21
36.1233512502137017
 31
-0.0000000000000024
  0
LINE
  5
29EF
  8
0
  6
VERDECKT
 62
     1
 10
-13.5674797050268907
 20
48.7471383206613282
 30
0.0
 11
-24.5000000000000817
 21
42.4352447854375114
 31
-0.0000000000000024
  0
LINE
  5
29F0
  8
0
  6
VERDECKT
 62
     1
 10
49.0000000000000284
 20
0.0000000000000223
 30
0.0
 11
49.0000000000000284
 21
12.6237870704471806
 31
0.0
  0
LINE
  5
29F1
  8
0
  6
VERDECKT
 62
     1
 10
49.0000000000000284
 20
-12.6237870704471202
 30
0.0
 11
49.0000000000000284
 21
0.0000000000000231
 31
0.0
  0
LINE
  5
29F2
  8
0
  6
VERDECKT
 62
     1
 10
-49.0000000000000782
 20
12.62378707044763
 30
0.0
 11
-49.0000000000000782
 21
0.0000000000000231
 31
0.0
  0
LINE
  5
29F3
  8
0
  6
VERDECKT
 62
     1
 10
-49.0000000000000782
 20
0.0000000000000223
 30
0.0
 11
-49.0000000000000782
 21
-12.6237870704475803
 31
0.0
  0
CIRCLE
  5
29F4
  8
0
  6
VERDECKT
 62
     1
 10
-0.000000000000098
 20
0.0000000000000173
 30
0.0
 40
44.4999999999999218
  0
CIRCLE
  5
29F5
  8
0
  6
VERDECKT
 62
     1
 10
0.0000000000000028
 20
0.0000000000000138
 30
0.0
 40
53.9999999999999716
  0
CIRCLE
  5
29F6
  8
0
  6
VERDECKT
 62
     1
 10
0.0000000000000028
 20
0.0000000000000138
 30
0.0
 40
52.4000000000000625
  0
CIRCLE
  5
29F7
  8
0
  6
VERDECKT
 62
     1
 10
-0.000000000000098
 20
0.0000000000000173
 30
0.0
 40
42.9000000000000128
  0
ARC
  5
29F8
  8
0
  6
VERDECKT
 62
     1
 10
0.0000000000056848
 20
0.0000000000099359
 30
0.0
 40
24.5625566823590091
 50
56.4988506893235467
 51
63.501149310676837
  0
ARC
  5
29F9
  8
0
  6
VERDECKT
 62
     1
 10
0.0000000000057985
 20
-0.0000000000099629
 30
0.0
 40
24.5625566823589097
 50
296.4988506893229783
 51
303.5011493106762828
  0
ARC
  5
29FA
  8
0
  6
VERDECKT
 62
     1
 10
0.0000000000043365
 20
0.0000000000076274
 30
0.0
 40
24.9999999999912603
 50
56.5601872324839405
 51
63.4398127675165568
  0
ARC
  5
29FB
  8
0
  6
VERDECKT
 62
     1
 10
-0.0000000000025984
 20
0.0000000000043163
 30
0.0
 40
25.00000000000502
 50
296.5601872324858164
 51
303.4398127675142973
  0
ARC
  5
29FC
  8
0
  6
VERDECKT
 62
     1
 10
0.0000000000090035
 20
-0.0000000000008753
 30
0.0
 40
47.9393398282292011
 50
168.6390492191837893
 51
179.9999999999988916
  0
ARC
  5
29FD
  8
0
  6
VERDECKT
 62
     1
 10
-0.0000000000000915
 20
0.000000000000282
 30
0.0
 40
47.9393398282199286
 50
108.6390492191800945
 51
131.3609507808199055
  0
ARC
  5
29FE
  8
0
  6
VERDECKT
 62
     1
 10
-0.0000000000096412
 20
-0.0000000000162026
 30
0.0
 40
47.939339828239099
 50
58.2069486269637508
 51
61.7930513730358584
  0
ARC
  5
29FF
  8
0
  6
VERDECKT
 62
     1
 10
0.0000000000002496
 20
0.000000000000036
 30
0.0
 40
47.9393398282199996
 50
348.6390492191786166
 51
11.3609507808214403
  0
ARC
  5
2A00
  8
0
  6
VERDECKT
 62
     1
 10
0.0000000000265112
 20
-0.0000000000455906
 30
0.0
 40
47.9393398281675118
 50
298.2069486269609797
 51
301.7930513730386224
  0
ARC
  5
2A01
  8
0
  6
VERDECKT
 62
     1
 10
-0.0000000000004325
 20
-0.0000000000005919
 30
0.0
 40
47.9393398282195022
 50
228.6390492191837893
 51
251.3609507808164949
  0
ARC
  5
2A02
  8
0
  6
VERDECKT
 62
     1
 10
0.0000000000085487
 20
0.0000000000009131
 30
0.0
 40
47.9393398282287535
 50
180.0000000000009948
 51
191.3609507808162107
  0
CIRCLE
  5
2A03
  8
0
  6
VERDECKT
 62
     1
 10
0.0000000000000164
 20
0.0000000000000175
 30
0.0
 40
26.5
  0
CIRCLE
  5
2A04
  8
0
  6
VERDECKT
 62
     1
 10
0.0000000000000004
 20
0.0000000000000131
 30
0.0
 40
26.0682864386853907
  0
LINE
  5
2A05
  8
0
  6
VERDECKT
 62
     1
 10
24.7990381056766083
 20
39.953193977868672
 30
0.0
 11
22.2009618943233384
 21
41.4531939778686578
 31
-0.0000000000000006
  0
LINE
  5
2A06
  8
0
  6
VERDECKT
 62
     1
 10
25.7990381056766083
 20
41.6852447854374972
 30
0.0
 11
23.2009618943233491
 21
43.1852447854374972
 31
-0.0000000000000006
  0
LINE
  5
2A07
  8
0
  6
VERDECKT
 62
     1
 10
23.2009618943232283
 20
43.1852447854375185
 30
0.0
 11
23.1894796118168998
 21
43.1653568887496633
 31
0.0
  0
LINE
  5
2A08
  8
0
  6
VERDECKT
 62
     1
 10
25.7875558231702691
 20
41.6653568887496419
 30
0.0
 11
25.7990381056766083
 21
41.6852447854375114
 31
0.0
  0
CIRCLE
  5
2A09
  8
0
  6
VERDECKT
 62
     1
 10
-0.0000000000003227
 20
0.0000000000000284
 30
0.0
 40
48.0
  0
LINE
  5
2A0A
  8
0
  6
VERDECKT
 62
     1
 10
22.2009618943232283
 20
-41.4531939778685512
 30
0.0
 11
24.7990381056766083
 21
-39.9531939778685512
 31
0.0000000000000006
  0
LINE
  5
2A0B
  8
0
  6
VERDECKT
 62
     1
 10
23.2009618943232283
 20
-43.1852447854374475
 30
0.0
 11
25.7990381056766083
 21
-41.6852447854374404
 31
0.0000000000000006
  0
LINE
  5
2A0C
  8
0
  6
VERDECKT
 62
     1
 10
25.7990381056766083
 20
-41.685244785437412
 30
0.0
 11
25.7875558231702691
 21
-41.665356888749578
 31
0.0
  0
LINE
  5
2A0D
  8
0
  6
VERDECKT
 62
     1
 10
23.1894796118168998
 20
-43.1653568887495922
 30
0.0
 11
23.2009618943232283
 21
-43.185244785437412
 31
0.0
  0
ENDBLK
  5
2A0F
  8
0
  0
ENDSEC
  0
SECTION
  2
ENTITIES
  0
TEXT
  5
12C8
  8
TEXT35
 10
35.2868559635740482
 20
181.2157724913357981
 30
0.0
 40
3.5
  1

 41
0.8
  0
INSERT
  5
294D
  8
0
  2
A$C42331C51
 10
0.7071067811868943
 20
-82.5700000000000358
 30
0.0000000000000184
  0
INSERT
  5
2A10
  8
0
  2
A$C214C5559
 10
0.7071067811868943
 20
-179.3360787721975953
 30
0.0000000000000184
  0
VIEWPORT
  5
2539
 67
     1
  8
0
 10
6.1723263475591086
 20
7.2290725949325969
 30
0.0
 40
27.8799681054922601
 41
14.7697450082667299
 68
     1
 69
     1
1001
ACAD
1000
MVIEW
1002
{
1070
    16
1010
0.0
1020
0.0
1030
0.0
1010
0.0
1020
0.0
1030
1.0
1040
0.0
1040
14.7697450082667299
1040
6.1723263475591086
1040
7.2290725949325969
1040
50.0
1040
0.0
1040
0.0
1070
     0
1070
  1500
1070
     1
1070
     1
1070
     0
1070
     0
1070
     0
1070
     0
1040
0.0
1040
0.0
1040
0.0
1040
10.0
1040
10.0
1040
10.0
1040
10.0
1070
     0
1002
{
1002
}
1002
}
  0
ENDSEC
  0
EOF
