  0
SECTION
  2
HEADER
  9
$ACADVER
  1
AC1009
  9
$INSBASE
 10
0.0
 20
0.0
 30
0.0
  9
$EXTMIN
 10
-63.4575824198098033
 20
-63.4782093727826577
 30
-0.0036618299825477
  9
$EXTMAX
 10
63.4687529721890016
 20
202.9023930476705004
 30
2.0013429154656981
  9
$LIMMIN
 10
0.0
 20
0.0
  9
$LIMMAX
 10
297.0
 20
420.0
  9
$ORTHOMODE
 70
     1
  9
$REGENMODE
 70
     1
  9
$FILLMODE
 70
     1
  9
$QTEXTMODE
 70
     0
  9
$MIRRTEXT
 70
     1
  9
$DRAGMODE
 70
     2
  9
$LTSCALE
 40
10.0
  9
$OSMODE
 70
  1327
  9
$ATTMODE
 70
     1
  9
$TEXTSIZE
 40
3.5
  9
$TRACEWID
 40
0.5
  9
$TEXTSTYLE
  7
STANDARD
  9
$CLAYER
  8
0
  9
$CELTYPE
  6
BYLAYER
  9
$CECOLOR
 62
   256
  9
$DIMSCALE
 40
0.0
  9
$DIMASZ
 40
3.5
  9
$DIMEXO
 40
1.0
  9
$DIMDLI
 40
8.0
  9
$DIMRND
 40
0.0
  9
$DIMDLE
 40
0.0
  9
$DIMEXE
 40
1.0
  9
$DIMTP
 40
0.8
  9
$DIMTM
 40
0.8
  9
$DIMTXT
 40
3.5
  9
$DIMCEN
 40
1.5
  9
$DIMTSZ
 40
0.0
  9
$DIMTOL
 70
     0
  9
$DIMLIM
 70
     0
  9
$DIMTIH
 70
     0
  9
$DIMTOH
 70
     0
  9
$DIMSE1
 70
     0
  9
$DIMSE2
 70
     0
  9
$DIMTAD
 70
     1
  9
$DIMZIN
 70
     8
  9
$DIMBLK
  1

  9
$DIMASO
 70
     1
  9
$DIMSHO
 70
     0
  9
$DIMPOST
  1

  9
$DIMAPOST
  1

  9
$DIMALT
 70
     0
  9
$DIMALTD
 70
     2
  9
$DIMALTF
 40
25.3999999999999986
  9
$DIMLFAC
 40
1.0
  9
$DIMTOFL
 70
     1
  9
$DIMTVP
 40
0.0
  9
$DIMTIX
 70
     0
  9
$DIMSOXD
 70
     0
  9
$DIMSAH
 70
     0
  9
$DIMBLK1
  1

  9
$DIMBLK2
  1

  9
$DIMSTYLE
  2
STANDARD
  9
$DIMCLRD
 70
     0
  9
$DIMCLRE
 70
     0
  9
$DIMCLRT
 70
     1
  9
$DIMTFAC
 40
0.5
  9
$DIMGAP
 40
1.5
  9
$LUNITS
 70
     2
  9
$LUPREC
 70
     2
  9
$SKETCHINC
 40
1.0
  9
$FILLETRAD
 40
1.0
  9
$AUNITS
 70
     0
  9
$AUPREC
 70
     0
  9
$MENU
  1
ACAD
  9
$ELEVATION
 40
0.0
  9
$PELEVATION
 40
0.0
  9
$THICKNESS
 40
0.0
  9
$LIMCHECK
 70
     0
  9
$BLIPMODE
 70
     0
  9
$CHAMFERA
 40
0.0
  9
$CHAMFERB
 40
0.0
  9
$SKPOLY
 70
     0
  9
$TDCREATE
 40
2451879.3103472217917442
  9
$TDUPDATE
 40
2458401.5307407411746681
  9
$TDINDWG
 40
0.1453854514
  9
$TDUSRTIMER
 40
0.1453854514
  9
$USRTIMER
 70
     1
  9
$ANGBASE
 50
0.0
  9
$ANGDIR
 70
     0
  9
$PDMODE
 70
     0
  9
$PDSIZE
 40
0.0
  9
$PLINEWID
 40
0.0
  9
$COORDS
 70
     1
  9
$SPLFRAME
 70
     0
  9
$SPLINETYPE
 70
     6
  9
$SPLINESEGS
 70
     8
  9
$ATTDIA
 70
     0
  9
$ATTREQ
 70
     0
  9
$HANDLING
 70
     1
  9
$HANDSEED
  5
2D49
  9
$SURFTAB1
 70
     6
  9
$SURFTAB2
 70
     6
  9
$SURFTYPE
 70
     6
  9
$SURFU
 70
     6
  9
$SURFV
 70
     6
  9
$UCSNAME
  2

  9
$UCSORG
 10
0.0
 20
0.0
 30
0.0
  9
$UCSXDIR
 10
1.0
 20
0.0
 30
0.0
  9
$UCSYDIR
 10
0.0
 20
1.0
 30
0.0
  9
$PUCSNAME
  2

  9
$PUCSORG
 10
0.0
 20
0.0
 30
0.0
  9
$PUCSXDIR
 10
1.0
 20
0.0
 30
0.0
  9
$PUCSYDIR
 10
0.0
 20
1.0
 30
0.0
  9
$USERI1
 70
     0
  9
$USERI2
 70
     0
  9
$USERI3
 70
     0
  9
$USERI4
 70
     0
  9
$USERI5
 70
     0
  9
$USERR1
 40
0.0
  9
$USERR2
 40
0.0
  9
$USERR3
 40
0.0
  9
$USERR4
 40
0.0
  9
$USERR5
 40
0.0
  9
$WORLDVIEW
 70
     1
  9
$SHADEDGE
 70
     3
  9
$SHADEDIF
 70
    70
  9
$TILEMODE
 70
     1
  9
$MAXACTVP
 70
    16
  9
$PLIMCHECK
 70
     0
  9
$PEXTMIN
 10
-0.0959169659179793
 20
-0.1358528352954451
 30
-0.0000000000112498
  9
$PEXTMAX
 10
10.5900416625854792
 20
14.1909337947369796
 30
0.0000000000002956
  9
$PLIMMIN
 10
-0.2500002402958907
 20
-0.2499999962453767
  9
$PLIMMAX
 10
10.7499995194082203
 20
8.2499997634587334
  9
$UNITMODE
 70
     0
  9
$VISRETAIN
 70
     0
  9
$PLINEGEN
 70
     0
  9
$PSLTSCALE
 70
     0
  0
ENDSEC
  0
SECTION
  2
TABLES
  0
TABLE
  2
VPORT
 70
     1
  0
VPORT
  2
*ACTIVE
 70
     0
 10
0.0
 20
0.0
 11
1.0
 21
1.0
 12
0.001366221013825
 22
41.4380706887622878
 13
0.0
 23
0.0
 14
1.0
 24
1.0
 15
10.0
 25
10.0
 16
-0.0000000000001284
 26
0.0
 36
578.1686531820711252
 17
0.0042190551757813
 27
28.2740211486816584
 37
1.000000000000008
 40
268.3734747577632902
 41
1.887640449438202
 42
50.0
 43
0.0
 44
0.0
 50
0.0
 51
0.0
 71
     0
 72
  1500
 73
     1
 74
     0
 75
     0
 76
     0
 77
     0
 78
     0
  0
ENDTAB
  0
TABLE
  2
LTYPE
 70
     4
  0
LTYPE
  2
AUSGEZOGEN
 70
     0
  3
Ausgezogene Linie
 72
    65
 73
     0
 40
0.0
  0
LTYPE
  2
CONTINUOUS
 70
     0
  3
Solid line
 72
    65
 73
     0
 40
0.0
  0
LTYPE
  2
VERDECKT
 70
     0
  3
Verdeckt __ __ __ __ __ __ __ __ __ __ __ __ __
 72
    65
 73
     2
 40
0.375
 49
0.25
 49
-0.125
  0
ENDTAB
  0
TABLE
  2
LAYER
 70
    12
  0
LAYER
  2
0
 70
     0
 62
     7
  6
AUSGEZOGEN
  0
LAYER
  2
DEFPOINTS
 70
     0
 62
     7
  6
AUSGEZOGEN
  0
LAYER
  2
TEXT35
 70
     0
 62
     1
  6
AUSGEZOGEN
  0
ENDTAB
  0
TABLE
  2
STYLE
 70
     4
  0
STYLE
  2
STANDARD
 70
     0
 40
0.0
 41
0.8
 50
0.0
 71
     0
 42
3.5
  3
simplex.shx
  4

  0
ENDTAB
  0
TABLE
  2
VIEW
 70
     2
  0
ENDTAB
  0
TABLE
  2
UCS
 70
     0
  0
ENDTAB
  0
TABLE
  2
APPID
 70
    11
  0
APPID
  2
ACAD
 70
     0
  0
APPID
  2
ACAD_EXEMPT_FROM_CAD_STANDARDS
 70
     0
  0
APPID
  2
ACAD_NAV_VCDISPLAY
 70
     0
  0
APPID
  2
ACAD_PSEXT
 70
     0
  0
APPID
  2
ACAD_DSTYLE_DIMRADIAL_EXTENSION
 70
     0
  0
APPID
  2
ACAD_MLEADERVER
 70
     0
  0
APPID
  2
ACAECLAYERSTANDARD
 70
     0
  0
APPID
  2
ACCMTRANSPARENCY
 70
     0
  0
APPID
  2
ACAD_STEPID
 70
     0
  0
APPID
  2
ACAD_OBJECT_CHANGE_GUID
 70
     0
  0
APPID
  2
ACADANNOMONITORALERTICONDI
 70
     0
  0
ENDTAB
  0
TABLE
  2
DIMSTYLE
 70
     2
  0
DIMSTYLE
  2
STANDARD
 70
     0
  3

  4

  5

  6

  7

 40
0.0
 41
3.5
 42
1.0
 43
8.0
 44
1.5
 45
0.0
 46
0.0
 47
0.5
 48
0.0
140
3.5
141
1.5
142
0.0
143
25.3999999999999986
144
1.0
145
0.0
146
1.0
147
1.0
 71
     0
 72
     0
 73
     0
 74
     0
 75
     0
 76
     0
 77
     1
 78
     8
170
     0
171
     2
172
     1
173
     0
174
     0
175
     0
176
     0
177
     0
178
     1
  0
ENDTAB
  0
ENDSEC
  0
SECTION
  2
BLOCKS
  0
BLOCK
  8
0
  2
$MODEL_SPACE
 70
     0
 10
0.0
 20
0.0
 30
0.0
  3
$MODEL_SPACE
  1

  0
ENDBLK
  5
17EC
  8
0
  0
BLOCK
 67
     1
  8
0
  2
$PAPER_SPACE
 70
     0
 10
0.0
 20
0.0
 30
0.0
  3
$PAPER_SPACE
  1

  0
ENDBLK
  5
17EA
 67
     1
  8
0
  0
BLOCK
  8
0
  2
A$C23F85B15
 70
     0
 10
0.0
 20
0.0
 30
0.0
  3
A$C23F85B15
  1

  0
LINE
  5
2B34
  8
0
  6
AUSGEZOGEN
 62
     3
 10
-13.5603731169626993
 20
104.9999997206030997
 30
-0.0000000000000233
 11
-35.4254137069090831
 21
104.9999997206030997
 31
-0.0000000000000233
210
0.0
220
1.0
230
-0.0000000000000002
  0
LINE
  5
2B35
  8
0
  6
AUSGEZOGEN
 62
     3
 10
-35.4254137069090689
 20
111.9999997206030997
 30
-0.0000000000000249
 11
-35.4254137069090689
 21
104.9999997206030997
 31
-0.0000000000000233
210
0.0
220
1.0
230
-0.0000000000000002
  0
LINE
  5
2B36
  8
0
  6
AUSGEZOGEN
 62
     3
 10
-13.5603731169626904
 20
104.9999997206030997
 30
-0.0000000000000233
 11
-13.5603731169626904
 21
111.9999997206030997
 31
-0.0000000000000249
210
0.0
220
1.0
230
-0.0000000000000002
  0
LINE
  5
2B37
  8
0
  6
AUSGEZOGEN
 62
     3
 10
50.6071065880641271
 20
104.9999997206030997
 30
-0.0000000000000233
 11
49.007106588064218
 21
104.9999997206030997
 31
-0.0000000000000233
210
0.0
220
1.0
230
-0.0000000000000002
  0
LINE
  5
2B38
  8
0
  6
AUSGEZOGEN
 62
     3
 10
49.0071065880642323
 20
111.9999997206030997
 30
-0.0000000000000249
 11
49.0071065880642323
 21
104.9999997206030997
 31
-0.0000000000000233
210
0.0
220
1.0
230
-0.0000000000000002
  0
LINE
  5
2B39
  8
0
  6
AUSGEZOGEN
 62
     3
 10
-50.5928934119359113
 20
111.9999997206030997
 30
-0.0000000000000249
 11
-48.9928934119358814
 21
111.9999997206030997
 31
-0.0000000000000249
210
0.0
220
1.0
230
-0.0000000000000002
  0
LINE
  5
2B3A
  8
0
  6
AUSGEZOGEN
 62
     3
 10
-48.9928934119358814
 20
104.9999997206030997
 30
-0.0000000000000233
 11
-48.9928934119358814
 21
111.9999997206030997
 31
-0.0000000000000249
210
0.0
220
1.0
230
-0.0000000000000002
  0
LINE
  5
2B3B
  8
0
  6
AUSGEZOGEN
 62
     3
 10
-35.4254137069090831
 20
111.9999997206030997
 30
-0.0000000000000249
 11
-13.5603731169626904
 21
111.9999997206030997
 31
-0.0000000000000249
210
0.0
220
1.0
230
-0.0000000000000002
  0
LINE
  5
2B3C
  8
0
  6
AUSGEZOGEN
 62
     3
 10
49.0071065880642323
 20
111.9999997206030997
 30
-0.0000000000000249
 11
50.6071065880641413
 21
111.9999997206030997
 31
-0.0000000000000249
210
0.0
220
1.0
230
-0.0000000000000002
  0
LINE
  5
2B3D
  8
0
  6
AUSGEZOGEN
 62
     3
 10
-48.9928934119358672
 20
104.9999997206030997
 30
-0.0000000000000233
 11
-50.5928934119358971
 21
104.9999997206030997
 31
-0.0000000000000233
210
0.0
220
1.0
230
-0.0000000000000002
  0
LINE
  5
2B3E
  8
0
  6
AUSGEZOGEN
 62
     3
 10
50.6071065880641413
 20
119.9999997206032987
 30
-0.0000000000000266
 11
-50.5928934119358971
 21
119.9999997206032987
 31
-0.0000000000000266
210
0.0
220
1.0
230
-0.0000000000000002
  0
LINE
  5
2B3F
  8
0
  6
AUSGEZOGEN
 62
     3
 10
-53.9928934119358814
 20
-0.0000002793966587
 30
0.0
 11
54.0071065880641186
 21
-0.0000002793966587
 31
0.0
210
0.0
220
1.0
230
-0.0000000000000002
  0
LINE
  5
2B40
  8
0
  6
AUSGEZOGEN
 62
     3
 10
50.6071065880643687
 20
119.9999997206031992
 30
-0.0000000000000266
 11
50.6071065880643687
 21
111.9999997206030997
 31
-0.0000000000000249
210
0.0
220
1.0
230
-0.0000000000000002
  0
LINE
  5
2B41
  8
0
  6
AUSGEZOGEN
 62
     3
 10
50.6071065880643687
 20
104.9999997206030997
 30
-0.0000000000000233
 11
50.6071065880643687
 21
52.4685774505219769
 31
-0.0000000000000117
210
0.0
220
1.0
230
-0.0000000000000002
  0
LINE
  5
2B42
  8
0
  6
AUSGEZOGEN
 62
     3
 10
-50.5928934119361315
 20
119.9999997206032987
 30
-0.0000000000000266
 11
-50.5928934119361315
 21
111.9999997206030997
 31
-0.0000000000000249
210
0.0
220
1.0
230
-0.0000000000000002
  0
LINE
  5
2B43
  8
0
  6
AUSGEZOGEN
 62
     3
 10
-50.5928934119361315
 20
104.9999997206030997
 30
-0.0000000000000233
 11
-50.5928934119361315
 21
52.4685774505219769
 31
-0.0000000000000117
210
0.0
220
1.0
230
-0.0000000000000002
  0
ARC
  5
2B44
  8
0
  6
AUSGEZOGEN
 62
     3
 10
34.9928934119324424
 20
52.4685774505227087
 30
0.0
 40
15.6000000000036891
210
0.0
220
-0.0000000000000002
230
-1.0
 50
340.000000000001819
 51
359.9999999999973284
  0
ARC
  5
2B45
  8
0
  6
AUSGEZOGEN
 62
     3
 10
-35.0071065880606795
 20
52.4685774505227087
 30
0.0
 40
15.6000000000036891
210
0.0
220
-0.0000000000000002
230
-1.0
 50
180.0000000000025864
 51
199.9999999999982094
  0
LINE
  5
2B46
  8
0
  6
AUSGEZOGEN
 62
     3
 10
-47.99127900729966
 20
42.5699997206033984
 30
-0.0000000000000095
 11
-49.6520982961962432
 21
47.1330632146414601
 31
-0.0000000000000105
210
0.0
220
1.0
230
-0.0000000000000002
  0
LINE
  5
2B47
  8
0
  6
AUSGEZOGEN
 62
     3
 10
48.0054921834278971
 20
42.5699997206033984
 30
-0.0000000000000095
 11
49.6663114723244803
 21
47.1330632146414601
 31
-0.0000000000000105
210
0.0
220
1.0
230
-0.0000000000000002
  0
ARC
  5
2B48
  8
0
  6
AUSGEZOGEN
 62
     3
 10
60.9245875628996885
 20
37.1707113336754418
 30
0.0
 40
13.99999999999803
210
0.0
220
-0.0000000000000002
230
-1.0
 50
163.8280707317281042
 51
199.999999999999801
  0
ARC
  5
2B49
  8
0
  6
AUSGEZOGEN
 62
     3
 10
-60.9388007390279185
 20
37.1707113336754489
 30
0.0
 40
13.99999999999803
210
0.0
220
-0.0000000000000002
230
-1.0
 50
340.0000000000002274
 51
16.1719292682718709
  0
LINE
  5
2B4A
  8
0
  6
AUSGEZOGEN
 62
     3
 10
47.7831040480270275
 20
32.3824293271168031
 30
-0.0000000000000072
 11
53.0663114723244504
 21
17.8669362265651692
 31
-0.000000000000004
210
0.0
220
1.0
230
-0.0000000000000002
  0
LINE
  5
2B4B
  8
0
  6
AUSGEZOGEN
 62
     3
 10
-47.7688908718987904
 20
32.3824293271168031
 30
-0.0000000000000072
 11
-53.0520982961962133
 21
17.8669362265651692
 31
-0.000000000000004
210
0.0
220
1.0
230
-0.0000000000000002
  0
ARC
  5
2B4C
  8
0
  6
AUSGEZOGEN
 62
     3
 10
38.3928934119359297
 20
12.5314219906848798
 30
0.0
 40
15.60000000000006
210
0.0
220
-0.0000000000000002
230
-1.0
 50
0.0
 51
19.9999999999999609
  0
ARC
  5
2B4D
  8
0
  6
AUSGEZOGEN
 62
     3
 10
-38.4071065880641811
 20
12.5314219906848798
 30
0.0
 40
15.6000000000000494
210
0.0
220
-0.0000000000000002
230
-1.0
 50
160.0000000000005969
 51
180.0000000000005969
  0
LINE
  5
2B4E
  8
0
  6
AUSGEZOGEN
 62
     3
 10
54.0071065880641186
 20
12.53142199068472
 30
-0.0000000000000028
 11
54.0071065880641186
 21
-0.0000002793966587
 31
0.0
210
0.0
220
1.0
230
-0.0000000000000002
  0
LINE
  5
2B4F
  8
0
  6
AUSGEZOGEN
 62
     3
 10
-53.9928934119358814
 20
12.53142199068472
 30
-0.0000000000000028
 11
-53.9928934119358814
 21
-0.0000002793966587
 31
0.0
210
0.0
220
1.0
230
-0.0000000000000002
  0
LINE
  5
2B50
  8
0
  6
AUSGEZOGEN
 62
     3
 10
43.2598421693143678
 20
42.5699997206033984
 30
-0.0000000000000095
 11
33.6673004337752104
 21
42.5699997206033984
 31
-0.0000000000000095
210
0.0
220
1.0
230
-0.0000000000000002
  0
LINE
  5
2B51
  8
0
  6
AUSGEZOGEN
 62
     3
 10
43.2598421693143678
 20
41.0699997206033913
 30
-0.0000000000000091
 11
33.6673004337752104
 21
41.0699997206033913
 31
-0.0000000000000091
210
0.0
220
1.0
230
-0.0000000000000002
  0
LINE
  5
2B52
  8
0
  6
AUSGEZOGEN
 62
     3
 10
43.2598421693143678
 20
42.5699997206033984
 30
-0.0000000000000095
 11
44.1053110795338128
 21
42.5699997206033984
 31
-0.0000000000000095
210
0.0
220
1.0
230
-0.0000000000000002
  0
LINE
  5
2B53
  8
0
  6
AUSGEZOGEN
 62
     3
 10
43.2598421693143678
 20
41.0699997206033913
 30
-0.0000000000000091
 11
44.1053110795338128
 21
41.0699997206033913
 31
-0.0000000000000091
210
0.0
220
1.0
230
-0.0000000000000002
  0
LINE
  5
2B54
  8
0
  6
AUSGEZOGEN
 62
     3
 10
44.1053110795338625
 20
42.5699997206034126
 30
-0.0000000000000095
 11
46.3897365332117531
 21
42.5699997206034126
 31
-0.0000000000000095
210
0.0
220
1.0
230
-0.0000000000000002
  0
LINE
  5
2B55
  8
0
  6
AUSGEZOGEN
 62
     3
 10
44.1053110795338625
 20
41.0699997206033984
 30
-0.0000000000000091
 11
46.3897365332117531
 21
41.0699997206033984
 31
-0.0000000000000091
210
0.0
220
1.0
230
-0.0000000000000002
  0
LINE
  5
2B56
  8
0
  6
AUSGEZOGEN
 62
     3
 10
46.3897365332117602
 20
42.5699997206033984
 30
-0.0000000000000095
 11
46.6650079403189579
 21
42.5699997206033984
 31
-0.0000000000000095
210
0.0
220
1.0
230
-0.0000000000000002
  0
LINE
  5
2B57
  8
0
  6
AUSGEZOGEN
 62
     3
 10
46.3897365332117602
 20
41.0699997206033913
 30
-0.0000000000000091
 11
46.6650079403189579
 21
41.0699997206033913
 31
-0.0000000000000091
210
0.0
220
1.0
230
-0.0000000000000002
  0
LINE
  5
2B58
  8
0
  6
AUSGEZOGEN
 62
     3
 10
55.557182537934807
 20
42.5699997206033984
 30
-0.0000000000000095
 11
46.6650079403189579
 21
42.5699997206033984
 31
-0.0000000000000095
210
0.0
220
1.0
230
-0.0000000000000002
  0
LINE
  5
2B59
  8
0
  6
AUSGEZOGEN
 62
     3
 10
55.557182537934807
 20
41.0699997206033913
 30
-0.0000000000000091
 11
46.6650079403189579
 21
41.0699997206033913
 31
-0.0000000000000091
210
0.0
220
1.0
230
-0.0000000000000002
  0
LINE
  5
2B5A
  8
0
  6
AUSGEZOGEN
 62
     3
 10
55.5571825379348212
 20
42.5699997206033984
 30
-0.0000000000000095
 11
56.2800122234474927
 21
42.5699997206033984
 31
-0.0000000000000095
210
0.0
220
1.0
230
-0.0000000000000002
  0
LINE
  5
2B5B
  8
0
  6
AUSGEZOGEN
 62
     3
 10
55.5571825379348212
 20
41.0699997206033913
 30
-0.0000000000000091
 11
56.2800122234474927
 21
41.0699997206033913
 31
-0.0000000000000091
210
0.0
220
1.0
230
-0.0000000000000002
  0
LINE
  5
2B5C
  8
0
  6
AUSGEZOGEN
 62
     3
 10
56.2800122234474927
 20
42.5699997206033984
 30
-0.0000000000000095
 11
57.7467036495892927
 21
42.5699997206033984
 31
-0.0000000000000095
210
0.0
220
1.0
230
-0.0000000000000002
  0
LINE
  5
2B5D
  8
0
  6
AUSGEZOGEN
 62
     3
 10
56.2800122234474927
 20
41.0699997206033913
 30
-0.0000000000000091
 11
57.7467036495892927
 21
41.0699997206033913
 31
-0.0000000000000091
210
0.0
220
1.0
230
-0.0000000000000002
  0
LINE
  5
2B5E
  8
0
  6
AUSGEZOGEN
 62
     3
 10
57.7467036495892785
 20
42.5699997206033984
 30
-0.0000000000000095
 11
57.844522445502939
 21
42.5699997206033984
 31
-0.0000000000000095
210
0.0
220
1.0
230
-0.0000000000000002
  0
LINE
  5
2B5F
  8
0
  6
AUSGEZOGEN
 62
     3
 10
57.7467036495892785
 20
41.0699997206033913
 30
-0.0000000000000091
 11
57.844522445502939
 21
41.0699997206033913
 31
-0.0000000000000091
210
0.0
220
1.0
230
-0.0000000000000002
  0
LINE
  5
2B60
  8
0
  6
AUSGEZOGEN
 62
     3
 10
62.4168944324443871
 20
42.5699997206033984
 30
-0.0000000000000095
 11
57.844522445502939
 21
42.5699997206033984
 31
-0.0000000000000095
210
0.0
220
1.0
230
-0.0000000000000002
  0
LINE
  5
2B61
  8
0
  6
AUSGEZOGEN
 62
     3
 10
62.4168944324443871
 20
41.0699997206033913
 30
-0.0000000000000091
 11
57.844522445502939
 21
41.0699997206033913
 31
-0.0000000000000091
210
0.0
220
1.0
230
-0.0000000000000002
  0
LINE
  5
2B62
  8
0
  6
AUSGEZOGEN
 62
     3
 10
62.4168944324443871
 20
42.5699997206033984
 30
-0.0000000000000095
 11
62.9463292873817295
 21
42.5699997206033984
 31
-0.0000000000000095
210
0.0
220
1.0
230
-0.0000000000000002
  0
LINE
  5
2B63
  8
0
  6
AUSGEZOGEN
 62
     3
 10
62.4168944324443871
 20
41.0699997206033913
 30
-0.0000000000000091
 11
62.9463292873817295
 21
41.0699997206033913
 31
-0.0000000000000091
210
0.0
220
1.0
230
-0.0000000000000002
  0
LINE
  5
2B64
  8
0
  6
AUSGEZOGEN
 62
     3
 10
62.9463292873817295
 20
42.5699997206033984
 30
-0.0000000000000095
 11
63.4517167101565178
 21
42.5699997206033984
 31
-0.0000000000000095
210
0.0
220
1.0
230
-0.0000000000000002
  0
LINE
  5
2B65
  8
0
  6
AUSGEZOGEN
 62
     3
 10
62.9463292873817295
 20
41.0699997206033913
 30
-0.0000000000000091
 11
63.4517167101565178
 21
41.0699997206033913
 31
-0.0000000000000091
210
0.0
220
1.0
230
-0.0000000000000002
  0
LINE
  5
2B66
  8
0
  6
AUSGEZOGEN
 62
     3
 10
63.4517167101565178
 20
42.5699997206033984
 30
-0.0000000000000095
 11
63.4603946769987601
 21
42.5699997206033984
 31
-0.0000000000000095
210
0.0
220
1.0
230
-0.0000000000000002
  0
LINE
  5
2B67
  8
0
  6
AUSGEZOGEN
 62
     3
 10
63.4517167101565178
 20
41.0699997206033913
 30
-0.0000000000000091
 11
63.4603946769987601
 21
41.0699997206033913
 31
-0.0000000000000091
210
0.0
220
1.0
230
-0.0000000000000002
  0
LINE
  5
2B68
  8
0
  6
AUSGEZOGEN
 62
     3
 10
-63.446181500870857
 20
42.5699997206033984
 30
-0.0000000000000095
 11
-63.437503534028572
 21
42.5699997206033984
 31
-0.0000000000000095
210
0.0
220
1.0
230
-0.0000000000000002
  0
LINE
  5
2B69
  8
0
  6
AUSGEZOGEN
 62
     3
 10
-63.446181500870857
 20
41.0699997206033913
 30
-0.0000000000000091
 11
-63.437503534028572
 21
41.0699997206033913
 31
-0.0000000000000091
210
0.0
220
1.0
230
-0.0000000000000002
  0
LINE
  5
2B6A
  8
0
  6
AUSGEZOGEN
 62
     3
 10
-63.437503534028572
 20
42.5699997206033984
 30
-0.0000000000000095
 11
-62.9321161112537766
 21
42.5699997206033984
 31
-0.0000000000000095
210
0.0
220
1.0
230
-0.0000000000000002
  0
LINE
  5
2B6B
  8
0
  6
AUSGEZOGEN
 62
     3
 10
-63.437503534028572
 20
41.0699997206033913
 30
-0.0000000000000091
 11
-62.9321161112537766
 21
41.0699997206033913
 31
-0.0000000000000091
210
0.0
220
1.0
230
-0.0000000000000002
  0
LINE
  5
2B6C
  8
0
  6
AUSGEZOGEN
 62
     3
 10
-62.9321161112537126
 20
42.5699997206033984
 30
-0.0000000000000095
 11
-62.4026812563165478
 21
42.5699997206033984
 31
-0.0000000000000095
210
0.0
220
1.0
230
-0.0000000000000002
  0
LINE
  5
2B6D
  8
0
  6
AUSGEZOGEN
 62
     3
 10
-62.9321161112537126
 20
41.0699997206033913
 30
-0.0000000000000091
 11
-62.4026812563165478
 21
41.0699997206033913
 31
-0.0000000000000091
210
0.0
220
1.0
230
-0.0000000000000002
  0
LINE
  5
2B6E
  8
0
  6
AUSGEZOGEN
 62
     3
 10
-57.8303092693749292
 20
42.5699997206033984
 30
-0.0000000000000095
 11
-62.4026812563165478
 21
42.5699997206033984
 31
-0.0000000000000095
210
0.0
220
1.0
230
-0.0000000000000002
  0
LINE
  5
2B6F
  8
0
  6
AUSGEZOGEN
 62
     3
 10
-57.8303092693749292
 20
41.0699997206033913
 30
-0.0000000000000091
 11
-62.4026812563165478
 21
41.0699997206033913
 31
-0.0000000000000091
210
0.0
220
1.0
230
-0.0000000000000002
  0
LINE
  5
2B70
  8
0
  6
AUSGEZOGEN
 62
     3
 10
-57.8303092693749292
 20
42.5699997206033984
 30
-0.0000000000000095
 11
-57.7324904734612616
 21
42.5699997206033984
 31
-0.0000000000000095
210
0.0
220
1.0
230
-0.0000000000000002
  0
LINE
  5
2B71
  8
0
  6
AUSGEZOGEN
 62
     3
 10
-57.8303092693749292
 20
41.0699997206033913
 30
-0.0000000000000091
 11
-57.7324904734612616
 21
41.0699997206033913
 31
-0.0000000000000091
210
0.0
220
1.0
230
-0.0000000000000002
  0
LINE
  5
2B72
  8
0
  6
AUSGEZOGEN
 62
     3
 10
-57.7324904734612687
 20
42.5699997206034126
 30
-0.0000000000000095
 11
-56.2657990473195468
 21
42.5699997206034126
 31
-0.0000000000000095
210
0.0
220
1.0
230
-0.0000000000000002
  0
LINE
  5
2B73
  8
0
  6
AUSGEZOGEN
 62
     3
 10
-57.7324904734612687
 20
41.0699997206033984
 30
-0.0000000000000091
 11
-56.2657990473195468
 21
41.0699997206033984
 31
-0.0000000000000091
210
0.0
220
1.0
230
-0.0000000000000002
  0
LINE
  5
2B74
  8
0
  6
AUSGEZOGEN
 62
     3
 10
-56.2657990473195397
 20
42.5699997206033984
 30
-0.0000000000000095
 11
-55.542969361806847
 21
42.5699997206033984
 31
-0.0000000000000095
210
0.0
220
1.0
230
-0.0000000000000002
  0
LINE
  5
2B75
  8
0
  6
AUSGEZOGEN
 62
     3
 10
-56.2657990473195397
 20
41.0699997206033913
 30
-0.0000000000000091
 11
-55.542969361806847
 21
41.0699997206033913
 31
-0.0000000000000091
210
0.0
220
1.0
230
-0.0000000000000002
  0
LINE
  5
2B76
  8
0
  6
AUSGEZOGEN
 62
     3
 10
-46.6507947641908274
 20
42.5699997206033984
 30
-0.0000000000000095
 11
-55.542969361806847
 21
42.5699997206033984
 31
-0.0000000000000095
210
0.0
220
1.0
230
-0.0000000000000002
  0
LINE
  5
2B77
  8
0
  6
AUSGEZOGEN
 62
     3
 10
-46.6507947641908274
 20
41.0699997206033913
 30
-0.0000000000000091
 11
-55.542969361806847
 21
41.0699997206033913
 31
-0.0000000000000091
210
0.0
220
1.0
230
-0.0000000000000002
  0
LINE
  5
2B78
  8
0
  6
AUSGEZOGEN
 62
     3
 10
-46.6507947641908416
 20
42.5699997206033984
 30
-0.0000000000000095
 11
-46.3755233570837504
 21
42.5699997206033984
 31
-0.0000000000000095
210
0.0
220
1.0
230
-0.0000000000000002
  0
LINE
  5
2B79
  8
0
  6
AUSGEZOGEN
 62
     3
 10
-46.6507947641908416
 20
41.0699997206033913
 30
-0.0000000000000091
 11
-46.3755233570837504
 21
41.0699997206033913
 31
-0.0000000000000091
210
0.0
220
1.0
230
-0.0000000000000002
  0
LINE
  5
2B7A
  8
0
  6
AUSGEZOGEN
 62
     3
 10
-46.3755233570837433
 20
42.5699997206034126
 30
-0.0000000000000095
 11
-44.0910979034057888
 21
42.5699997206034126
 31
-0.0000000000000095
210
0.0
220
1.0
230
-0.0000000000000002
  0
LINE
  5
2B7B
  8
0
  6
AUSGEZOGEN
 62
     3
 10
-46.3755233570837433
 20
41.0699997206033984
 30
-0.0000000000000091
 11
-44.0910979034057888
 21
41.0699997206033984
 31
-0.0000000000000091
210
0.0
220
1.0
230
-0.0000000000000002
  0
LINE
  5
2B7C
  8
0
  6
AUSGEZOGEN
 62
     3
 10
-44.0910979034058386
 20
42.5699997206033984
 30
-0.0000000000000095
 11
-43.2456289931863509
 21
42.5699997206033984
 31
-0.0000000000000095
210
0.0
220
1.0
230
-0.0000000000000002
  0
LINE
  5
2B7D
  8
0
  6
AUSGEZOGEN
 62
     3
 10
-44.0910979034058386
 20
41.0699997206033913
 30
-0.0000000000000091
 11
-43.2456289931863509
 21
41.0699997206033913
 31
-0.0000000000000091
210
0.0
220
1.0
230
-0.0000000000000002
  0
LINE
  5
2B7E
  8
0
  6
AUSGEZOGEN
 62
     3
 10
-33.6530872576472007
 20
42.5699997206033984
 30
-0.0000000000000095
 11
-43.2456289931863509
 21
42.5699997206033984
 31
-0.0000000000000095
210
0.0
220
1.0
230
-0.0000000000000002
  0
LINE
  5
2B7F
  8
0
  6
AUSGEZOGEN
 62
     3
 10
-33.6530872576472007
 20
41.0699997206033913
 30
-0.0000000000000091
 11
-43.2456289931863509
 21
41.0699997206033913
 31
-0.0000000000000091
210
0.0
220
1.0
230
-0.0000000000000002
  0
LINE
  5
2B80
  8
0
  6
AUSGEZOGEN
 62
     3
 10
-32.5089644520118668
 20
42.5699997206033984
 30
-0.0000000000000095
 11
-33.6530872576472007
 21
42.5699997206033984
 31
-0.0000000000000095
210
0.0
220
1.0
230
-0.0000000000000002
  0
LINE
  5
2B81
  8
0
  6
AUSGEZOGEN
 62
     3
 10
-32.5089644520118668
 20
41.0699997206033913
 30
-0.0000000000000091
 11
-33.6530872576472007
 21
41.0699997206033913
 31
-0.0000000000000091
210
0.0
220
1.0
230
-0.0000000000000002
  0
LINE
  5
2B82
  8
0
  6
AUSGEZOGEN
 62
     3
 10
-30.9896550979386802
 20
42.5699997206033984
 30
-0.0000000000000095
 11
-32.5089644520118668
 21
42.5699997206033984
 31
-0.0000000000000095
210
0.0
220
1.0
230
-0.0000000000000002
  0
LINE
  5
2B83
  8
0
  6
AUSGEZOGEN
 62
     3
 10
-30.9896550979386802
 20
41.0699997206033913
 30
-0.0000000000000091
 11
-32.5089644520118668
 21
41.0699997206033913
 31
-0.0000000000000091
210
0.0
220
1.0
230
-0.0000000000000002
  0
LINE
  5
2B84
  8
0
  6
AUSGEZOGEN
 62
     3
 10
-30.9896550979386483
 20
42.5699997206033984
 30
-0.0000000000000095
 11
-30.4783012548896899
 21
42.5699997206033984
 31
-0.0000000000000095
210
0.0
220
1.0
230
-0.0000000000000002
  0
LINE
  5
2B85
  8
0
  6
AUSGEZOGEN
 62
     3
 10
-30.9896550979386483
 20
41.0699997206033913
 30
-0.0000000000000091
 11
-30.4783012548896899
 21
41.0699997206033913
 31
-0.0000000000000091
210
0.0
220
1.0
230
-0.0000000000000002
  0
LINE
  5
2B86
  8
0
  6
AUSGEZOGEN
 62
     3
 10
-30.4783012548896899
 20
42.5699997206034126
 30
-0.0000000000000095
 11
-27.599757253609539
 21
42.5699997206034126
 31
-0.0000000000000095
210
0.0
220
1.0
230
-0.0000000000000002
  0
LINE
  5
2B87
  8
0
  6
AUSGEZOGEN
 62
     3
 10
-30.4783012548896899
 20
41.0699997206033984
 30
-0.0000000000000091
 11
-27.599757253609539
 21
41.0699997206033984
 31
-0.0000000000000091
210
0.0
220
1.0
230
-0.0000000000000002
  0
LINE
  5
2B88
  8
0
  6
AUSGEZOGEN
 62
     3
 10
-27.5997572536095284
 20
42.5699997206034126
 30
-0.0000000000000095
 11
-26.7144095063438911
 21
42.5699997206034126
 31
-0.0000000000000095
210
0.0
220
1.0
230
-0.0000000000000002
  0
LINE
  5
2B89
  8
0
  6
AUSGEZOGEN
 62
     3
 10
-27.5997572536095284
 20
41.0699997206033913
 30
-0.0000000000000091
 11
-26.7144095063438911
 21
41.0699997206033913
 31
-0.0000000000000091
210
0.0
220
1.0
230
-0.0000000000000002
  0
LINE
  5
2B8A
  8
0
  6
AUSGEZOGEN
 62
     3
 10
-18.0608525910475315
 20
42.5699997206033984
 30
-0.0000000000000095
 11
-26.7144095063438911
 21
42.5699997206033984
 31
-0.0000000000000095
210
0.0
220
1.0
230
-0.0000000000000002
  0
LINE
  5
2B8B
  8
0
  6
AUSGEZOGEN
 62
     3
 10
-18.0608525910475315
 20
41.0699997206033913
 30
-0.0000000000000091
 11
-26.7144095063438911
 21
41.0699997206033913
 31
-0.0000000000000091
210
0.0
220
1.0
230
-0.0000000000000002
  0
LINE
  5
2B8C
  8
0
  6
AUSGEZOGEN
 62
     3
 10
-16.7158555671196609
 20
42.5699997206033984
 30
-0.0000000000000095
 11
-18.060852591047599
 21
42.5699997206033984
 31
-0.0000000000000095
210
0.0
220
1.0
230
-0.0000000000000002
  0
LINE
  5
2B8D
  8
0
  6
AUSGEZOGEN
 62
     3
 10
-16.7158555671196609
 20
41.0699997206033913
 30
-0.0000000000000091
 11
-18.060852591047599
 21
41.0699997206033913
 31
-0.0000000000000091
210
0.0
220
1.0
230
-0.0000000000000002
  0
LINE
  5
2B8E
  8
0
  6
AUSGEZOGEN
 62
     3
 10
-12.3066480901276805
 20
42.5699997206034126
 30
-0.0000000000000095
 11
-16.7158555671196609
 21
42.5699997206034126
 31
-0.0000000000000095
210
0.0
220
1.0
230
-0.0000000000000002
  0
LINE
  5
2B8F
  8
0
  6
AUSGEZOGEN
 62
     3
 10
-12.3066480901276805
 20
41.0699997206033984
 30
-0.0000000000000091
 11
-16.7158555671196609
 21
41.0699997206033984
 31
-0.0000000000000091
210
0.0
220
1.0
230
-0.0000000000000002
  0
LINE
  5
2B90
  8
0
  6
AUSGEZOGEN
 62
     3
 10
-12.3066480901276805
 20
42.5699997206034126
 30
-0.0000000000000095
 11
-11.5969550287013003
 21
42.5699997206034126
 31
-0.0000000000000095
210
0.0
220
1.0
230
-0.0000000000000002
  0
LINE
  5
2B91
  8
0
  6
AUSGEZOGEN
 62
     3
 10
-12.3066480901276805
 20
41.0699997206033984
 30
-0.0000000000000091
 11
-11.5969550287013003
 21
41.0699997206033984
 31
-0.0000000000000091
210
0.0
220
1.0
230
-0.0000000000000002
  0
LINE
  5
2B92
  8
0
  6
AUSGEZOGEN
 62
     3
 10
-11.5969550287013003
 20
42.5699997206034126
 30
-0.0000000000000095
 11
-8.4060644226596555
 21
42.5699997206034126
 31
-0.0000000000000095
210
0.0
220
1.0
230
-0.0000000000000002
  0
LINE
  5
2B93
  8
0
  6
AUSGEZOGEN
 62
     3
 10
-11.5969550287013003
 20
41.0699997206033984
 30
-0.0000000000000091
 11
-8.4060644226596555
 21
41.0699997206033984
 31
-0.0000000000000091
210
0.0
220
1.0
230
-0.0000000000000002
  0
LINE
  5
2B94
  8
0
  6
AUSGEZOGEN
 62
     3
 10
-8.4060644226596501
 20
42.5699997206034126
 30
-0.0000000000000095
 11
-7.5675018444305229
 21
42.5699997206034126
 31
-0.0000000000000095
210
0.0
220
1.0
230
-0.0000000000000002
  0
LINE
  5
2B95
  8
0
  6
AUSGEZOGEN
 62
     3
 10
-8.4060644226596501
 20
41.0699997206033984
 30
-0.0000000000000091
 11
-7.5675018444305229
 21
41.0699997206033984
 31
-0.0000000000000091
210
0.0
220
1.0
230
-0.0000000000000002
  0
LINE
  5
2B96
  8
0
  6
AUSGEZOGEN
 62
     3
 10
-0.7000001931225484
 20
42.5699997206033984
 30
-0.0000000000000095
 11
-7.5675018444305229
 21
42.5699997206033984
 31
-0.0000000000000095
210
0.0
220
1.0
230
-0.0000000000000002
  0
LINE
  5
2B97
  8
0
  6
AUSGEZOGEN
 62
     3
 10
-0.7000001931225484
 20
41.0699997206033913
 30
-0.0000000000000091
 11
-7.5675018444305229
 21
41.0699997206033913
 31
-0.0000000000000091
210
0.0
220
1.0
230
-0.0000000000000002
  0
LINE
  5
2B98
  8
0
  6
AUSGEZOGEN
 62
     3
 10
0.7142133692505582
 20
42.5699997206034126
 30
-0.0000000000000095
 11
-0.7000001931225484
 21
42.5699997206034126
 31
-0.0000000000000095
210
0.0
220
1.0
230
-0.0000000000000002
  0
LINE
  5
2B99
  8
0
  6
AUSGEZOGEN
 62
     3
 10
0.7142133692505582
 20
41.0699997206033913
 30
-0.0000000000000091
 11
-0.7000001931225484
 21
41.0699997206033913
 31
-0.0000000000000091
210
0.0
220
1.0
230
-0.0000000000000002
  0
LINE
  5
2B9A
  8
0
  6
AUSGEZOGEN
 62
     3
 10
7.5817150205584189
 20
42.5699997206034126
 30
-0.0000000000000095
 11
0.7142133692505582
 21
42.5699997206034126
 31
-0.0000000000000095
210
0.0
220
1.0
230
-0.0000000000000002
  0
LINE
  5
2B9B
  8
0
  6
AUSGEZOGEN
 62
     3
 10
7.5817150205584189
 20
41.0699997206033984
 30
-0.0000000000000091
 11
0.7142133692505582
 21
41.0699997206033984
 31
-0.0000000000000091
210
0.0
220
1.0
230
-0.0000000000000002
  0
LINE
  5
2B9C
  8
0
  6
AUSGEZOGEN
 62
     3
 10
7.5817150205584314
 20
42.5699997206034126
 30
-0.0000000000000095
 11
8.4202775987875498
 21
42.5699997206034126
 31
-0.0000000000000095
210
0.0
220
1.0
230
-0.0000000000000002
  0
LINE
  5
2B9D
  8
0
  6
AUSGEZOGEN
 62
     3
 10
7.5817150205584314
 20
41.0699997206033984
 30
-0.0000000000000091
 11
8.4202775987875498
 21
41.0699997206033984
 31
-0.0000000000000091
210
0.0
220
1.0
230
-0.0000000000000002
  0
LINE
  5
2B9E
  8
0
  6
AUSGEZOGEN
 62
     3
 10
8.4202775987875516
 20
42.5699997206034126
 30
-0.0000000000000095
 11
11.6111682048292
 21
42.5699997206034126
 31
-0.0000000000000095
210
0.0
220
1.0
230
-0.0000000000000002
  0
LINE
  5
2B9F
  8
0
  6
AUSGEZOGEN
 62
     3
 10
8.4202775987875516
 20
41.0699997206033984
 30
-0.0000000000000091
 11
11.6111682048292
 21
41.0699997206033984
 31
-0.0000000000000091
210
0.0
220
1.0
230
-0.0000000000000002
  0
LINE
  5
2BA0
  8
0
  6
AUSGEZOGEN
 62
     3
 10
11.6111682048291893
 20
42.5699997206034126
 30
-0.0000000000000095
 11
12.3208612662556298
 21
42.5699997206034126
 31
-0.0000000000000095
210
0.0
220
1.0
230
-0.0000000000000002
  0
LINE
  5
2BA1
  8
0
  6
AUSGEZOGEN
 62
     3
 10
11.6111682048291893
 20
41.0699997206033984
 30
-0.0000000000000091
 11
12.3208612662556298
 21
41.0699997206033984
 31
-0.0000000000000091
210
0.0
220
1.0
230
-0.0000000000000002
  0
LINE
  5
2BA2
  8
0
  6
AUSGEZOGEN
 62
     3
 10
16.7300687432476103
 20
42.5699997206033984
 30
-0.0000000000000095
 11
12.3208612662556298
 21
42.5699997206033984
 31
-0.0000000000000095
210
0.0
220
1.0
230
-0.0000000000000002
  0
LINE
  5
2BA3
  8
0
  6
AUSGEZOGEN
 62
     3
 10
16.7300687432476103
 20
41.0699997206033913
 30
-0.0000000000000091
 11
12.3208612662556298
 21
41.0699997206033913
 31
-0.0000000000000091
210
0.0
220
1.0
230
-0.0000000000000002
  0
LINE
  5
2BA4
  8
0
  6
AUSGEZOGEN
 62
     3
 10
18.0750657671755413
 20
42.5699997206033984
 30
-0.0000000000000095
 11
16.7300687432476387
 21
42.5699997206033984
 31
-0.0000000000000095
210
0.0
220
1.0
230
-0.0000000000000002
  0
LINE
  5
2BA5
  8
0
  6
AUSGEZOGEN
 62
     3
 10
18.0750657671755413
 20
41.0699997206033913
 30
-0.0000000000000091
 11
16.7300687432476387
 21
41.0699997206033913
 31
-0.0000000000000091
210
0.0
220
1.0
230
-0.0000000000000002
  0
LINE
  5
2BA6
  8
0
  6
AUSGEZOGEN
 62
     3
 10
26.7286226824718405
 20
42.5699997206034126
 30
-0.0000000000000095
 11
18.0750657671755413
 21
42.5699997206034126
 31
-0.0000000000000095
210
0.0
220
1.0
230
-0.0000000000000002
  0
LINE
  5
2BA7
  8
0
  6
AUSGEZOGEN
 62
     3
 10
26.7286226824718405
 20
41.0699997206033984
 30
-0.0000000000000091
 11
18.0750657671755413
 21
41.0699997206033984
 31
-0.0000000000000091
210
0.0
220
1.0
230
-0.0000000000000002
  0
LINE
  5
2BA8
  8
0
  6
AUSGEZOGEN
 62
     3
 10
26.7286226824718405
 20
42.5699997206034126
 30
-0.0000000000000095
 11
27.6139704297375488
 21
42.5699997206034126
 31
-0.0000000000000095
210
0.0
220
1.0
230
-0.0000000000000002
  0
LINE
  5
2BA9
  8
0
  6
AUSGEZOGEN
 62
     3
 10
26.7286226824718405
 20
41.0699997206033913
 30
-0.0000000000000091
 11
27.6139704297375488
 21
41.0699997206033913
 31
-0.0000000000000091
210
0.0
220
1.0
230
-0.0000000000000002
  0
LINE
  5
2BAA
  8
0
  6
AUSGEZOGEN
 62
     3
 10
27.6139704297375488
 20
42.5699997206034126
 30
-0.0000000000000095
 11
30.49251443101776
 21
42.5699997206034126
 31
-0.0000000000000095
210
0.0
220
1.0
230
-0.0000000000000002
  0
LINE
  5
2BAB
  8
0
  6
AUSGEZOGEN
 62
     3
 10
27.6139704297375488
 20
41.0699997206033984
 30
-0.0000000000000091
 11
30.49251443101776
 21
41.0699997206033984
 31
-0.0000000000000091
210
0.0
220
1.0
230
-0.0000000000000002
  0
LINE
  5
2BAC
  8
0
  6
AUSGEZOGEN
 62
     3
 10
30.4925144310177494
 20
42.5699997206033984
 30
-0.0000000000000095
 11
31.0038682740667504
 21
42.5699997206033984
 31
-0.0000000000000095
210
0.0
220
1.0
230
-0.0000000000000002
  0
LINE
  5
2BAD
  8
0
  6
AUSGEZOGEN
 62
     3
 10
30.4925144310177494
 20
41.0699997206033913
 30
-0.0000000000000091
 11
31.0038682740667504
 21
41.0699997206033913
 31
-0.0000000000000091
210
0.0
220
1.0
230
-0.0000000000000002
  0
LINE
  5
2BAE
  8
0
  6
AUSGEZOGEN
 62
     3
 10
32.5231776281398766
 20
42.5699997206033984
 30
-0.0000000000000095
 11
31.0038682740667504
 21
42.5699997206033984
 31
-0.0000000000000095
210
0.0
220
1.0
230
-0.0000000000000002
  0
LINE
  5
2BAF
  8
0
  6
AUSGEZOGEN
 62
     3
 10
32.5231776281398766
 20
41.0699997206033913
 30
-0.0000000000000091
 11
31.0038682740667504
 21
41.0699997206033913
 31
-0.0000000000000091
210
0.0
220
1.0
230
-0.0000000000000002
  0
LINE
  5
2BB0
  8
0
  6
AUSGEZOGEN
 62
     3
 10
33.6673004337752104
 20
42.5699997206033984
 30
-0.0000000000000095
 11
32.5231776281398766
 21
42.5699997206033984
 31
-0.0000000000000095
210
0.0
220
1.0
230
-0.0000000000000002
  0
LINE
  5
2BB1
  8
0
  6
AUSGEZOGEN
 62
     3
 10
33.6673004337752104
 20
41.0699997206033913
 30
-0.0000000000000091
 11
32.5231776281398766
 21
41.0699997206033913
 31
-0.0000000000000091
210
0.0
220
1.0
230
-0.0000000000000002
  0
LINE
  5
2BB2
  8
0
  6
AUSGEZOGEN
 62
     3
 10
46.6650079403189224
 20
42.5699997206033984
 30
-0.0000000000000095
 11
46.6650079403189224
 21
41.0699997206033913
 31
-0.0000000000000091
210
0.0
220
1.0
230
-0.0000000000000002
  0
LINE
  5
2BB3
  8
0
  6
AUSGEZOGEN
 62
     3
 10
57.8445224455029887
 20
42.5699997206033984
 30
-0.0000000000000095
 11
57.8445224455029887
 21
41.0699997206033913
 31
-0.0000000000000091
210
0.0
220
1.0
230
-0.0000000000000002
  0
LINE
  5
2BB4
  8
0
  6
AUSGEZOGEN
 62
     3
 10
63.4603946769987886
 20
42.5699997206033984
 30
-0.0000000000000095
 11
63.4603946769987886
 21
41.0699997206033913
 31
-0.0000000000000091
210
0.0
220
1.0
230
-0.0000000000000002
  0
LINE
  5
2BB5
  8
0
  6
AUSGEZOGEN
 62
     3
 10
-63.446181500870857
 20
42.5699997206033984
 30
-0.0000000000000095
 11
-63.446181500870857
 21
41.0699997206033913
 31
-0.0000000000000091
210
0.0
220
1.0
230
-0.0000000000000002
  0
LINE
  5
2BB6
  8
0
  6
AUSGEZOGEN
 62
     3
 10
-57.8303092693749292
 20
42.5699997206033984
 30
-0.0000000000000095
 11
-57.8303092693749292
 21
41.0699997206033913
 31
-0.0000000000000091
210
0.0
220
1.0
230
-0.0000000000000002
  0
LINE
  5
2BB7
  8
0
  6
AUSGEZOGEN
 62
     3
 10
-46.6507947641908274
 20
42.5699997206033984
 30
-0.0000000000000095
 11
-46.6507947641908274
 21
41.0699997206033913
 31
-0.0000000000000091
210
0.0
220
1.0
230
-0.0000000000000002
  0
LINE
  5
2BB8
  8
0
  6
VERDECKT
 62
     1
 10
47.007106588063877
 20
111.9999997206033981
 30
-0.0000000000000249
 11
47.007106588063877
 21
104.9999997206033981
 31
-0.0000000000000233
210
0.0
220
1.0
230
-0.0000000000000002
  0
LINE
  5
2BB9
  8
0
  6
VERDECKT
 62
     1
 10
49.0071065880641186
 20
104.9999997206033981
 30
-0.0000000000000233
 11
47.0071065880641186
 21
104.9999997206033981
 31
-0.0000000000000233
210
0.0
220
1.0
230
-0.0000000000000002
  0
LINE
  5
2BBA
  8
0
  6
VERDECKT
 62
     1
 10
47.0071065880641186
 20
111.9999997206033981
 30
-0.0000000000000249
 11
49.0071065880641186
 21
111.9999997206033981
 31
-0.0000000000000249
210
0.0
220
1.0
230
-0.0000000000000002
  0
LINE
  5
2BBB
  8
0
  6
VERDECKT
 62
     1
 10
-11.4928934119374695
 20
104.9999997206033981
 30
-0.0000000000000233
 11
-11.4928934119374695
 21
111.9999997206033981
 31
-0.0000000000000249
210
0.0
220
1.0
230
-0.0000000000000002
  0
LINE
  5
2BBC
  8
0
  6
VERDECKT
 62
     1
 10
-35.4928934119347517
 20
111.9999997206033981
 30
-0.0000000000000249
 11
-35.4928934119347517
 21
104.9999997206033981
 31
-0.0000000000000233
210
0.0
220
1.0
230
-0.0000000000000002
  0
LINE
  5
2BBD
  8
0
  6
VERDECKT
 62
     1
 10
-13.5603731169626904
 20
111.9999997206033981
 30
-0.0000000000000249
 11
-11.4928934119359898
 21
111.9999997206033981
 31
-0.0000000000000249
210
0.0
220
1.0
230
-0.0000000000000002
  0
LINE
  5
2BBE
  8
0
  6
VERDECKT
 62
     1
 10
-35.4928934119357677
 20
111.9999997206033981
 30
-0.0000000000000249
 11
-35.4254137069090831
 21
111.9999997206033981
 31
-0.0000000000000249
210
0.0
220
1.0
230
-0.0000000000000002
  0
LINE
  5
2BBF
  8
0
  6
VERDECKT
 62
     1
 10
-11.4928934119360004
 20
104.9999997206033981
 30
-0.0000000000000233
 11
-13.5603731169626904
 21
104.9999997206033981
 31
-0.0000000000000233
210
0.0
220
1.0
230
-0.0000000000000002
  0
LINE
  5
2BC0
  8
0
  6
VERDECKT
 62
     1
 10
-35.4254137069090689
 20
104.9999997206033981
 30
-0.0000000000000233
 11
-35.4928934119357677
 21
104.9999997206033981
 31
-0.0000000000000233
210
0.0
220
1.0
230
-0.0000000000000002
  0
LINE
  5
2BC1
  8
0
  6
VERDECKT
 62
     1
 10
-46.9928934119361088
 20
104.9999997206033981
 30
-0.0000000000000233
 11
-46.9928934119361088
 21
111.9999997206033981
 31
-0.0000000000000249
210
0.0
220
1.0
230
-0.0000000000000002
  0
LINE
  5
2BC2
  8
0
  6
VERDECKT
 62
     1
 10
-46.9928934119357606
 20
104.9999997206033981
 30
-0.0000000000000233
 11
-48.9928934119358814
 21
104.9999997206033981
 31
-0.0000000000000233
210
0.0
220
1.0
230
-0.0000000000000002
  0
LINE
  5
2BC3
  8
0
  6
VERDECKT
 62
     1
 10
-48.9928934119358885
 20
111.9999997206033981
 30
-0.0000000000000249
 11
-46.9928934119357606
 21
111.9999997206033981
 31
-0.0000000000000249
210
0.0
220
1.0
230
-0.0000000000000002
  0
ARC
  5
2BC4
  8
0
  6
VERDECKT
 62
     1
 10
38.3928934119345016
 20
12.53142199068472
 30
0.0
 40
14.0000000000014602
210
0.0
220
-0.0000000000000002
230
-1.0
 50
0.0000000000013994
 51
19.9999999999986215
  0
ARC
  5
2BC5
  8
0
  6
VERDECKT
 62
     1
 10
-38.4071065880625113
 20
12.5314219906846596
 30
0.0
 40
14.0000000000016893
210
0.0
220
-0.0000000000000002
230
-1.0
 50
160.0000000000013927
 51
179.9999999999982947
  0
LINE
  5
2BC6
  8
0
  6
VERDECKT
 62
     1
 10
46.2795958547697523
 20
31.8351970977955609
 30
-0.0000000000000071
 11
51.5628032790669479
 21
17.3197039972442717
 31
-0.0000000000000038
210
0.0
220
1.0
230
-0.0000000000000002
  0
LINE
  5
2BC7
  8
0
  6
VERDECKT
 62
     1
 10
-46.2653826786415223
 20
31.8351970977955609
 30
-0.0000000000000071
 11
-51.5485901029387108
 21
17.3197039972442717
 31
-0.0000000000000038
210
0.0
220
1.0
230
-0.0000000000000002
  0
ARC
  5
2BC8
  8
0
  6
VERDECKT
 62
     1
 10
60.9245875629054368
 20
37.1707113336752073
 30
0.0
 40
15.6000000000038099
210
0.0
220
-0.0000000000000002
230
-1.0
 50
160.0000000000019043
 51
199.9999999999926104
  0
ARC
  5
2BC9
  8
0
  6
VERDECKT
 62
     1
 10
-60.938800739033681
 20
37.1707113336752002
 30
0.0
 40
15.6000000000038099
210
0.0
220
-0.0000000000000002
230
-1.0
 50
340.0000000000073896
 51
19.9999999999980993
  0
LINE
  5
2BCA
  8
0
  6
VERDECKT
 62
     1
 10
-46.2653826786415081
 20
42.5062255695564488
 30
-0.0000000000000094
 11
-48.1485901029388401
 21
47.6802954439625424
 31
-0.0000000000000106
210
0.0
220
1.0
230
-0.0000000000000002
  0
LINE
  5
2BCB
  8
0
  6
VERDECKT
 62
     1
 10
46.2795958547697523
 20
42.5062255695564488
 30
-0.0000000000000094
 11
48.1628032790670702
 21
47.6802954439625424
 31
-0.0000000000000106
210
0.0
220
1.0
230
-0.0000000000000002
  0
ARC
  5
2BCC
  8
0
  6
VERDECKT
 62
     1
 10
29.2870273012496689
 20
53.3866609992202186
 30
0.0
 40
19.7058661106863298
210
0.0
220
-0.0000000000000002
230
-1.0
 50
343.1673667790935269
 51
0.0000000000008142
  0
ARC
  5
2BCD
  8
0
  6
VERDECKT
 62
     1
 10
-29.3012404773779096
 20
53.3866609992202186
 30
0.0
 40
19.7058661106863191
210
0.0
220
-0.0000000000000002
230
-1.0
 50
179.9999999999992042
 51
196.8326332209063878
  0
LINE
  5
2BCE
  8
0
  6
VERDECKT
 62
     1
 10
49.0071065880642323
 20
119.9999997206033981
 30
-0.0000000000000266
 11
49.0071065880642323
 21
111.9999997206033981
 31
-0.0000000000000249
210
0.0
220
1.0
230
-0.0000000000000002
  0
LINE
  5
2BCF
  8
0
  6
VERDECKT
 62
     1
 10
49.0071065880642323
 20
104.9999997206033981
 30
-0.0000000000000233
 11
49.0071065880642323
 21
53.3866609992205028
 31
-0.0000000000000119
210
0.0
220
1.0
230
-0.0000000000000002
  0
LINE
  5
2BD0
  8
0
  6
VERDECKT
 62
     1
 10
-48.9928934119360022
 20
119.9999997206033981
 30
-0.0000000000000266
 11
-48.9928934119360022
 21
111.9999997206033981
 31
-0.0000000000000249
210
0.0
220
1.0
230
-0.0000000000000002
  0
LINE
  5
2BD1
  8
0
  6
VERDECKT
 62
     1
 10
-48.9928934119360022
 20
104.9999997206033981
 30
-0.0000000000000233
 11
-48.9928934119360022
 21
53.3866609992205028
 31
-0.0000000000000119
210
0.0
220
1.0
230
-0.0000000000000002
  0
LINE
  5
2BD2
  8
0
  6
VERDECKT
 62
     1
 10
-47.7688908718989396
 20
41.9589933402353097
 30
-0.0000000000000093
 11
-47.99127900729966
 21
42.5699997206033984
 31
-0.0000000000000095
210
0.0
220
1.0
230
-0.0000000000000002
  0
LINE
  5
2BD3
  8
0
  6
VERDECKT
 62
     1
 10
47.7831040480271696
 20
41.9589933402353097
 30
-0.0000000000000093
 11
48.0054921834278971
 21
42.5699997206033984
 31
-0.0000000000000095
210
0.0
220
1.0
230
-0.0000000000000002
  0
ARC
  5
2BD4
  8
0
  6
VERDECKT
 62
     1
 10
60.9245875629001077
 20
37.1707113336752926
 30
0.0
 40
13.9999999999984794
210
0.0
220
-0.0000000000000002
230
-1.0
 50
159.9999999999951967
 51
163.8280707317279052
  0
ARC
  5
2BD5
  8
0
  6
VERDECKT
 62
     1
 10
-60.938800739030242
 20
37.1707113336746318
 30
0.0
 40
14.0000000000004796
210
0.0
220
-0.0000000000000002
230
-1.0
 50
16.1719292682724607
 51
20.0000000000046114
  0
LINE
  5
2BD6
  8
0
  6
VERDECKT
 62
     1
 10
52.4071065880642024
 20
12.5314219906850592
 30
-0.0000000000000028
 11
52.4071065880642024
 21
-0.0000002793966587
 31
0.0
210
0.0
220
1.0
230
-0.0000000000000002
  0
LINE
  5
2BD7
  8
0
  6
VERDECKT
 62
     1
 10
-52.3928934119359724
 20
12.5314219906850592
 30
-0.0000000000000028
 11
-52.3928934119359724
 21
-0.0000002793966587
 31
0.0
210
0.0
220
1.0
230
-0.0000000000000002
  0
LINE
  5
2BD8
  8
0
  6
VERDECKT
 62
     1
 10
-47.9322332401561084
 20
74.9999997206033839
 30
-0.0000000000000167
 11
47.9464464162843385
 21
74.9999997206033839
 31
-0.0000000000000167
210
0.0
220
1.0
230
-0.0000000000000002
  0
LINE
  5
2BD9
  8
0
  6
VERDECKT
 62
     1
 10
-48.9928934119355333
 20
73.9393395488241225
 30
-0.0000000000000164
 11
49.0071065880637704
 21
73.9393395488241225
 31
-0.0000000000000164
210
0.0
220
1.0
230
-0.0000000000000002
  0
LINE
  5
2BDA
  8
0
  6
VERDECKT
 62
     1
 10
-26.0611798506212686
 20
1.9999997206033699
 30
-0.0000000000000004
 11
26.0753930267495093
 21
1.9999997206033699
 31
-0.0000000000000004
210
0.0
220
1.0
230
-0.0000000000000002
  0
LINE
  5
2BDB
  8
0
  6
VERDECKT
 62
     1
 10
-24.5554500943063694
 20
1.999999720603364
 30
-0.0000000000000004
 11
-24.9928934119359383
 21
6.9999997206033102
 31
-0.0000000000000016
210
0.0
220
1.0
230
-0.0000000000000002
  0
LINE
  5
2BDC
  8
0
  6
VERDECKT
 62
     1
 10
24.5696632704345994
 20
1.999999720603364
 30
-0.0000000000000004
 11
25.007106588064179
 21
6.9999997206033102
 31
-0.0000000000000016
210
0.0
220
1.0
230
-0.0000000000000002
  0
LINE
  5
2BDD
  8
0
  6
VERDECKT
 62
     1
 10
25.0071065880641186
 20
48.9540581745849224
 30
-0.0000000000000109
 11
25.0071065880641186
 21
6.9999997206033138
 31
-0.0000000000000016
210
0.0
220
1.0
230
-0.0000000000000002
  0
LINE
  5
2BDE
  8
0
  6
VERDECKT
 62
     1
 10
-24.9928934119358814
 20
48.9540581745849224
 30
-0.0000000000000109
 11
-24.9928934119358814
 21
6.9999997206033138
 31
-0.0000000000000016
210
0.0
220
1.0
230
-0.0000000000000002
  0
ARC
  5
2BDF
  8
0
  6
VERDECKT
 62
     1
 10
32.4928934119357606
 20
48.9540581745849224
 30
0.0
 40
7.4999999999998943
210
0.0
220
-0.0000000000000002
230
-1.0
 50
134.9999999999992895
 51
180.0
  0
ARC
  5
2BE0
  8
0
  6
VERDECKT
 62
     1
 10
-32.5071065880639978
 20
48.9540581745849224
 30
0.0
 40
7.4999999999998916
210
0.0
220
-0.0000000000000002
230
-1.0
 50
0.0
 51
45.0000000000006608
  0
LINE
  5
2BE1
  8
0
  6
VERDECKT
 62
     1
 10
-27.1895925530367784
 20
54.2573590334840219
 30
-0.000000000000012
 11
-47.9322332401560871
 21
74.9999997206033981
 31
-0.0000000000000167
210
0.0
220
1.0
230
-0.0000000000000002
  0
LINE
  5
2BE2
  8
0
  6
VERDECKT
 62
     1
 10
27.2038057291650084
 20
54.2573590334840219
 30
-0.000000000000012
 11
47.9464464162843171
 21
74.9999997206033981
 31
-0.0000000000000167
210
0.0
220
1.0
230
-0.0000000000000002
  0
LINE
  5
2BE3
  8
0
  6
VERDECKT
 62
     1
 10
47.9464464162843598
 20
74.9999997206033981
 30
-0.0000000000000167
 11
49.0071065880637917
 21
73.9393395488241367
 31
-0.0000000000000164
210
0.0
220
1.0
230
-0.0000000000000002
  0
LINE
  5
2BE4
  8
0
  6
VERDECKT
 62
     1
 10
-47.9322332401561226
 20
74.9999997206033981
 30
-0.0000000000000167
 11
-48.9928934119355475
 21
73.9393395488241367
 31
-0.0000000000000164
210
0.0
220
1.0
230
-0.0000000000000002
  0
LINE
  5
2BE5
  8
0
  6
VERDECKT
 62
     1
 10
-28.2502527248165798
 20
53.1966988617041565
 30
-0.0000000000000118
 11
-48.9928934119355475
 21
73.9393395488241083
 31
-0.0000000000000164
210
0.0
220
1.0
230
-0.0000000000000002
  0
LINE
  5
2BE6
  8
0
  6
VERDECKT
 62
     1
 10
28.2644659009448205
 20
53.1966988617041565
 30
-0.0000000000000118
 11
49.0071065880637917
 21
73.9393395488241083
 31
-0.0000000000000164
210
0.0
220
1.0
230
-0.0000000000000002
  0
ARC
  5
2BE7
  8
0
  6
VERDECKT
 62
     1
 10
32.4928934119359027
 20
48.9540581745849579
 30
0.0
 40
6.0000000000000133
210
0.0
220
-0.0000000000000002
230
-1.0
 50
135.0000000000007958
 51
180.0000000000003979
  0
ARC
  5
2BE8
  8
0
  6
VERDECKT
 62
     1
 10
-32.5071065880641328
 20
48.9540581745849579
 30
0.0
 40
6.0000000000000071
210
0.0
220
-0.0000000000000002
230
-1.0
 50
359.9999999999996021
 51
44.9999999999992397
  0
LINE
  5
2BE9
  8
0
  6
VERDECKT
 62
     1
 10
26.5071065880641186
 20
48.9540581745849224
 30
-0.0000000000000109
 11
26.5071065880641186
 21
6.9345083062404749
 31
-0.0000000000000015
210
0.0
220
1.0
230
-0.0000000000000002
  0
LINE
  5
2BEA
  8
0
  6
VERDECKT
 62
     1
 10
-26.4928934119358814
 20
48.9540581745849224
 30
-0.0000000000000109
 11
-26.4928934119358814
 21
6.9345083062404749
 31
-0.0000000000000015
210
0.0
220
1.0
230
-0.0000000000000002
  0
LINE
  5
2BEB
  8
0
  6
VERDECKT
 62
     1
 10
-26.0611798506212686
 20
1.9999997206033699
 30
-0.0000000000000004
 11
-26.4928934119358814
 21
6.9345083062404749
 31
-0.0000000000000015
210
0.0
220
1.0
230
-0.0000000000000002
  0
LINE
  5
2BEC
  8
0
  6
VERDECKT
 62
     1
 10
26.0753930267495093
 20
1.9999997206033699
 30
-0.0000000000000004
 11
26.5071065880641186
 21
6.9345083062404749
 31
-0.0000000000000015
210
0.0
220
1.0
230
-0.0000000000000002
  0
LINE
  5
2BED
  8
0
  6
VERDECKT
 62
     1
 10
22.3061446937406913
 20
111.9999997206030002
 30
-0.0000000000000249
 11
15.3061446937407997
 21
106.9999997206030002
 31
-0.0000000000000238
210
0.0
220
1.0
230
-0.0000000000000002
  0
LINE
  5
2BEE
  8
0
  6
VERDECKT
 62
     1
 10
12.7080684823875405
 20
106.9999997206030002
 30
-0.0000000000000238
 11
15.3061446937409205
 21
106.9999997206030002
 31
-0.0000000000000238
210
0.0
220
1.0
230
-0.0000000000000002
  0
LINE
  5
2BEF
  8
0
  6
VERDECKT
 62
     1
 10
12.7080684823875405
 20
106.9999997206030002
 30
-0.0000000000000238
 11
19.7080684823874286
 21
111.9999997206030002
 31
-0.0000000000000249
210
0.0
220
1.0
230
-0.0000000000000002
  0
LINE
  5
2BF0
  8
0
  6
VERDECKT
 62
     1
 10
9.2080684823875458
 20
106.9999997206030997
 30
-0.0000000000000238
 11
12.7080684823875405
 21
106.9999997206030002
 31
-0.0000000000000238
210
0.0
220
1.0
230
-0.0000000000000002
  0
LINE
  5
2BF1
  8
0
  6
VERDECKT
 62
     1
 10
11.8061446937409205
 20
106.9999997206030997
 30
-0.0000000000000238
 11
11.8061446937407997
 21
99.7999997206032106
 31
-0.0000000000000222
210
0.0
220
1.0
230
-0.0000000000000002
  0
LINE
  5
2BF2
  8
0
  6
VERDECKT
 62
     1
 10
9.2080684823874321
 20
99.7999997206032106
 30
-0.0000000000000222
 11
9.2080684823875458
 21
106.9999997206030997
 31
-0.0000000000000238
210
0.0
220
1.0
230
-0.0000000000000002
  0
LINE
  5
2BF3
  8
0
  6
VERDECKT
 62
     1
 10
12.7080684823875405
 20
99.7999997206032106
 30
-0.0000000000000222
 11
15.3061446937409205
 21
99.7999997206032106
 31
-0.0000000000000222
210
0.0
220
1.0
230
-0.0000000000000002
  0
LINE
  5
2BF4
  8
0
  6
VERDECKT
 62
     1
 10
12.7080684823875405
 20
99.7999997206032106
 30
-0.0000000000000222
 11
9.2080684823875458
 21
99.7999997206032106
 31
-0.0000000000000222
210
0.0
220
1.0
230
-0.0000000000000002
  0
LINE
  5
2BF5
  8
0
  6
VERDECKT
 62
     1
 10
15.3061446937409205
 20
99.7999997206032106
 30
-0.0000000000000222
 11
22.3061446937408085
 21
94.7999997206031964
 31
-0.000000000000021
210
0.0
220
1.0
230
-0.0000000000000002
  0
LINE
  5
2BF6
  8
0
  6
VERDECKT
 62
     1
 10
19.7080684823874286
 20
94.7999997206031964
 30
-0.000000000000021
 11
12.7080684823875405
 21
99.7999997206032106
 31
-0.0000000000000222
210
0.0
220
1.0
230
-0.0000000000000002
  0
LINE
  5
2BF7
  8
0
  6
VERDECKT
 62
     1
 10
23.2080684823874286
 20
94.7999997206030827
 30
-0.000000000000021
 11
25.8061446937408085
 21
94.7999997206030827
 31
-0.000000000000021
210
0.0
220
1.0
230
-0.0000000000000002
  0
LINE
  5
2BF8
  8
0
  6
VERDECKT
 62
     1
 10
23.2080684823874286
 20
94.7999997206030827
 30
-0.000000000000021
 11
19.7080684823874286
 21
94.7999997206031964
 31
-0.000000000000021
210
0.0
220
1.0
230
-0.0000000000000002
  0
LINE
  5
2BF9
  8
0
  6
VERDECKT
 62
     1
 10
25.8061446937408085
 20
94.7999997206030827
 30
-0.000000000000021
 11
25.8061446937408085
 21
97.2999997206030969
 31
-0.0000000000000216
210
0.0
220
1.0
230
-0.0000000000000002
  0
LINE
  5
2BFA
  8
0
  6
VERDECKT
 62
     1
 10
23.2080684823874286
 20
97.2999997206030969
 30
-0.0000000000000216
 11
25.8061446937408085
 21
97.2999997206030969
 31
-0.0000000000000216
210
0.0
220
1.0
230
-0.0000000000000002
  0
LINE
  5
2BFB
  8
0
  6
VERDECKT
 62
     1
 10
23.2080684823874286
 20
97.2999997206030969
 30
-0.0000000000000216
 11
23.2080684823874286
 21
94.7999997206030827
 31
-0.000000000000021
210
0.0
220
1.0
230
-0.0000000000000002
  0
LINE
  5
2BFC
  8
0
  6
VERDECKT
 62
     1
 10
25.8061446937408085
 20
97.2999997206030969
 30
-0.0000000000000216
 11
24.8061446937408085
 21
98.454700258982399
 31
-0.0000000000000219
210
0.0
220
1.0
230
-0.0000000000000002
  0
LINE
  5
2BFD
  8
0
  6
VERDECKT
 62
     1
 10
22.2080684823874286
 20
98.454700258982399
 30
-0.0000000000000219
 11
24.8061446937408085
 21
98.454700258982399
 31
-0.0000000000000219
210
0.0
220
1.0
230
-0.0000000000000002
  0
LINE
  5
2BFE
  8
0
  6
VERDECKT
 62
     1
 10
22.2080684823874286
 20
98.454700258982399
 30
-0.0000000000000219
 11
23.2080684823874286
 21
97.2999997206030969
 31
-0.0000000000000216
210
0.0
220
1.0
230
-0.0000000000000002
  0
LINE
  5
2BFF
  8
0
  6
VERDECKT
 62
     1
 10
24.8061446937408085
 20
98.454700258982399
 30
-0.0000000000000219
 11
24.8061446937408085
 21
108.3452991822237976
 31
-0.0000000000000241
210
0.0
220
1.0
230
-0.0000000000000002
  0
LINE
  5
2C00
  8
0
  6
VERDECKT
 62
     1
 10
22.2080684823874286
 20
108.3452991822237976
 30
-0.0000000000000241
 11
24.8061446937408085
 21
108.3452991822237976
 31
-0.0000000000000241
210
0.0
220
1.0
230
-0.0000000000000002
  0
LINE
  5
2C01
  8
0
  6
VERDECKT
 62
     1
 10
22.2080684823874286
 20
108.3452991822237976
 30
-0.0000000000000241
 11
22.2080684823874286
 21
98.454700258982399
 31
-0.0000000000000219
210
0.0
220
1.0
230
-0.0000000000000002
  0
LINE
  5
2C02
  8
0
  6
VERDECKT
 62
     1
 10
24.8061446937408085
 20
108.3452991822237976
 30
-0.0000000000000241
 11
25.8061446937408085
 21
109.4999997206030997
 31
-0.0000000000000243
210
0.0
220
1.0
230
-0.0000000000000002
  0
LINE
  5
2C03
  8
0
  6
VERDECKT
 62
     1
 10
23.2080684823874286
 20
109.4999997206030997
 30
-0.0000000000000243
 11
25.8061446937408085
 21
109.4999997206030997
 31
-0.0000000000000243
210
0.0
220
1.0
230
-0.0000000000000002
  0
LINE
  5
2C04
  8
0
  6
VERDECKT
 62
     1
 10
23.2080684823874286
 20
109.4999997206030997
 30
-0.0000000000000243
 11
22.2080684823874286
 21
108.3452991822237976
 31
-0.0000000000000241
210
0.0
220
1.0
230
-0.0000000000000002
  0
LINE
  5
2C05
  8
0
  6
VERDECKT
 62
     1
 10
25.8061446937408085
 20
109.4999997206030997
 30
-0.0000000000000243
 11
25.8061446937408085
 21
111.9999997206030997
 31
-0.0000000000000249
210
0.0
220
1.0
230
-0.0000000000000002
  0
LINE
  5
2C06
  8
0
  6
VERDECKT
 62
     1
 10
23.2080684823874286
 20
111.9999997206030997
 30
-0.0000000000000249
 11
25.8061446937408085
 21
111.9999997206030997
 31
-0.0000000000000249
210
0.0
220
1.0
230
-0.0000000000000002
  0
LINE
  5
2C07
  8
0
  6
VERDECKT
 62
     1
 10
23.2080684823874286
 20
111.9999997206030997
 30
-0.0000000000000249
 11
23.2080684823874286
 21
109.4999997206030997
 31
-0.0000000000000243
210
0.0
220
1.0
230
-0.0000000000000002
  0
LINE
  5
2C08
  8
0
  6
VERDECKT
 62
     1
 10
19.7080684823874286
 20
111.9999997206030002
 30
-0.0000000000000249
 11
23.2080684823874286
 21
111.9999997206030997
 31
-0.0000000000000249
210
0.0
220
1.0
230
-0.0000000000000002
  0
LINE
  5
2C09
  8
0
  6
VERDECKT
 62
     1
 10
48.007106588064012
 20
42.5699997206033984
 30
-0.0000000000000095
 11
48.007106588064012
 21
41.0699997206033913
 31
-0.0000000000000091
210
0.0
220
1.0
230
-0.0000000000000002
  0
LINE
  5
2C0A
  8
0
  6
VERDECKT
 62
     1
 10
-47.992893411935988
 20
42.5699997206033984
 30
-0.0000000000000095
 11
-47.992893411935988
 21
41.0699997206033913
 31
-0.0000000000000091
210
0.0
220
1.0
230
-0.0000000000000002
  0
LINE
  5
2C0B
  8
0
  6
VERDECKT
 62
     1
 10
45.1210752674359483
 20
42.5699997206033984
 30
-0.0000000000000095
 11
45.1210752674359483
 21
41.0699997206033913
 31
-0.0000000000000091
210
0.0
220
1.0
230
-0.0000000000000002
  0
LINE
  5
2C0C
  8
0
  6
VERDECKT
 62
     1
 10
53.2173280168877696
 20
42.5699997206033984
 30
-0.0000000000000095
 11
53.2173280168877696
 21
41.0699997206033913
 31
-0.0000000000000091
210
0.0
220
1.0
230
-0.0000000000000002
  0
LINE
  5
2C0D
  8
0
  6
VERDECKT
 62
     1
 10
56.0071065880640191
 20
42.5699997206033984
 30
-0.0000000000000095
 11
56.0071065880640191
 21
41.0699997206033913
 31
-0.0000000000000091
210
0.0
220
1.0
230
-0.0000000000000002
  0
LINE
  5
2C0E
  8
0
  6
VERDECKT
 62
     1
 10
-55.992893411935988
 20
42.5699997206033984
 30
-0.0000000000000095
 11
-55.992893411935988
 21
41.0699997206033913
 31
-0.0000000000000091
210
0.0
220
1.0
230
-0.0000000000000002
  0
LINE
  5
2C0F
  8
0
  6
VERDECKT
 62
     1
 10
-53.2031148407598025
 20
42.5699997206033984
 30
-0.0000000000000095
 11
-53.2031148407598025
 21
41.0699997206033913
 31
-0.0000000000000091
210
0.0
220
1.0
230
-0.0000000000000002
  0
LINE
  5
2C10
  8
0
  6
VERDECKT
 62
     1
 10
-45.1068620913080309
 20
42.5699997206033984
 30
-0.0000000000000095
 11
-45.1068620913080309
 21
41.0699997206033913
 31
-0.0000000000000091
210
0.0
220
1.0
230
-0.0000000000000002
  0
ENDBLK
  5
2C12
  8
0
  0
BLOCK
  8
0
  2
A$C3DBB18FC
 70
     0
 10
0.0
 20
0.0
 30
0.0
  3
A$C3DBB18FC
  1

  0
LINE
  5
2C16
  8
0
  6
AUSGEZOGEN
 62
     3
 10
46.9999999999997868
 20
-13.8564064605510602
 30
0.0000000000000142
 11
46.9999999999997868
 21
13.8564064605504207
 31
0.0000000000000142
  0
LINE
  5
2C17
  8
0
  6
AUSGEZOGEN
 62
     3
 10
-35.5000000000002132
 20
-33.7749907475934918
 30
-0.0000000000000142
 11
-11.5000000000002007
 21
-47.6313972081444774
 31
-0.0000000000000089
  0
LINE
  5
2C18
  8
0
  6
AUSGEZOGEN
 62
     3
 10
-47.000000000000199
 20
13.8564064605508506
 30
-0.0000000000000142
 11
-47.000000000000199
 21
-13.8564064605514794
 31
-0.0000000000000142
  0
LINE
  5
2C19
  8
0
  6
AUSGEZOGEN
 62
     3
 10
-11.5000000000003109
 20
47.6313972081437811
 30
0.0
 11
-35.5000000000000924
 21
33.7749907475929092
 31
-0.0000000000000053
  0
CIRCLE
  5
2C1A
  8
0
  6
AUSGEZOGEN
 62
     3
 10
0.0000000000000266
 20
0.0000000000000257
 30
0.0
 40
50.6000000000000014
  0
CIRCLE
  5
2C1B
  8
0
  6
AUSGEZOGEN
 62
     3
 10
0.0000000000000266
 20
0.0000000000000226
 30
0.0
 40
49.0
  0
LINE
  5
2C1C
  8
0
  6
AUSGEZOGEN
 62
     3
 10
19.7009618943234486
 20
37.1230669589465094
 30
0.0
 11
12.7009618943234504
 21
24.9987113059644592
 31
-0.0000000000000018
  0
LINE
  5
2C1D
  8
0
  6
AUSGEZOGEN
 62
     3
 10
15.2990381056767095
 20
23.4987113059644699
 30
0.0
 11
12.7009618943234504
 21
24.9987113059644699
 31
-0.0000000000000006
  0
LINE
  5
2C1E
  8
0
  6
AUSGEZOGEN
 62
     3
 10
15.2990381056767095
 20
23.4987113059644699
 30
0.0
 11
22.2990381056767113
 21
35.6230669589465094
 31
0.0000000000000018
  0
LINE
  5
2C1F
  8
0
  6
AUSGEZOGEN
 62
     3
 10
22.2990381056767113
 20
35.6230669589464526
 30
0.0
 11
19.7009618943234486
 21
37.1230669589464526
 31
-0.0000000000000006
  0
LINE
  5
2C20
  8
0
  6
AUSGEZOGEN
 62
     3
 10
12.7009618943234504
 20
24.9987113059644805
 30
0.0
 11
9.2009618943234504
 21
18.936533479473411
 31
-0.0000000000000008
  0
LINE
  5
2C21
  8
0
  6
AUSGEZOGEN
 62
     3
 10
11.7990381056767095
 20
17.436533479473411
 30
0.0
 11
9.2009618943234504
 21
18.936533479473411
 31
-0.0000000000000006
  0
LINE
  5
2C22
  8
0
  6
AUSGEZOGEN
 62
     3
 10
11.7990381056767095
 20
17.436533479473411
 30
0.0
 11
15.2990381056767095
 21
23.4987113059644912
 31
0.0000000000000008
  0
LINE
  5
2C23
  8
0
  6
AUSGEZOGEN
 62
     3
 10
23.1894796118169992
 20
43.165356888749649
 30
0.0
 11
19.7009618943233384
 21
37.1230669589464526
 31
-0.0000000000000008
  0
LINE
  5
2C24
  8
0
  6
AUSGEZOGEN
 62
     3
 10
22.2990381056767113
 20
35.6230669589464526
 30
0.0
 11
25.7875558231703792
 21
41.6653568887496277
 31
0.0000000000000008
  0
ARC
  5
2C25
  8
0
  6
AUSGEZOGEN
 62
     3
 10
0.0000000000000004
 20
0.0000000000000083
 30
0.0
 40
24.5625566823704311
 50
63.5011493106753022
 51
180.0
  0
ARC
  5
2C26
  8
0
  6
AUSGEZOGEN
 62
     3
 10
0.0000000000000004
 20
0.0000000000000154
 30
0.0
 40
24.5625566823704311
 50
303.5011493106749754
 51
56.4988506893249607
  0
ARC
  5
2C27
  8
0
  6
AUSGEZOGEN
 62
     3
 10
0.0000000000000004
 20
0.0000000000000154
 30
0.0
 40
24.5625566823704311
 50
180.0
 51
296.4988506893249109
  0
ARC
  5
2C28
  8
0
  6
AUSGEZOGEN
 62
     3
 10
0.0000000000000109
 20
0.0000000000000467
 30
0.0
 40
25.0
 50
63.4398127675151713
 51
180.0
  0
ARC
  5
2C29
  8
0
  6
AUSGEZOGEN
 62
     3
 10
0.0000000000000109
 20
0.0000000000000182
 30
0.0
 40
25.0
 50
303.4398127675149794
 51
56.5601872324849708
  0
ARC
  5
2C2A
  8
0
  6
AUSGEZOGEN
 62
     3
 10
0.0000000000000109
 20
-0.0000000000000208
 30
0.0
 40
24.9999999999999716
 50
179.9999999999998863
 51
296.5601872324850774
  0
ARC
  5
2C2B
  8
0
  6
AUSGEZOGEN
 62
     3
 10
0.0000000000000167
 20
-0.0000000000000121
 30
0.0
 40
47.939339828220227
 50
131.3609507808201045
 51
168.6390492191819988
  0
ARC
  5
2C2C
  8
0
  6
AUSGEZOGEN
 62
     3
 10
0.0000000000000167
 20
-0.0000000000000086
 30
0.0
 40
47.9393398282202625
 50
61.7930513730368816
 51
108.6390492191798955
  0
ARC
  5
2C2D
  8
0
  6
AUSGEZOGEN
 62
     3
 10
0.0000000000001303
 20
0.0000000000000554
 30
0.0
 40
47.9393398282201275
 50
11.3609507808206693
 51
58.2069486269633103
  0
ARC
  5
2C2E
  8
0
  6
AUSGEZOGEN
 62
     3
 10
0.0000000000000167
 20
0.0000000000000056
 30
0.0
 40
47.9393398282202128
 50
301.7930513730368034
 51
348.6390492191794124
  0
ARC
  5
2C2F
  8
0
  6
AUSGEZOGEN
 62
     3
 10
0.0000000000000167
 20
0.0000000000003609
 30
0.0
 40
47.9393398282205325
 50
251.3609507808168075
 51
298.2069486269630829
  0
ARC
  5
2C30
  8
0
  6
AUSGEZOGEN
 62
     3
 10
0.0000000000006988
 20
0.0000000000004497
 30
0.0
 40
47.9393398282210015
 50
191.3609507808182002
 51
228.6390492191831925
  0
LINE
  5
2C31
  8
0
  6
AUSGEZOGEN
 62
     3
 10
22.2990381056766012
 20
-35.6230669589463389
 30
0.0
 11
15.2990381056767095
 21
-23.4987113059642887
 31
-0.0000000000000018
  0
LINE
  5
2C32
  8
0
  6
AUSGEZOGEN
 62
     3
 10
12.7009618943234504
 20
-24.9987113059642887
 30
0.0
 11
15.2990381056768197
 21
-23.4987113059642887
 31
0.0000000000000006
  0
LINE
  5
2C33
  8
0
  6
AUSGEZOGEN
 62
     3
 10
12.7009618943234504
 20
-24.9987113059642887
 30
0.0
 11
19.7009618943233384
 21
-37.1230669589463389
 31
0.0000000000000018
  0
LINE
  5
2C34
  8
0
  6
AUSGEZOGEN
 62
     3
 10
19.7009618943233384
 20
-37.1230669589463389
 30
0.0
 11
22.2990381056767113
 21
-35.6230669589463389
 31
0.0000000000000006
  0
LINE
  5
2C35
  8
0
  6
AUSGEZOGEN
 62
     3
 10
15.2990381056767095
 20
-23.4987113059644201
 30
0.0
 11
11.7990381056767095
 21
-17.4365334794733506
 31
-0.0000000000000008
  0
LINE
  5
2C36
  8
0
  6
AUSGEZOGEN
 62
     3
 10
9.2009618943234504
 20
-18.9365334794732405
 30
0.0
 11
11.7990381056768197
 21
-17.4365334794732405
 31
0.0000000000000006
  0
LINE
  5
2C37
  8
0
  6
AUSGEZOGEN
 62
     3
 10
9.2009618943234504
 20
-18.9365334794732405
 30
0.0
 11
12.7009618943234504
 21
-24.99871130596431
 31
0.0000000000000008
  0
LINE
  5
2C38
  8
0
  6
AUSGEZOGEN
 62
     3
 10
25.7875558231703792
 20
-41.665356888749578
 30
0.0
 11
22.2990381056767113
 21
-35.6230669589463389
 31
-0.0000000000000008
  0
LINE
  5
2C39
  8
0
  6
AUSGEZOGEN
 62
     3
 10
19.7009618943233384
 20
-37.1230669589463389
 30
0.0
 11
23.1894796118169992
 21
-43.1653568887495922
 31
0.0000000000000008
  0
LINE
  5
2C3A
  8
0
  6
AUSGEZOGEN
 62
     3
 10
43.2527355812502492
 20
-46.6455896928499101
 30
0.0000000000000071
 11
33.660193845711099
 21
-45.1262803387768585
 31
0.000000000000005
  0
ARC
  5
2C3B
  8
0
  6
AUSGEZOGEN
 62
     3
 10
43.4091700462903987
 20
-45.6579013522545196
 30
0.0000000000000071
 40
1.0000000000002229
 50
261.0000000000068212
 51
313.5537253564021967
  0
ARC
  5
2C3C
  8
0
  6
AUSGEZOGEN
 62
     3
 10
-0.0000000000691121
 20
0.0000000000685247
 30
0.0
 40
64.0000000000972449
 50
313.5537253564111779
 51
316.4462746435896179
  0
ARC
  5
2C3D
  8
0
  6
AUSGEZOGEN
 62
     3
 10
45.6579013522562605
 20
-43.4091700462910168
 30
0.0000000000000071
 40
0.9999999999985592
 50
316.4462746435494864
 51
9.0000000000446292
  0
LINE
  5
2C3E
  8
0
  6
AUSGEZOGEN
 62
     3
 10
45.1262803387767306
 20
-33.6601938457111771
 30
0.0000000000000071
 11
46.6455896928498603
 21
-43.2527355812502492
 31
0.0000000000000074
  0
ARC
  5
2C3F
  8
0
  6
AUSGEZOGEN
 62
     3
 10
46.1139686793718582
 20
-33.5037593806709708
 30
0.0000000000000071
 40
1.000000000000014
 50
98.999999999998451
 51
188.9999999999986073
  0
LINE
  5
2C40
  8
0
  6
AUSGEZOGEN
 62
     3
 10
55.5500759498707026
 20
-30.9967616860025998
 30
0.0000000000000142
 11
45.9575342143316519
 21
-32.5160710400758219
 31
0.0000000000000121
  0
ARC
  5
2C41
  8
0
  6
AUSGEZOGEN
 62
     3
 10
55.3936414848302618
 20
-30.0090733454074083
 30
0.0000000000000142
 40
1.000000000000232
 50
279.0000000000102887
 51
331.5537253564152138
  0
ARC
  5
2C42
  8
0
  6
AUSGEZOGEN
 62
     3
 10
0.0000000001147195
 20
-0.0000000000569287
 30
0.0
 40
63.9999999998718607
 50
331.5537253564045272
 51
334.4462746435930853
  0
ARC
  5
2C43
  8
0
  6
AUSGEZOGEN
 62
     3
 10
56.8374158574392894
 20
-27.1755065941474108
 30
0.0000000000000142
 40
0.9999999999995839
 50
334.4462746435809208
 51
27.0000000000121716
  0
LINE
  5
2C44
  8
0
  6
AUSGEZOGEN
 62
     3
 10
53.3192149046352668
 20
-18.0679591791115683
 30
0.0000000000000142
 11
57.7284223816271904
 21
-26.7215160944078605
 31
0.0000000000000152
  0
ARC
  5
2C45
  8
0
  6
AUSGEZOGEN
 62
     3
 10
54.2102214288237434
 20
-17.61396867937205
 30
0.0000000000000142
 40
1.000000000000079
 50
117.000000000006807
 51
206.9999999999959073
  0
LINE
  5
2C46
  8
0
  6
AUSGEZOGEN
 62
     3
 10
62.4097878443802827
 20
-12.31375467819168
 30
0.0000000000000142
 11
53.7562309290840474
 21
-16.7229621551836587
 31
0.0000000000000123
  0
ARC
  5
2C47
  8
0
  6
AUSGEZOGEN
 62
     3
 10
61.9557973446405867
 20
-11.4227481540031608
 30
0.0000000000000142
 40
1.0000000000002101
 50
297.0000000000031264
 51
349.5537253564012872
  0
ARC
  5
2C48
  8
0
  6
AUSGEZOGEN
 62
     3
 10
0.000000000110172
 20
-0.000000000016513
 30
0.0
 40
63.9999999998885301
 50
349.5537253564052094
 51
352.4462746435930853
  0
ARC
  5
2C49
  8
0
  6
AUSGEZOGEN
 62
     3
 10
62.4532880889341868
 20
-8.2817152136811956
 30
0.0000000000000142
 40
1.0000000000004701
 50
352.4462746436071257
 51
44.9999999999896474
  0
LINE
  5
2C4A
  8
0
  6
AUSGEZOGEN
 62
     3
 10
56.2928932188133402
 20
-0.7071067811866101
 30
0.0000000000000142
 11
63.1603948701212019
 21
-7.5746084324944434
 31
0.0000000000000157
  0
ARC
  5
2C4B
  8
0
  6
AUSGEZOGEN
 62
     3
 10
56.9999999999998934
 20
-0.0000000000000568
 30
0.0000000000000142
 40
0.9999999999999879
 50
135.0000000000011084
 51
225.0
  0
LINE
  5
2C4C
  8
0
  6
AUSGEZOGEN
 62
     3
 10
63.1603948701212019
 20
7.5746084324944709
 30
0.0000000000000142
 11
56.2928932188133402
 21
0.707106781186468
 31
0.0000000000000127
  0
ARC
  5
2C4D
  8
0
  6
AUSGEZOGEN
 62
     3
 10
62.4532880889340802
 20
8.2817152136809966
 30
0.0000000000000142
 40
1.0000000000005109
 50
315.0000000000276259
 51
7.5537253564042404
  0
ARC
  5
2C4E
  8
0
  6
AUSGEZOGEN
 62
     3
 10
-0.0000000000759902
 20
-0.0000000000106866
 30
0.0
 40
64.0000000000765397
 50
7.5537253564090738
 51
10.4462746435885308
  0
ARC
  5
2C4F
  8
0
  6
AUSGEZOGEN
 62
     3
 10
61.9557973446407075
 20
11.4227481540032105
 30
0.0000000000000142
 40
1.0000000000000779
 50
10.4462746435966505
 51
63.0000000000004619
  0
LINE
  5
2C50
  8
0
  6
AUSGEZOGEN
 62
     3
 10
53.7562309290840474
 20
16.7229621551835805
 30
0.0000000000000142
 11
62.4097878443802827
 21
12.3137546781916498
 31
0.0000000000000161
  0
ARC
  5
2C51
  8
0
  6
AUSGEZOGEN
 62
     3
 10
54.2102214288236226
 20
17.6139686793719292
 30
0.0000000000000142
 40
0.9999999999999893
 50
152.9999999999996874
 51
242.9999999999982094
  0
LINE
  5
2C52
  8
0
  6
AUSGEZOGEN
 62
     3
 10
57.7284223816271904
 20
26.7215160944078889
 30
0.0000000000000142
 11
53.3192149046352668
 21
18.0679591791114795
 31
0.0000000000000132
  0
ARC
  5
2C53
  8
0
  6
AUSGEZOGEN
 62
     3
 10
56.8374158574383799
 20
27.1755065941474392
 30
0.0000000000000142
 40
1.0000000000003919
 50
333.0000000000114824
 51
25.5537253563952405
  0
ARC
  5
2C54
  8
0
  6
AUSGEZOGEN
 62
     3
 10
-0.0000000000621204
 20
-0.0000000000303828
 30
0.0
 40
64.0000000000690505
 50
25.553725356409231
 51
28.4462746435888505
  0
ARC
  5
2C55
  8
0
  6
AUSGEZOGEN
 62
     3
 10
55.3936414848300274
 20
30.0090733454067902
 30
0.0000000000000142
 40
1.000000000000786
 50
28.4462746436099394
 51
80.9999999999821938
  0
LINE
  5
2C56
  8
0
  6
AUSGEZOGEN
 62
     3
 10
45.9575342143316519
 20
32.5160710400758219
 30
0.0000000000000071
 11
55.5500759498707026
 21
30.9967616860026602
 31
0.0000000000000092
  0
ARC
  5
2C57
  8
0
  6
AUSGEZOGEN
 62
     3
 10
46.1139686793719719
 20
33.5037593806709424
 30
0.0000000000000071
 40
1.0000000000000979
 50
171.0000000000023022
 51
260.9999999999919282
  0
LINE
  5
2C58
  8
0
  6
AUSGEZOGEN
 62
     3
 10
46.6455896928497395
 20
43.2527355812502989
 30
0.0000000000000071
 11
45.1262803387767306
 21
33.6601938457111487
 31
0.0000000000000068
  0
ARC
  5
2C59
  8
0
  6
AUSGEZOGEN
 62
     3
 10
45.6579013522550667
 20
43.4091700462907113
 30
0.0000000000000071
 40
0.9999999999995518
 50
350.9999999999860165
 51
43.5537253564208484
  0
ARC
  5
2C5A
  8
0
  6
AUSGEZOGEN
 62
     3
 10
0.0000000000188246
 20
0.0000000000195826
 30
0.0
 40
63.9999999999727294
 50
43.5537253564076394
 51
46.4462746435916785
  0
ARC
  5
2C5B
  8
0
  6
AUSGEZOGEN
 62
     3
 10
43.4091700462903489
 20
45.6579013522546902
 30
0.0000000000000071
 40
1.0000000000000979
 50
46.4462746435956575
 51
98.9999999999976836
  0
LINE
  5
2C5C
  8
0
  6
AUSGEZOGEN
 62
     3
 10
33.660193845711099
 20
45.1262803387768585
 30
0.0000000000000071
 11
43.2527355812501426
 21
46.6455896928499385
 31
0.0000000000000092
  0
ARC
  5
2C5D
  8
0
  6
AUSGEZOGEN
 62
     3
 10
33.503759380670779
 20
46.1139686793719008
 30
0.0000000000000071
 40
0.9999999999999211
 50
188.9999999999959073
 51
279.0000000000059117
  0
LINE
  5
2C5E
  8
0
  6
AUSGEZOGEN
 62
     3
 10
30.9967616860025217
 20
55.5500759498708803
 30
0.0000000000000071
 11
32.5160710400757225
 21
45.9575342143317513
 31
0.0000000000000074
  0
ARC
  5
2C5F
  8
0
  6
AUSGEZOGEN
 62
     3
 10
30.0090733454071703
 20
55.3936414848304821
 30
0.0000000000000071
 40
1.0000000000002269
 50
9.0000000000079385
 51
61.5537253564019977
  0
ARC
  5
2C60
  8
0
  6
AUSGEZOGEN
 62
     3
 10
0.0000000000036474
 20
0.0000000000081286
 30
0.0
 40
63.999999999991033
 50
61.5537253564081084
 51
64.446274643591309
  0
ARC
  5
2C61
  8
0
  6
AUSGEZOGEN
 62
     3
 10
27.1755065941471905
 20
56.8374158574387707
 30
0.0000000000000071
 40
1.0000000000001019
 50
64.4462746435912237
 51
116.9999999999950973
  0
LINE
  5
2C62
  8
0
  6
AUSGEZOGEN
 62
     3
 10
18.0679591791114298
 20
53.3192149046353734
 30
0.0000000000000071
 11
26.7215160944076793
 21
57.7284223816272686
 31
0.000000000000009
  0
ARC
  5
2C63
  8
0
  6
AUSGEZOGEN
 62
     3
 10
17.6139686793718617
 20
54.2102214288238216
 30
0.0000000000000071
 40
1.00000000000004
 50
207.0000000000061107
 51
297.0000000000002274
  0
LINE
  5
2C64
  8
0
  6
AUSGEZOGEN
 62
     3
 10
12.3137546781914704
 20
62.4097878443804532
 30
0.0
 11
16.7229621551834988
 21
53.7562309290841611
 31
0.000000000000001
  0
ARC
  5
2C65
  8
0
  6
AUSGEZOGEN
 62
     3
 10
11.4227481540031093
 20
61.9557973446409278
 30
0.0
 40
0.9999999999999613
 50
26.9999999999988809
 51
79.5537253564069857
  0
ARC
  5
2C66
  8
0
  6
AUSGEZOGEN
 62
     3
 10
-0.0000000000043675
 20
-0.0000000000228511
 30
0.0
 40
64.0000000000232063
 50
79.5537253564085773
 51
82.4462746435903711
  0
ARC
  5
2C67
  8
0
  6
AUSGEZOGEN
 62
     3
 10
8.2817152136808634
 20
62.4532880889348689
 30
0.0
 40
0.9999999999999278
 50
82.4462746435896463
 51
135.0000000000046043
  0
LINE
  5
2C68
  8
0
  6
AUSGEZOGEN
 62
     3
 10
0.707106781186449
 20
56.2928932188134183
 30
0.0
 11
7.574608432494311
 21
63.1603948701213085
 31
0.0000000000000015
  0
ARC
  5
2C69
  8
0
  6
AUSGEZOGEN
 62
     3
 10
-0.0000000000001042
 20
56.9999999999999432
 30
0.0
 40
0.9999999999999879
 50
224.9999999999988063
 51
315.0
  0
LINE
  5
2C6A
  8
0
  6
AUSGEZOGEN
 62
     3
 10
-7.5746084324946317
 20
63.1603948701213085
 30
0.0
 11
-0.7071067811866572
 21
56.2928932188134183
 31
0.0000000000000015
  0
ARC
  5
2C6B
  8
0
  6
AUSGEZOGEN
 62
     3
 10
-8.2817152136811867
 20
62.4532880889346416
 30
0.0
 40
1.000000000000121
 50
45.0000000000057483
 51
97.5537253564088758
  0
ARC
  5
2C6C
  8
0
  6
AUSGEZOGEN
 62
     3
 10
0.0000000000029085
 20
-0.0000000000226521
 30
0.0
 40
64.0000000000228226
 50
97.5537253564086626
 51
100.4462746435903995
  0
ARC
  5
2C6D
  8
0
  6
AUSGEZOGEN
 62
     3
 10
-11.4227481540033704
 20
61.9557973446409633
 30
0.0
 40
1.0000000000000011
 50
100.4462746435958991
 51
153.0000000000055138
  0
LINE
  5
2C6E
  8
0
  6
AUSGEZOGEN
 62
     3
 10
-16.7229621551838186
 20
53.7562309290841611
 30
-0.0000000000000071
 11
-12.3137546781917901
 21
62.4097878443804106
 31
-0.0000000000000061
  0
ARC
  5
2C6F
  8
0
  6
AUSGEZOGEN
 62
     3
 10
-17.6139686793721815
 20
54.2102214288234165
 30
-0.0000000000000071
 40
0.999999999999672
 50
242.9999999999959073
 51
333.0000000000126761
  0
LINE
  5
2C70
  8
0
  6
AUSGEZOGEN
 62
     3
 10
-26.7215160944079884
 20
57.728422381627297
 30
-0.0000000000000071
 11
-18.0679591791116394
 21
53.3192149046353734
 31
-0.0000000000000052
  0
ARC
  5
2C71
  8
0
  6
AUSGEZOGEN
 62
     3
 10
-27.1755065941475102
 20
56.8374158574389128
 30
-0.0000000000000071
 40
1.00000000000002
 50
63.0000000000026219
 51
115.5537253564071989
  0
ARC
  5
2C72
  8
0
  6
AUSGEZOGEN
 62
     3
 10
-0.000000000002719
 20
0.0000000000058549
 30
0.0
 40
63.9999999999935909
 50
115.5537253564087052
 51
118.4462746435918064
  0
ARC
  5
2C73
  8
0
  6
AUSGEZOGEN
 62
     3
 10
-30.0090733454078311
 20
55.3936414848306811
 30
-0.0000000000000071
 40
0.9999999999998088
 50
118.4462746435841041
 51
171.0000000000030127
  0
LINE
  5
2C74
  8
0
  6
AUSGEZOGEN
 62
     3
 10
-32.5160710400759783
 20
45.95753421433173
 30
-0.0000000000000071
 11
-30.9967616860027917
 21
55.5500759498708305
 31
-0.0000000000000068
  0
ARC
  5
2C75
  8
0
  6
AUSGEZOGEN
 62
     3
 10
-33.5037593806709424
 20
46.113968679371709
 30
-0.0000000000000071
 40
0.9999999999997601
 50
260.9999999999894271
 51
351.0000000000126761
  0
LINE
  5
2C76
  8
0
  6
AUSGEZOGEN
 62
     3
 10
-43.2527355812504624
 20
46.6455896928498817
 30
-0.0000000000000071
 11
-33.6601938457113121
 21
45.1262803387768372
 31
-0.000000000000005
  0
ARC
  5
2C77
  8
0
  6
AUSGEZOGEN
 62
     3
 10
-43.4091700462906687
 20
45.6579013522546688
 30
-0.0000000000000071
 40
1.00000000000006
 50
81.0000000000017906
 51
133.5537253564064883
  0
ARC
  5
2C78
  8
0
  6
AUSGEZOGEN
 62
     3
 10
0.00000000002377
 20
-0.0000000000244995
 30
0.0
 40
64.0000000000341771
 50
133.5537253564089895
 51
136.4462746435901863
  0
ARC
  5
2C79
  8
0
  6
AUSGEZOGEN
 62
     3
 10
-45.6579013522549388
 20
43.4091700462905408
 30
-0.0000000000000071
 40
0.999999999999995
 50
136.4462746435912095
 51
189.0000000000019043
  0
LINE
  5
2C7A
  8
0
  6
AUSGEZOGEN
 62
     3
 10
-45.1262803387770575
 20
33.6601938457111771
 30
-0.0000000000000071
 11
-46.6455896928500735
 21
43.2527355812502776
 31
-0.0000000000000074
  0
ARC
  5
2C7B
  8
0
  6
AUSGEZOGEN
 62
     3
 10
-46.1139686793720713
 20
33.5037593806708784
 30
-0.0000000000000071
 40
0.9999999999999299
 50
278.9999999999992042
 51
9.0000000000045528
  0
LINE
  5
2C7C
  8
0
  6
AUSGEZOGEN
 62
     3
 10
-55.5500759498709584
 20
30.9967616860026283
 30
-0.0000000000000142
 11
-45.9575342143318579
 21
32.5160710400758219
 31
-0.0000000000000121
  0
ARC
  5
2C7D
  8
0
  6
AUSGEZOGEN
 62
     3
 10
-55.393641484830809
 20
30.0090733454075291
 30
-0.0000000000000142
 40
0.9999999999999557
 50
98.9999999999957225
 51
151.5537253564102116
  0
ARC
  5
2C7E
  8
0
  6
AUSGEZOGEN
 62
     3
 10
-0.0000000000096539
 20
0.0000000000049738
 30
0.0
 40
63.9999999999892495
 50
151.5537253564083926
 51
154.4462746435916927
  0
ARC
  5
2C7F
  8
0
  6
AUSGEZOGEN
 62
     3
 10
-56.837415857438927
 20
27.1755065941474108
 30
-0.0000000000000142
 40
1.000000000000103
 50
154.4462746435949043
 51
206.9999999999986926
  0
LINE
  5
2C80
  8
0
  6
AUSGEZOGEN
 62
     3
 10
-53.3192149046355297
 20
18.0679591791114795
 30
-0.0000000000000142
 11
-57.7284223816273965
 21
26.7215160944078391
 31
-0.0000000000000152
  0
ARC
  5
2C81
  8
0
  6
AUSGEZOGEN
 62
     3
 10
-54.2102214288236723
 20
17.6139686793718191
 30
-0.0000000000000142
 40
0.9999999999997724
 50
296.9999999999938041
 51
27.0000000000134683
  0
LINE
  5
2C82
  8
0
  6
AUSGEZOGEN
 62
     3
 10
-62.4097878443806593
 20
12.3137546781915699
 30
-0.0000000000000142
 11
-53.7562309290843174
 21
16.722962155183609
 31
-0.0000000000000123
  0
ARC
  5
2C83
  8
0
  6
AUSGEZOGEN
 62
     3
 10
-61.955797344641141
 20
11.4227481540033295
 30
-0.0000000000000142
 40
0.9999999999999406
 50
117.0000000000002984
 51
169.5537253564133096
  0
ARC
  5
2C84
  8
0
  6
AUSGEZOGEN
 62
     3
 10
0.0000000000659478
 20
-0.0000000000094929
 30
0.0
 40
64.0000000000667484
 50
169.5537253564110074
 51
172.4462746435908116
  0
ARC
  5
2C85
  8
0
  6
AUSGEZOGEN
 62
     3
 10
-62.4532880889346913
 20
8.2817152136810535
 30
-0.0000000000000142
 40
1.0000000000002081
 50
172.4462746435968086
 51
224.9999999999930935
  0
LINE
  5
2C86
  8
0
  6
AUSGEZOGEN
 62
     3
 10
-56.2928932188135533
 20
0.7071067811865249
 30
-0.0000000000000142
 11
-63.1603948701214719
 21
7.5746084324944434
 31
-0.0000000000000157
  0
ARC
  5
2C87
  8
0
  6
AUSGEZOGEN
 62
     3
 10
-57.0000000000000995
 20
0.0
 30
-0.0000000000000142
 40
1.0000000000000071
 50
315.0
 51
44.9999999999999929
  0
LINE
  5
2C88
  8
0
  6
AUSGEZOGEN
 62
     3
 10
-63.1603948701215288
 20
-7.5746084324945846
 30
-0.0000000000000142
 11
-56.2928932188135533
 21
-0.7071067811865533
 31
-0.0000000000000127
  0
ARC
  5
2C89
  8
0
  6
AUSGEZOGEN
 62
     3
 10
-62.4532880889349684
 20
-8.2817152136811671
 30
-0.0000000000000142
 40
0.9999999999999936
 50
135.0
 51
187.5537253564031914
  0
ARC
  5
2C8A
  8
0
  6
AUSGEZOGEN
 62
     3
 10
0.0000000000741333
 20
0.0000000000128466
 30
0.0
 40
64.0000000000753602
 50
187.5537253564112063
 51
190.4462746435906979
  0
ARC
  5
2C8B
  8
0
  6
AUSGEZOGEN
 62
     3
 10
-61.9557973446412618
 20
-11.4227481540035498
 30
-0.0000000000000142
 40
0.9999999999996969
 50
190.4462746435825125
 51
243.0000000000003126
  0
LINE
  5
2C8C
  8
0
  6
AUSGEZOGEN
 62
     3
 10
-53.7562309290843672
 20
-16.7229621551836409
 30
-0.0000000000000142
 11
-62.4097878443806593
 21
-12.3137546781916498
 31
-0.0000000000000161
  0
ARC
  5
2C8D
  8
0
  6
AUSGEZOGEN
 62
     3
 10
-54.2102214288238287
 20
-17.6139686793720216
 30
-0.0000000000000142
 40
0.9999999999999255
 50
332.9999999999997158
 51
63.0000000000040501
  0
LINE
  5
2C8E
  8
0
  6
AUSGEZOGEN
 62
     3
 10
-57.7284223816273965
 20
-26.7215160944078889
 30
-0.0000000000000142
 11
-53.3192149046355297
 21
-18.0679591791115399
 31
-0.0000000000000132
  0
ARC
  5
2C8F
  8
0
  6
AUSGEZOGEN
 62
     3
 10
-56.8374158574390478
 20
-27.1755065941474392
 30
-0.0000000000000142
 40
0.9999999999999946
 50
152.9999999999996874
 51
205.5537253564079947
  0
ARC
  5
2C90
  8
0
  6
AUSGEZOGEN
 62
     3
 10
-0.0000000000069823
 20
-0.0000000000042348
 30
0.0
 40
63.9999999999919922
 50
205.5537253564077957
 51
208.4462746435910105
  0
ARC
  5
2C91
  8
0
  6
AUSGEZOGEN
 62
     3
 10
-55.393641484830809
 20
-30.0090733454075611
 30
-0.0000000000000142
 40
0.9999999999999772
 50
208.4462746435926022
 51
261.0000000000046043
  0
LINE
  5
2C92
  8
0
  6
AUSGEZOGEN
 62
     3
 10
-45.9575342143318579
 20
-32.5160710400758504
 30
-0.0000000000000071
 11
-55.5500759498709584
 21
-30.9967616860026816
 31
-0.0000000000000092
  0
ARC
  5
2C93
  8
0
  6
AUSGEZOGEN
 62
     3
 10
-46.1139686793721211
 20
-33.5037593806709708
 30
-0.0000000000000071
 40
0.9999999999999861
 50
351.0000000000013074
 51
80.9999999999980957
  0
LINE
  5
2C94
  8
0
  6
AUSGEZOGEN
 62
     3
 10
-46.6455896928500735
 20
-43.2527355812503629
 30
-0.0000000000000071
 11
-45.1262803387770006
 21
-33.6601938457111771
 31
-0.0000000000000068
  0
ARC
  5
2C95
  8
0
  6
AUSGEZOGEN
 62
     3
 10
-45.6579013522550028
 20
-43.4091700462905905
 30
-0.0000000000000071
 40
0.999999999999938
 50
170.9999999999990905
 51
223.5537253564110074
  0
ARC
  5
2C96
  8
0
  6
AUSGEZOGEN
 62
     3
 10
0.0000000000026242
 20
0.0000000000027001
 30
0.0
 40
64.0000000000038654
 50
223.5537253564085916
 51
226.4462746435912948
  0
ARC
  5
2C97
  8
0
  6
AUSGEZOGEN
 62
     3
 10
-43.4091700462906118
 20
-45.6579013522544983
 30
-0.0000000000000071
 40
1.0000000000003131
 50
226.4462746435987981
 51
278.999999999992383
  0
LINE
  5
2C98
  8
0
  6
AUSGEZOGEN
 62
     3
 10
-33.6601938457113121
 20
-45.1262803387769225
 30
-0.0000000000000071
 11
-43.2527355812504624
 21
-46.6455896928499598
 31
-0.0000000000000092
  0
ARC
  5
2C99
  8
0
  6
AUSGEZOGEN
 62
     3
 10
-33.503759380671049
 20
-46.1139686793720216
 30
-0.0000000000000071
 40
0.9999999999999299
 50
8.9999999999992113
 51
99.0000000000024301
  0
LINE
  5
2C9A
  8
0
  6
AUSGEZOGEN
 62
     3
 10
-30.9967616860027917
 20
-55.5500759498709229
 30
-0.0000000000000071
 11
-32.5160710400759712
 21
-45.9575342143318082
 31
-0.0000000000000074
  0
ARC
  5
2C9B
  8
0
  6
AUSGEZOGEN
 62
     3
 10
-30.0090733454073195
 20
-55.3936414848304821
 30
-0.0000000000000071
 40
1.0000000000003311
 50
189.0000000000084128
 51
241.5537253563977913
  0
ARC
  5
2C9C
  8
0
  6
AUSGEZOGEN
 62
     3
 10
0.0000000000683352
 20
0.0000000001357137
 30
0.0
 40
64.0000000001519567
 50
241.553725356412599
 51
244.4462746435885094
  0
ARC
  5
2C9D
  8
0
  6
AUSGEZOGEN
 62
     3
 10
-27.1755065941474605
 20
-56.8374158574387707
 30
-0.0000000000000071
 40
1.0000000000001521
 50
244.4462746435933127
 51
296.9999999999901092
  0
LINE
  5
2C9E
  8
0
  6
AUSGEZOGEN
 62
     3
 10
-18.0679591791116394
 20
-53.3192149046354302
 30
-0.0000000000000071
 11
-26.7215160944079884
 21
-57.7284223816273467
 31
-0.000000000000009
  0
ARC
  5
2C9F
  8
0
  6
AUSGEZOGEN
 62
     3
 10
-17.6139686793721211
 20
-54.2102214288236084
 30
-0.0000000000000071
 40
0.9999999999999246
 50
26.9999999999930616
 51
117.0000000000047038
  0
LINE
  5
2CA0
  8
0
  6
AUSGEZOGEN
 62
     3
 10
-12.3137546781917901
 20
-62.4097878443805527
 30
0.0
 11
-16.7229621551837688
 21
-53.7562309290842109
 31
-0.000000000000001
  0
ARC
  5
2CA1
  8
0
  6
AUSGEZOGEN
 62
     3
 10
-11.4227481540035498
 20
-61.9557973446411481
 30
0.0
 40
0.9999999999998291
 50
206.9999999999959925
 51
259.5537253564122011
  0
ARC
  5
2CA2
  8
0
  6
AUSGEZOGEN
 62
     3
 10
-0.0000000000034012
 20
-0.0000000000209468
 30
0.0
 40
63.99999999997884
 50
259.5537253564079947
 51
262.4462746435917779
  0
ARC
  5
2CA3
  8
0
  6
AUSGEZOGEN
 62
     3
 10
-8.2817152136814141
 20
-62.4532880889343005
 30
0.0
 40
1.00000000000053
 50
262.4462746436075804
 51
314.9999999999885745
  0
LINE
  5
2CA4
  8
0
  6
AUSGEZOGEN
 62
     3
 10
-0.7071067811866575
 20
-56.2928932188134965
 30
0.0
 11
-7.5746084324946317
 21
-63.1603948701213724
 31
-0.0000000000000015
  0
ARC
  5
2CA5
  8
0
  6
AUSGEZOGEN
 62
     3
 10
-0.0000000000001042
 20
-57.0000000000000568
 30
0.0
 40
1.0000000000000071
 50
45.0
 51
135.0
  0
LINE
  5
2CA6
  8
0
  6
AUSGEZOGEN
 62
     3
 10
7.574608432494311
 20
-63.1603948701213724
 30
0.0
 11
0.7071067811864494
 21
-56.2928932188134965
 31
-0.0000000000000015
  0
ARC
  5
2CA7
  8
0
  6
AUSGEZOGEN
 62
     3
 10
8.2817152136808065
 20
-62.4532880889350324
 30
0.0
 40
0.9999999999997905
 50
224.9999999999930935
 51
277.5537253564145885
  0
ARC
  5
2CA8
  8
0
  6
AUSGEZOGEN
 62
     3
 10
0.000000000003079
 20
-0.0000000000209468
 30
0.0
 40
63.99999999997884
 50
277.5537253564082221
 51
280.4462746435920053
  0
ARC
  5
2CA9
  8
0
  6
AUSGEZOGEN
 62
     3
 10
11.4227481540031697
 20
-61.9557973446409278
 30
0.0
 40
1.0000000000000011
 50
280.44627464358922
 51
332.999999999998181
  0
LINE
  5
2CAA
  8
0
  6
AUSGEZOGEN
 62
     3
 10
16.7229621551834988
 20
-53.7562309290842606
 30
0.0000000000000071
 11
12.3137546781915201
 21
-62.409787844380503
 31
0.0000000000000061
  0
ARC
  5
2CAB
  8
0
  6
AUSGEZOGEN
 62
     3
 10
17.6139686793719683
 20
-54.2102214288240134
 30
0.0000000000000071
 40
1.0000000000001521
 50
63.0000000000099618
 51
152.9999999999924967
  0
LINE
  5
2CAC
  8
0
  6
AUSGEZOGEN
 62
     3
 10
26.721516094407729
 20
-57.7284223816273467
 30
0.0000000000000071
 11
18.0679591791114298
 21
-53.3192149046354302
 31
0.0000000000000052
  0
ARC
  5
2CAD
  8
0
  6
AUSGEZOGEN
 62
     3
 10
27.1755065941473006
 20
-56.8374158574389909
 30
0.0000000000000071
 40
0.9999999999999946
 50
242.9999999999982094
 51
295.553725356407881
  0
ARC
  5
2CAE
  8
0
  6
AUSGEZOGEN
 62
     3
 10
0.000000000019791
 20
-0.0000000000408704
 30
0.0
 40
63.9999999999545892
 50
295.5537253564082789
 51
298.446274643593199
  0
ARC
  5
2CAF
  8
0
  6
AUSGEZOGEN
 62
     3
 10
30.0090733454077991
 20
-55.39364148483088
 30
0.0000000000000071
 40
0.9999999999996786
 50
298.4462746435814893
 51
351.0000000000084128
  0
LINE
  5
2CB0
  8
0
  6
AUSGEZOGEN
 62
     3
 10
32.5160710400757722
 20
-45.9575342143317513
 30
0.0000000000000071
 11
30.9967616860026389
 21
-55.5500759498709229
 31
0.0000000000000068
  0
ARC
  5
2CB1
  8
0
  6
AUSGEZOGEN
 62
     3
 10
33.5037593806708927
 20
-46.1139686793719932
 30
0.0000000000000071
 40
0.9999999999999861
 50
81.0000000000012932
 51
170.9999999999996874
  0
LINE
  5
2CB2
  8
0
  6
VERDECKT
 62
     1
 10
-24.4999999999999716
 20
-42.4352447854374617
 30
0.0
 11
-13.5674797050267895
 21
-48.7471383206612714
 31
0.0000000000000024
  0
LINE
  5
2CB3
  8
0
  6
VERDECKT
 62
     1
 10
-35.4325202949731732
 20
-36.123351250213652
 30
-0.0000000000000142
 11
-24.4999999999999787
 21
-42.4352447854374617
 31
-0.0000000000000118
  0
LINE
  5
2CB4
  8
0
  6
VERDECKT
 62
     1
 10
-24.4999999999999716
 20
42.4352447854375114
 30
0.0
 11
-35.432520294973159
 21
36.1233512502137017
 31
-0.0000000000000024
  0
LINE
  5
2CB5
  8
0
  6
VERDECKT
 62
     1
 10
-13.5674797050267895
 20
48.7471383206613282
 30
0.0
 11
-24.4999999999999716
 21
42.4352447854375114
 31
-0.0000000000000024
  0
LINE
  5
2CB6
  8
0
  6
VERDECKT
 62
     1
 10
49.0000000000001279
 20
0.0000000000000221
 30
0.0000000000000142
 11
49.0000000000001279
 21
12.6237870704471806
 31
0.0000000000000142
  0
LINE
  5
2CB7
  8
0
  6
VERDECKT
 62
     1
 10
49.0000000000001279
 20
-12.6237870704471309
 30
0.0000000000000142
 11
49.0000000000001279
 21
0.0000000000000213
 31
0.0000000000000142
  0
LINE
  5
2CB8
  8
0
  6
VERDECKT
 62
     1
 10
-48.9999999999999787
 20
12.6237870704476194
 30
-0.0000000000000142
 11
-48.9999999999999787
 21
0.0000000000000213
 31
-0.0000000000000142
  0
LINE
  5
2CB9
  8
0
  6
VERDECKT
 62
     1
 10
-48.9999999999999787
 20
0.0000000000000221
 30
-0.0000000000000142
 11
-48.9999999999999787
 21
-12.6237870704475803
 31
-0.0000000000000142
  0
CIRCLE
  5
2CBA
  8
0
  6
VERDECKT
 62
     1
 10
0.0000000000000028
 20
0.000000000000016
 30
0.0
 40
52.4000000000000909
  0
CIRCLE
  5
2CBB
  8
0
  6
VERDECKT
 62
     1
 10
0.0000000000000028
 20
0.000000000000016
 30
0.0
 40
54.0000000000001066
  0
CIRCLE
  5
2CBC
  8
0
  6
VERDECKT
 62
     1
 10
0.0000000000000083
 20
0.0000000000000175
 30
0.0
 40
45.3316941509657383
  0
CIRCLE
  5
2CBD
  8
0
  6
VERDECKT
 62
     1
 10
0.0000000000000083
 20
0.0000000000000175
 30
0.0
 40
46.9316941509657681
  0
LINE
  5
2CBE
  8
0
  6
VERDECKT
 62
     1
 10
24.7990381056767113
 20
39.953193977868672
 30
0.0
 11
22.2009618943234486
 21
41.4531939778686578
 31
-0.0000000000000006
  0
LINE
  5
2CBF
  8
0
  6
VERDECKT
 62
     1
 10
25.7990381056767113
 20
41.6852447854374972
 30
0.0
 11
23.2009618943234486
 21
43.1852447854374972
 31
-0.0000000000000006
  0
LINE
  5
2CC0
  8
0
  6
VERDECKT
 62
     1
 10
23.2009618943233384
 20
43.1852447854375185
 30
0.0
 11
23.1894796118169992
 21
43.165356888749649
 31
0.0
  0
LINE
  5
2CC1
  8
0
  6
VERDECKT
 62
     1
 10
25.7875558231703792
 20
41.6653568887496277
 30
0.0
 11
25.7990381056767113
 21
41.6852447854375114
 31
0.0
  0
ARC
  5
2CC2
  8
0
  6
VERDECKT
 62
     1
 10
-0.0000000000028417
 20
-0.0000000000051147
 30
0.0
 40
24.5625566823762895
 50
56.4988506893260194
 51
63.5011493106746769
  0
ARC
  5
2CC3
  8
0
  6
VERDECKT
 62
     1
 10
0.0000000000064806
 20
-0.000000000011229
 30
0.0
 40
24.5625566823574815
 50
296.4988506893232056
 51
303.501149310676908
  0
ARC
  5
2CC4
  8
0
  6
VERDECKT
 62
     1
 10
0.0000000000059226
 20
0.0000000000103318
 30
0.0
 40
24.9999999999881304
 50
56.5601872324832584
 51
63.43981276751677
  0
ARC
  5
2CC5
  8
0
  6
VERDECKT
 62
     1
 10
-0.0000000000026039
 20
0.000000000004452
 30
0.0
 40
25.0000000000051408
 50
296.5601872324858732
 51
303.439812767514411
  0
ARC
  5
2CC6
  8
0
  6
VERDECKT
 62
     1
 10
0.0000000000033136
 20
-0.0000000000003186
 30
0.0
 40
47.9393398282235168
 50
168.6390492191825103
 51
179.9999999999996021
  0
ARC
  5
2CC7
  8
0
  6
VERDECKT
 62
     1
 10
0.0000000000000167
 20
0.0000000000000198
 30
0.0
 40
47.9393398282202199
 50
108.6390492191798955
 51
131.3609507808201045
  0
ARC
  5
2CC8
  8
0
  6
VERDECKT
 62
     1
 10
0.000000000016956
 20
0.0000000000292587
 30
0.0
 40
47.939339828186462
 50
58.2069486269620029
 51
61.7930513730382103
  0
ARC
  5
2CC9
  8
0
  6
VERDECKT
 62
     1
 10
0.0000000000000167
 20
0.0000000000000261
 30
0.0
 40
47.9393398282202199
 50
348.6390492191792987
 51
11.3609507808206693
  0
ARC
  5
2CCA
  8
0
  6
VERDECKT
 62
     1
 10
-0.0000000000112383
 20
0.0000000000189558
 30
0.0
 40
47.9393398282422325
 50
298.206948626964504
 51
301.7930513730362918
  0
ARC
  5
2CCB
  8
0
  6
VERDECKT
 62
     1
 10
-0.0000000000006655
 20
-0.0000000000013373
 30
0.0
 40
47.9393398282187135
 50
228.6390492191829935
 51
251.3609507808168928
  0
ARC
  5
2CCC
  8
0
  6
VERDECKT
 62
     1
 10
0.0000000000033136
 20
0.0000000000003365
 30
0.0
 40
47.939339828223531
 50
180.0000000000003126
 51
191.3609507808174897
  0
CIRCLE
  5
2CCD
  8
0
  6
VERDECKT
 62
     1
 10
0.0000000000000109
 20
0.0000000000000182
 30
0.0
 40
26.5
  0
CIRCLE
  5
2CCE
  8
0
  6
VERDECKT
 62
     1
 10
0.0000000000000004
 20
0.0000000000000154
 30
0.0
 40
26.0682864386853907
  0
LINE
  5
2CCF
  8
0
  6
VERDECKT
 62
     1
 10
22.2009618943233384
 20
-41.4531939778685512
 30
0.0
 11
24.7990381056767113
 21
-39.9531939778685512
 31
0.0000000000000006
  0
LINE
  5
2CD0
  8
0
  6
VERDECKT
 62
     1
 10
23.2009618943233384
 20
-43.1852447854374475
 30
0.0
 11
25.7990381056767113
 21
-41.6852447854374404
 31
0.0000000000000006
  0
LINE
  5
2CD1
  8
0
  6
VERDECKT
 62
     1
 10
25.7990381056767113
 20
-41.685244785437412
 30
0.0
 11
25.7875558231703792
 21
-41.665356888749578
 31
0.0
  0
LINE
  5
2CD2
  8
0
  6
VERDECKT
 62
     1
 10
23.1894796118169992
 20
-43.1653568887495922
 30
0.0
 11
23.2009618943233384
 21
-43.185244785437412
 31
0.0
  0
CIRCLE
  5
2CD3
  8
0
  6
VERDECKT
 62
     1
 10
-0.0000000000001042
 20
-0.0000000000000284
 30
0.0
 40
48.0
  0
ENDBLK
  5
2CD5
  8
0
  0
ENDSEC
  0
SECTION
  2
ENTITIES
  0
TEXT
  5
12C8
  8
TEXT35
 10
35.2868559635740482
 20
181.2157724913357981
 30
0.0
 40
3.5
  1

 41
0.8
  0
INSERT
  5
2C13
  8
0
  2
A$C23F85B15
 10
0.0
 20
82.8906408944207129
 30
0.0
  0
INSERT
  5
2CD6
  8
0
  2
A$C3DBB18FC
 10
0.0
 20
0.0000000000000154
 30
2.000000000000028
  0
VIEWPORT
  5
2816
 67
     1
  8
0
 10
6.1577011494295508
 20
7.0278394819693366
 30
0.0
 40
27.2347125224629494
 41
14.4279131815428698
 68
     1
 69
     1
1001
ACAD
1000
MVIEW
1002
{
1070
    16
1010
0.0
1020
0.0
1030
0.0
1010
0.0
1020
0.0
1030
1.0
1040
0.0
1040
14.4279131815428698
1040
6.1577011494295508
1040
7.0278394819693366
1040
50.0
1040
0.0
1040
0.0
1070
     0
1070
  1500
1070
     1
1070
     1
1070
     0
1070
     0
1070
     0
1070
     0
1040
0.0
1040
0.0
1040
0.0
1040
10.0
1040
10.0
1040
10.0
1040
10.0
1070
     0
1002
{
1002
}
1002
}
  0
ENDSEC
  0
EOF
