  0
SECTION
  2
HEADER
  9
$ACADVER
  1
AC1009
  9
$INSBASE
 10
0.0
 20
0.0
 30
0.0
  9
$EXTMIN
 10
-164.9999999999998863
 20
-380.0
 30
-0.0000000000000365
  9
$EXTMAX
 10
165.0000000000001137
 20
158.0099999999999909
 30
0.0
  9
$LIMMIN
 10
0.0
 20
0.0
  9
$LIMMAX
 10
210.0
 20
297.0
  9
$ORTHOMODE
 70
     1
  9
$REGENMODE
 70
     1
  9
$FILLMODE
 70
     1
  9
$QTEXTMODE
 70
     0
  9
$MIRRTEXT
 70
     1
  9
$DRAGMODE
 70
     2
  9
$LTSCALE
 40
10.0
  9
$OSMODE
 70
   511
  9
$ATTMODE
 70
     1
  9
$TEXTSIZE
 40
3.5
  9
$TRACEWID
 40
0.5
  9
$TEXTSTYLE
  7
STANDARD
  9
$CLAYER
  8
STEMPEL
  9
$CELTYPE
  6
BYLAYER
  9
$CECOLOR
 62
   256
  9
$DIMSCALE
 40
1.0
  9
$DIMASZ
 40
3.5
  9
$DIMEXO
 40
1.0
  9
$DIMDLI
 40
0.38
  9
$DIMRND
 40
0.0
  9
$DIMDLE
 40
0.0
  9
$DIMEXE
 40
1.0
  9
$DIMTP
 40
0.0
  9
$DIMTM
 40
0.000000001
  9
$DIMTXT
 40
3.5
  9
$DIMCEN
 40
0.09
  9
$DIMTSZ
 40
0.0
  9
$DIMTOL
 70
     0
  9
$DIMLIM
 70
     0
  9
$DIMTIH
 70
     0
  9
$DIMTOH
 70
     0
  9
$DIMSE1
 70
     0
  9
$DIMSE2
 70
     0
  9
$DIMTAD
 70
     1
  9
$DIMZIN
 70
     8
  9
$DIMBLK
  1

  9
$DIMASO
 70
     1
  9
$DIMSHO
 70
     0
  9
$DIMPOST
  1

  9
$DIMAPOST
  1

  9
$DIMALT
 70
     0
  9
$DIMALTD
 70
     2
  9
$DIMALTF
 40
25.3999999999999986
  9
$DIMLFAC
 40
2.0
  9
$DIMTOFL
 70
     1
  9
$DIMTVP
 40
0.0
  9
$DIMTIX
 70
     0
  9
$DIMSOXD
 70
     0
  9
$DIMSAH
 70
     0
  9
$DIMBLK1
  1

  9
$DIMBLK2
  1

  9
$DIMSTYLE
  2
LORO
  9
$DIMCLRD
 70
     0
  9
$DIMCLRE
 70
     0
  9
$DIMCLRT
 70
     1
  9
$DIMTFAC
 40
0.5
  9
$DIMGAP
 40
1.5
  9
$LUNITS
 70
     2
  9
$LUPREC
 70
     2
  9
$SKETCHINC
 40
1.0
  9
$FILLETRAD
 40
15.0
  9
$AUNITS
 70
     0
  9
$AUPREC
 70
     0
  9
$MENU
  1
ACAD
  9
$ELEVATION
 40
0.0
  9
$PELEVATION
 40
0.0
  9
$THICKNESS
 40
0.0
  9
$LIMCHECK
 70
     0
  9
$BLIPMODE
 70
     0
  9
$CHAMFERA
 40
0.0
  9
$CHAMFERB
 40
0.0
  9
$SKPOLY
 70
     0
  9
$TDCREATE
 40
2455397.8646990740671754
  9
$TDUPDATE
 40
2459807.4246412040665746
  9
$TDINDWG
 40
0.2412425
  9
$TDUSRTIMER
 40
0.2412425
  9
$USRTIMER
 70
     1
  9
$ANGBASE
 50
0.0
  9
$ANGDIR
 70
     0
  9
$PDMODE
 70
     0
  9
$PDSIZE
 40
0.0
  9
$PLINEWID
 40
0.0
  9
$COORDS
 70
     1
  9
$SPLFRAME
 70
     0
  9
$SPLINETYPE
 70
     6
  9
$SPLINESEGS
 70
     8
  9
$ATTDIA
 70
     1
  9
$ATTREQ
 70
     1
  9
$HANDLING
 70
     1
  9
$HANDSEED
  5
2808
  9
$SURFTAB1
 70
     6
  9
$SURFTAB2
 70
     6
  9
$SURFTYPE
 70
     6
  9
$SURFU
 70
     6
  9
$SURFV
 70
     6
  9
$UCSNAME
  2

  9
$UCSORG
 10
0.0
 20
0.0
 30
0.0
  9
$UCSXDIR
 10
1.0
 20
0.0
 30
0.0
  9
$UCSYDIR
 10
0.0
 20
1.0
 30
0.0
  9
$PUCSNAME
  2

  9
$PUCSORG
 10
0.0
 20
0.0
 30
0.0
  9
$PUCSXDIR
 10
1.0
 20
0.0
 30
0.0
  9
$PUCSYDIR
 10
0.0
 20
1.0
 30
0.0
  9
$USERI1
 70
     0
  9
$USERI2
 70
     0
  9
$USERI3
 70
     0
  9
$USERI4
 70
     0
  9
$USERI5
 70
     0
  9
$USERR1
 40
0.0
  9
$USERR2
 40
0.0
  9
$USERR3
 40
0.0
  9
$USERR4
 40
0.0
  9
$USERR5
 40
0.0
  9
$WORLDVIEW
 70
     1
  9
$SHADEDGE
 70
     3
  9
$SHADEDIF
 70
    70
  9
$TILEMODE
 70
     1
  9
$MAXACTVP
 70
    16
  9
$PLIMCHECK
 70
     0
  9
$PEXTMIN
 10
1.0000000000000000E+20
 20
1.0000000000000000E+20
 30
1.0000000000000000E+20
  9
$PEXTMAX
 10
-1.0000000000000000E+20
 20
-1.0000000000000000E+20
 30
-1.0000000000000000E+20
  9
$PLIMMIN
 10
-3.0258984015356409
 20
-4.2788726733360809
  9
$PLIMMAX
 10
293.974101598464415
 20
415.7211273266638045
  9
$UNITMODE
 70
     0
  9
$VISRETAIN
 70
     0
  9
$PLINEGEN
 70
     0
  9
$PSLTSCALE
 70
     0
  0
ENDSEC
  0
SECTION
  2
TABLES
  0
TABLE
  2
VPORT
 70
     1
  0
VPORT
  2
*ACTIVE
 70
     0
 10
0.0
 20
0.0
 11
1.0
 21
1.0
 12
2.929515063795463
 22
-140.6958203354006969
 13
0.0
 23
0.0
 14
1.0
 24
1.0
 15
10.0
 25
10.0
 16
-0.000000000000524
 26
0.0
 36
2327.3559707802728553
 17
-2.929515063795372
 27
29.7008203354006817
 37
-0.0000000000000182
 40
540.7619693094628701
 41
1.8720136518771331
 42
50.0
 43
0.0
 44
0.0
 50
0.0
 51
0.0
 71
     0
 72
  1500
 73
     1
 74
     0
 75
     0
 76
     0
 77
     0
 78
     0
  0
ENDTAB
  0
TABLE
  2
LTYPE
 70
     3
  0
LTYPE
  2
CONTINUOUS
 70
     0
  3
Solid line
 72
    65
 73
     0
 40
0.0
  0
LTYPE
  2
STRICHPUNKT
 70
     0
  3
__ . __ . __ . __ . __ . __ . __ . __ . __ . __
 72
    65
 73
     4
 40
1.0
 49
0.5
 49
-0.25
 49
0.0
 49
-0.25
  0
LTYPE
  2
VERDECKT
 70
     0
  3
Verdeckt __ __ __ __ __ __ __ __ __ __ __ __ __
 72
    65
 73
     2
 40
0.375
 49
0.25
 49
-0.125
  0
ENDTAB
  0
TABLE
  2
LAYER
 70
     6
  0
LAYER
  2
0
 70
     0
 62
     7
  6
CONTINUOUS
  0
LAYER
  2
VOLL
 70
     0
 62
     1
  6
CONTINUOUS
  0
LAYER
  2
STEMPEL
 70
     0
 62
     3
  6
CONTINUOUS
  0
LAYER
  2
ADSK_ASSOC_ENTITY_BACKUPS
 70
     1
 62
    -7
  6
CONTINUOUS
  0
ENDTAB
  0
TABLE
  2
STYLE
 70
     3
  0
STYLE
  2
STANDARD
 70
     0
 40
0.0
 41
0.8
 50
0.0
 71
     0
 42
3.5
  3
simplex.shx
  4

  0
STYLE
  2
GREEKS
 70
     0
 40
0.0
 41
0.8
 50
0.0
 71
     0
 42
2.5
  3
SIMPLEX.shx
  4

  0
ENDTAB
  0
TABLE
  2
VIEW
 70
     0
  0
ENDTAB
  0
TABLE
  2
UCS
 70
     0
  0
ENDTAB
  0
TABLE
  2
APPID
 70
    24
  0
APPID
  2
ACAD
 70
     0
  0
APPID
  2
ACAD_NAV_VCDISPLAY
 70
     0
  0
APPID
  2
ACAD_MLEADERVER
 70
     0
  0
APPID
  2
ACAD_EXEMPT_FROM_CAD_STANDARDS
 70
     0
  0
APPID
  2
ACAD_PSEXT
 70
     0
  0
APPID
  2
ACAECLAYERSTANDARD
 70
     0
  0
APPID
  2
ACAUTHENVIRON
 70
     0
  0
APPID
  2
ACCMTRANSPARENCY
 70
     0
  0
APPID
  2
ACAD_STEPID
 70
     0
  0
APPID
  2
ACSYNERGY
 70
     0
  0
APPID
  2
SYNERGY_BODY_TBR_ID
 70
     0
  0
APPID
  2
ACAD_VIEW_EDGE_ID
 70
     0
  0
APPID
  2
ACSYNERGYSKETCH
 70
     0
  0
APPID
  2
ACAD_MODELDOC_XFORM
 70
     0
  0
APPID
  2
ACAD_DSTYLE_DIMJAG
 70
     0
  0
APPID
  2
ACAD_DSTYLE_DIMTALN
 70
     0
  0
APPID
  2
ACADANNOMONITORALERTICONDI
 70
     0
  0
APPID
  2
ACAD_DIMASSOC_CALC_DIMLFAC
 70
     0
  0
APPID
  2
ACAD_DIMASSOC_DIMLFAC
 70
     0
  0
APPID
  2
ACAD_DIMASSOC_OVERRIDDEN_D
 70
     0
  0
APPID
  2
ACAD_DSTYLE_DIMRADIAL_EXTENSION
 70
     0
  0
APPID
  2
ACAD_DSTYLE_DIMBREAK
 70
     0
  0
APPID
  2
ACDBDYNAMICBLOCKGUID
 70
     0
  0
APPID
  2
ACADANNOPO
 70
     0
  0
ENDTAB
  0
TABLE
  2
DIMSTYLE
 70
     1
  0
DIMSTYLE
  2
LORO
 70
     0
  3

  4

  5

  6

  7

 40
1.0
 41
3.5
 42
1.0
 43
0.38
 44
1.0
 45
0.0
 46
0.0
 47
0.0
 48
0.000000001
140
3.5
141
0.09
142
0.0
143
25.3999999999999986
144
2.0
145
0.0
146
0.5
147
1.5
 71
     0
 72
     0
 73
     0
 74
     0
 75
     0
 76
     0
 77
     1
 78
     8
170
     0
171
     2
172
     1
173
     0
174
     0
175
     0
176
     0
177
     0
178
     1
  0
ENDTAB
  0
ENDSEC
  0
SECTION
  2
BLOCKS
  0
BLOCK
  8
0
  2
$MODEL_SPACE
 70
     0
 10
0.0
 20
0.0
 30
0.0
  3
$MODEL_SPACE
  1

  0
ENDBLK
  5
36
  8
0
  0
BLOCK
 67
     1
  8
0
  2
$PAPER_SPACE
 70
     0
 10
0.0
 20
0.0
 30
0.0
  3
$PAPER_SPACE
  1

  0
ENDBLK
  5
34
 67
     1
  8
0
  0
BLOCK
  8
0
  2
*S0
 70
     1
 10
0.0
 20
0.0
 30
0.0
  3
*S0
  1

  0
ENDBLK
  5
B3A
  8
0
  0
BLOCK
  8
0
  2
A$CC1FF373E
 70
     0
 10
0.0
 20
0.0
 30
0.0
  3
A$CC1FF373E
  1

  0
CIRCLE
  5
2764
  8
0
  6
CONTINUOUS
 62
     3
 10
0.000000000000017
 20
0.000000000000007
 30
0.0
 40
64.0
  0
CIRCLE
  5
2765
  8
0
  6
CONTINUOUS
 62
     3
 10
0.0
 20
0.0000000000000307
 30
0.0
 40
62.91590496069648
  0
CIRCLE
  5
2766
  8
0
  6
CONTINUOUS
 62
     3
 10
0.0000000000000919
 20
0.0
 30
0.0
 40
165.0
  0
CIRCLE
  5
2767
  8
0
  6
CONTINUOUS
 62
     3
 10
0.0000000000000843
 20
-0.0000000000000021
 30
0.0
 40
76.0000000000000284
  0
CIRCLE
  5
2768
  8
0
  6
CONTINUOUS
 62
     3
 10
0.0000000000000907
 20
-0.0000000000000003
 30
0.0
 40
85.2984366404583056
  0
CIRCLE
  5
2769
  8
0
  6
VERDECKT
 62
     1
 10
0.000000000000017
 20
0.000000000000007
 30
0.0
 40
66.5
  0
CIRCLE
  5
276A
  8
0
  6
VERDECKT
 62
     1
 10
0.0000000000000269
 20
0.0000000000000097
 30
0.0
 40
80.0
  0
CIRCLE
  5
276B
  8
0
  6
VERDECKT
 62
     1
 10
0.0000000000000271
 20
0.0000000000000097
 30
0.0
 40
77.6143213871781086
  0
CIRCLE
  5
276C
  8
0
  6
VERDECKT
 62
     1
 10
0.0
 20
0.0000000000000307
 30
0.0
 40
65.4063917059258983
  0
CIRCLE
  5
276D
  8
0
  6
VERDECKT
 62
     1
 10
0.0000000000000885
 20
-0.000000000000001
 30
0.0
 40
88.4999999999999716
  0
CIRCLE
  5
276E
  8
0
  6
VERDECKT
 62
     1
 10
0.0000000000000884
 20
-0.000000000000001
 30
0.0
 40
87.0
  0
CIRCLE
  5
276F
  8
0
  6
VERDECKT
 62
     1
 10
0.0000000000000907
 20
-0.0000000000000003
 30
0.0
 40
86.7984366404583056
  0
ENDBLK
  5
2771
  8
0
  0
BLOCK
  8
0
  2
A$CD5F3355C
 70
     0
 10
0.0
 20
0.0
 30
0.0
  3
A$CD5F3355C
  1

  0
LINE
  5
2775
  8
0
  6
CONTINUOUS
 62
     3
 10
-80.0
 20
121.2526462977116068
 30
-0.0000000000000269
 11
80.0
 21
121.2526462977116068
 31
-0.0000000000000269
210
0.0
220
1.0
230
-0.0000000000000002
  0
LINE
  5
2776
  8
0
  6
CONTINUOUS
 62
     3
 10
-77.6143213871780375
 20
122.0
 30
-0.0000000000000271
 11
77.6143213871780375
 21
122.0
 31
-0.0000000000000271
210
0.0
220
1.0
230
-0.0000000000000002
  0
LINE
  5
2777
  8
0
  6
CONTINUOUS
 62
     3
 10
65.4063917059258983
 20
0.0
 30
0.0
 11
-65.4063917059258983
 21
0.0
 31
0.0
210
0.0
220
1.0
230
-0.0000000000000002
  0
ARC
  5
2778
  8
0
  6
CONTINUOUS
 62
     3
 10
75.9999999999998437
 20
76.7051792157361376
 30
0.0
 40
9.4999999999998437
210
0.0
220
-0.0000000000000002
230
-1.0
 50
162.6059628876836882
 51
180.0
  0
ARC
  5
2779
  8
0
  6
CONTINUOUS
 62
     3
 10
-75.9999999999998437
 20
76.7051792157361376
 30
0.0
 40
9.4999999999998437
210
0.0
220
-0.0000000000000002
230
-1.0
 50
359.9999999999998863
 51
17.3940371123162691
  0
LINE
  5
277A
  8
0
  6
CONTINUOUS
 62
     3
 10
-66.9344212712768609
 20
79.5451232844322931
 30
-0.0000000000000177
 11
-80.0
 21
121.2526462977116068
 31
-0.0000000000000269
210
0.0
220
1.0
230
-0.0000000000000002
  0
LINE
  5
277B
  8
0
  6
CONTINUOUS
 62
     3
 10
66.9344212712768609
 20
79.5451232844322931
 30
-0.0000000000000177
 11
80.0
 21
121.2526462977116068
 31
-0.0000000000000269
210
0.0
220
1.0
230
-0.0000000000000002
  0
LINE
  5
277C
  8
0
  6
CONTINUOUS
 62
     3
 10
-66.5
 20
12.5436609429136805
 30
-0.0000000000000028
 11
-66.5
 21
76.7051792157361234
 31
-0.000000000000017
210
0.0
220
1.0
230
-0.0000000000000002
  0
LINE
  5
277D
  8
0
  6
CONTINUOUS
 62
     3
 10
66.5
 20
12.5436609429136805
 30
-0.0000000000000028
 11
66.5
 21
76.7051792157361234
 31
-0.000000000000017
210
0.0
220
1.0
230
-0.0000000000000002
  0
LINE
  5
277E
  8
0
  6
CONTINUOUS
 62
     3
 10
77.6143213871780517
 20
122.0
 30
-0.0000000000000271
 11
80.0
 21
121.2526462977116068
 31
-0.0000000000000269
210
0.0
220
1.0
230
-0.0000000000000002
  0
LINE
  5
277F
  8
0
  6
CONTINUOUS
 62
     3
 10
-77.6143213871781086
 20
122.0
 30
-0.0000000000000271
 11
-80.0
 21
121.2526462977116068
 31
-0.0000000000000269
210
0.0
220
1.0
230
-0.0000000000000002
  0
ARC
  5
2780
  8
0
  6
CONTINUOUS
 62
     3
 10
-65.5000000000033253
 20
12.5436609429135899
 30
0.0
 40
0.9999999999966745
210
0.0
220
-0.0000000000000002
230
-1.0
 50
179.9999999999947136
 51
185.0000000000108002
  0
ARC
  5
2781
  8
0
  6
CONTINUOUS
 62
     3
 10
65.5000000000033253
 20
12.5436609429135899
 30
0.0
 40
0.9999999999966745
210
0.0
220
-0.0000000000000002
230
-1.0
 50
354.9999999999890861
 51
0.0000000000053052
  0
LINE
  5
2782
  8
0
  6
CONTINUOUS
 62
     3
 10
-65.4063917059257847
 20
0.0000000000000098
 30
0.0
 11
-66.4961946980917418
 21
12.4565052001660295
 31
-0.0000000000000028
210
0.0
220
1.0
230
-0.0000000000000002
  0
LINE
  5
2783
  8
0
  6
CONTINUOUS
 62
     3
 10
65.4063917059257847
 20
0.0000000000000098
 30
0.0
 11
66.4961946980917418
 21
12.4565052001660295
 31
-0.0000000000000028
210
0.0
220
1.0
230
-0.0000000000000002
  0
LINE
  5
2784
  8
0
  6
CONTINUOUS
 62
     3
 10
-164.9999999999998863
 20
158.0099999999999056
 30
-0.0000000000000351
 11
165.0
 21
158.0099999999999056
 31
-0.0000000000000351
210
0.0
220
1.0
230
-0.0000000000000002
  0
LINE
  5
2785
  8
0
  6
CONTINUOUS
 62
     3
 10
-164.9999999999998863
 20
156.5099999999999909
 30
-0.0000000000000348
 11
165.0
 21
156.5099999999999909
 31
-0.0000000000000348
210
0.0
220
1.0
230
-0.0000000000000002
  0
LINE
  5
2786
  8
0
  6
CONTINUOUS
 62
     3
 10
-75.9999999999999574
 20
122.0099999999999056
 30
-0.0000000000000271
 11
76.0000000000000711
 21
122.0099999999999056
 31
-0.0000000000000271
210
0.0
220
1.0
230
-0.0000000000000002
  0
ARC
  5
2787
  8
0
  6
CONTINUOUS
 62
     3
 10
87.4999999999997584
 20
142.4225113364740025
 30
0.0
 40
1.0000000000001421
210
0.0
220
-0.0000000000000002
230
-1.0
 50
0.0000000000032569
 51
10.0000000000003908
  0
ARC
  5
2788
  8
0
  6
CONTINUOUS
 62
     3
 10
-87.4999999999993889
 20
142.4225113364738888
 30
0.0
 40
1.0000000000006419
210
0.0
220
-0.0000000000000002
230
-1.0
 50
170.0000000000013074
 51
179.9999999999951115
  0
LINE
  5
2789
  8
0
  6
CONTINUOUS
 62
     3
 10
88.5000000000000284
 20
142.4225113364740025
 30
-0.0000000000000316
 11
88.5000000000000284
 21
138.7779491924310094
 31
-0.0000000000000308
210
0.0
220
1.0
230
-0.0000000000000002
  0
LINE
  5
278A
  8
0
  6
CONTINUOUS
 62
     3
 10
-88.4999999999999147
 20
142.4225113364740025
 30
-0.0000000000000316
 11
-88.4999999999999147
 21
138.7779491924310094
 31
-0.0000000000000308
210
0.0
220
1.0
230
-0.0000000000000002
  0
LINE
  5
278B
  8
0
  6
CONTINUOUS
 62
     3
 10
86.8592056284095264
 20
151.8154072893321995
 30
-0.0000000000000337
 11
88.4848077530122339
 21
142.596159514140993
 31
-0.0000000000000317
210
0.0
220
1.0
230
-0.0000000000000002
  0
LINE
  5
278C
  8
0
  6
CONTINUOUS
 62
     3
 10
-86.8592056284094269
 20
151.8154072893321995
 30
-0.0000000000000337
 11
-88.4848077530121202
 21
142.596159514140993
 31
-0.0000000000000317
210
0.0
220
1.0
230
-0.0000000000000002
  0
ARC
  5
278D
  8
0
  6
CONTINUOUS
 62
     3
 10
87.4999999999998437
 20
138.7779491924310094
 30
0.0
 40
1.0000000000000451
210
0.0
220
-0.0000000000000002
230
-1.0
 50
330.0000000000014779
 51
0.0000000000000127
  0
ARC
  5
278E
  8
0
  6
CONTINUOUS
 62
     3
 10
-87.4999999999999858
 20
138.7779491924310094
 30
0.0
 40
1.000000000000056
210
0.0
220
-0.0000000000000002
230
-1.0
 50
180.0
 51
209.9999999999984936
  0
LINE
  5
278F
  8
0
  6
CONTINUOUS
 62
     3
 10
-81.0586071770341192
 20
125.6211295515447972
 30
-0.0000000000000279
 11
-88.3660254037843345
 21
138.2779491924310094
 31
-0.0000000000000307
210
0.0
220
1.0
230
-0.0000000000000002
  0
LINE
  5
2790
  8
0
  6
CONTINUOUS
 62
     3
 10
81.0586071770342329
 20
125.6211295515447972
 30
-0.0000000000000279
 11
88.3660254037844624
 21
138.2779491924310094
 31
-0.0000000000000307
210
0.0
220
1.0
230
-0.0000000000000002
  0
LINE
  5
2791
  8
0
  6
CONTINUOUS
 62
     3
 10
165.0
 20
158.0099999999999056
 30
-0.0000000000000351
 11
165.0
 21
156.5099999999999909
 31
-0.0000000000000348
210
0.0
220
1.0
230
-0.0000000000000002
  0
LINE
  5
2792
  8
0
  6
CONTINUOUS
 62
     3
 10
-164.9999999999998863
 20
158.0099999999999056
 30
-0.0000000000000351
 11
-164.9999999999998863
 21
156.5099999999999909
 31
-0.0000000000000348
210
0.0
220
1.0
230
-0.0000000000000002
  0
ARC
  5
2793
  8
0
  6
CONTINUOUS
 62
     3
 10
90.798436640458263
 20
152.5099999999999056
 30
0.0
 40
4.0000000000000284
210
0.0
220
-0.0000000000000002
230
-1.0
 50
90.0000000000001847
 51
189.9999999999996021
  0
ARC
  5
2794
  8
0
  6
CONTINUOUS
 62
     3
 10
-90.7984366404583767
 20
152.5099999999999056
 30
0.0
 40
4.0000000000000151
210
0.0
220
-0.0000000000000002
230
-1.0
 50
350.0000000000002842
 51
89.9999999999998153
  0
ARC
  5
2795
  8
0
  6
CONTINUOUS
 62
     3
 10
74.563416648650815
 20
129.3711295515448114
 30
0.0
 40
7.50000000000004
210
0.0
220
-0.0000000000000002
230
-1.0
 50
281.0429300845876242
 51
329.9999999999998863
  0
ARC
  5
2796
  8
0
  6
CONTINUOUS
 62
     3
 10
-74.5634166486509145
 20
129.3711295515448114
 30
0.0
 40
7.5000000000000391
210
0.0
220
-0.0000000000000002
230
-1.0
 50
210.0
 51
258.9570699154123758
  0
LINE
  5
2797
  8
0
  6
VERDECKT
 62
     1
 10
62.9159049606964729
 20
0.2178893568691365
 30
0.0
 11
-62.9159049606964729
 21
0.2178893568691365
 31
0.0
210
0.0
220
1.0
230
-0.0000000000000002
  0
ARC
  5
2798
  8
0
  6
VERDECKT
 62
     1
 10
-75.9999999999997158
 20
76.7051792157362087
 30
0.0
 40
11.9999999999997105
210
0.0
220
-0.0000000000000002
230
-1.0
 50
359.9999999999997726
 51
17.3940371123163686
  0
ARC
  5
2799
  8
0
  6
VERDECKT
 62
     1
 10
75.9999999999997158
 20
76.7051792157362087
 30
0.0
 40
11.9999999999997105
210
0.0
220
-0.0000000000000002
230
-1.0
 50
162.605962887683603
 51
180.0
  0
LINE
  5
279A
  8
0
  6
VERDECKT
 62
     1
 10
-64.5487426584549837
 20
80.2924769867207857
 30
-0.0000000000000178
 11
-77.6143213871781086
 21
122.0
 31
-0.0000000000000271
210
0.0
220
1.0
230
-0.0000000000000002
  0
LINE
  5
279B
  8
0
  6
VERDECKT
 62
     1
 10
64.5487426584549837
 20
80.2924769867207857
 30
-0.0000000000000178
 11
77.6143213871781086
 21
122.0
 31
-0.0000000000000271
210
0.0
220
1.0
230
-0.0000000000000002
  0
LINE
  5
279C
  8
0
  6
VERDECKT
 62
     1
 10
-64.0
 20
12.65281330018564
 30
-0.0000000000000028
 11
-64.0
 21
76.7051792157361803
 31
-0.000000000000017
210
0.0
220
1.0
230
-0.0000000000000002
  0
LINE
  5
279D
  8
0
  6
VERDECKT
 62
     1
 10
64.0
 20
12.65281330018564
 30
-0.0000000000000028
 11
64.0
 21
76.7051792157361803
 31
-0.000000000000017
210
0.0
220
1.0
230
-0.0000000000000002
  0
ARC
  5
279E
  8
0
  6
VERDECKT
 62
     1
 10
-62.9999999999995097
 20
12.6528133001856293
 30
0.0
 40
1.0000000000004829
210
0.0
220
-0.0000000000000002
230
-1.0
 50
179.9999999999994884
 51
184.9999999999965041
  0
ARC
  5
279F
  8
0
  6
VERDECKT
 62
     1
 10
62.9999999999995097
 20
12.6528133001856293
 30
0.0
 40
1.0000000000004829
210
0.0
220
-0.0000000000000002
230
-1.0
 50
355.0000000000035243
 51
0.0000000000005216
  0
LINE
  5
27A0
  8
0
  6
VERDECKT
 62
     1
 10
-62.91590496069648
 20
0.2178893568691356
 30
0.0
 11
-63.9961946980917489
 21
12.5656575574379996
 31
-0.0000000000000028
210
0.0
220
1.0
230
-0.0000000000000002
  0
LINE
  5
27A1
  8
0
  6
VERDECKT
 62
     1
 10
62.91590496069648
 20
0.2178893568691356
 30
0.0
 11
63.9961946980917489
 21
12.5656575574379996
 31
-0.0000000000000028
210
0.0
220
1.0
230
-0.0000000000000002
  0
LINE
  5
27A2
  8
0
  6
VERDECKT
 62
     1
 10
62.91590496069648
 20
0.2178893568691464
 30
0.0
 11
65.4063917059258983
 21
0.0000000000000099
 31
0.0
210
0.0
220
1.0
230
-0.0000000000000002
  0
LINE
  5
27A3
  8
0
  6
VERDECKT
 62
     1
 10
-62.91590496069648
 20
0.2178893568691464
 30
0.0
 11
-65.4063917059258983
 21
0.0000000000000099
 31
0.0
210
0.0
220
1.0
230
-0.0000000000000002
  0
LINE
  5
27A4
  8
0
  6
VERDECKT
 62
     1
 10
-75.9999999999999716
 20
123.5456486036207053
 30
-0.0000000000000274
 11
76.0000000000000853
 21
123.5456486036207053
 31
-0.0000000000000274
210
0.0
220
1.0
230
-0.0000000000000002
  0
ARC
  5
27A5
  8
0
  6
VERDECKT
 62
     1
 10
85.9999999999990052
 20
142.291278341184892
 30
0.0
 40
1.0000000000009519
210
0.0
220
-0.0000000000000002
230
-1.0
 50
0.0000000000048853
 51
9.9999999999955502
  0
ARC
  5
27A6
  8
0
  6
VERDECKT
 62
     1
 10
-85.9999999999991047
 20
142.291278341184892
 30
0.0
 40
1.0000000000009499
210
0.0
220
-0.0000000000000002
230
-1.0
 50
170.0000000000044054
 51
179.9999999999951115
  0
LINE
  5
27A7
  8
0
  6
VERDECKT
 62
     1
 10
87.0000000000000568
 20
142.2912783411850057
 30
-0.0000000000000316
 11
87.0000000000000568
 21
139.179872981077807
 31
-0.0000000000000309
210
0.0
220
1.0
230
-0.0000000000000002
  0
LINE
  5
27A8
  8
0
  6
VERDECKT
 62
     1
 10
-86.9999999999999289
 20
142.2912783411850057
 30
-0.0000000000000316
 11
-86.9999999999999289
 21
139.1798729810776933
 31
-0.0000000000000309
210
0.0
220
1.0
230
-0.0000000000000002
  0
LINE
  5
27A9
  8
0
  6
VERDECKT
 62
     1
 10
85.3819939988911898
 20
151.5549350228318986
 30
-0.0000000000000337
 11
86.9848077530122481
 21
142.4649265188519109
 31
-0.0000000000000316
210
0.0
220
1.0
230
-0.0000000000000002
  0
LINE
  5
27AA
  8
0
  6
VERDECKT
 62
     1
 10
-85.3819939988910761
 20
151.5549350228318986
 30
-0.0000000000000337
 11
-86.9848077530121486
 21
142.4649265188519109
 31
-0.0000000000000316
210
0.0
220
1.0
230
-0.0000000000000002
  0
ARC
  5
27AB
  8
0
  6
VERDECKT
 62
     1
 10
85.9999999999998863
 20
139.179872981077807
 30
0.0
 40
1.0000000000000591
210
0.0
220
-0.0000000000000002
230
-1.0
 50
330.0000000000001137
 51
359.9999999999984084
  0
ARC
  5
27AC
  8
0
  6
VERDECKT
 62
     1
 10
-86.0
 20
139.179872981077807
 30
0.0
 40
1.000000000000056
210
0.0
220
-0.0000000000000002
230
-1.0
 50
180.0000000000015064
 51
209.9999999999998863
  0
LINE
  5
27AD
  8
0
  6
VERDECKT
 62
     1
 10
-79.7595690713574754
 20
126.3711295515447972
 30
-0.0000000000000281
 11
-86.8660254037843913
 21
138.679872981077807
 31
-0.0000000000000308
210
0.0
220
1.0
230
-0.0000000000000002
  0
LINE
  5
27AE
  8
0
  6
VERDECKT
 62
     1
 10
79.7595690713576033
 20
126.3711295515447972
 30
-0.0000000000000281
 11
86.866025403784505
 21
138.6798729810776933
 31
-0.0000000000000308
210
0.0
220
1.0
230
-0.0000000000000002
  0
ARC
  5
27AF
  8
0
  6
VERDECKT
 62
     1
 10
90.7984366404582346
 20
152.5099999999999909
 30
0.0
 40
5.5
210
0.0
220
-0.0000000000000002
230
-1.0
 50
89.9999999999997158
 51
190.0000000000001137
  0
ARC
  5
27B0
  8
0
  6
VERDECKT
 62
     1
 10
-90.7984366404583767
 20
152.5099999999999056
 30
0.0
 40
5.4999999999999947
210
0.0
220
-0.0000000000000002
230
-1.0
 50
350.0000000000002842
 51
90.0000000000000284
  0
LINE
  5
27B1
  8
0
  6
VERDECKT
 62
     1
 10
76.0000000000000711
 20
123.5456486036207053
 30
-0.0000000000000274
 11
76.0000000000000711
 21
122.0099999999999056
 31
-0.0000000000000271
210
0.0
220
1.0
230
-0.0000000000000002
  0
LINE
  5
27B2
  8
0
  6
VERDECKT
 62
     1
 10
-75.9999999999999574
 20
123.5456486036207053
 30
-0.0000000000000274
 11
-75.9999999999999574
 21
122.0099999999999056
 31
-0.0000000000000271
210
0.0
220
1.0
230
-0.0000000000000002
  0
ARC
  5
27B3
  8
0
  6
VERDECKT
 62
     1
 10
74.5634166486507866
 20
129.3711295515448114
 30
0.0
 40
6.0000000000000737
210
0.0
220
-0.0000000000000002
230
-1.0
 50
283.852933915462188
 51
329.9999999999997726
  0
ARC
  5
27B4
  8
0
  6
VERDECKT
 62
     1
 10
-74.5634166486509002
 20
129.3711295515448114
 30
0.0
 40
6.0000000000000782
210
0.0
220
-0.0000000000000002
230
-1.0
 50
210.0000000000001137
 51
256.1470660845376983
  0
ENDBLK
  5
27B6
  8
0
  0
ENDSEC
  0
SECTION
  2
ENTITIES
  0
TEXT
  5
8F
  8
VOLL
 10
78.076754716981128
 20
31.025947764705851
 30
0.0
 40
1.8
  1

  7
GREEKS
  0
INSERT
  5
B3C
  8
ADSK_ASSOC_ENTITY_BACKUPS
  2
*S0
 10
0.0
 20
0.0
 30
0.0
  0
INSERT
  5
2772
  8
STEMPEL
  2
A$CC1FF373E
 10
0.0
 20
-215.0
 30
0.0
  0
INSERT
  5
27B7
  8
STEMPEL
  2
A$CD5F3355C
 10
0.0
 20
0.0
 30
0.0
  0
VIEWPORT
  5
928
 67
     1
  8
0
 10
145.4741015984643013
 20
205.7211273266638898
 30
0.0
 40
790.2674510967764263
 41
422.1483375959078899
 68
     1
 69
     1
1001
ACAD
1000
MVIEW
1002
{
1070
    16
1010
0.0
1020
0.0
1030
0.0
1010
0.0
1020
0.0
1030
1.0
1040
0.0
1040
422.1483375959078899
1040
145.4741015984643013
1040
205.7211273266638898
1040
50.0
1040
0.0
1040
0.0
1070
     0
1070
  1500
1070
     1
1070
     1
1070
     0
1070
     0
1070
     0
1070
     0
1040
0.0
1040
0.0
1040
0.0
1040
10.0
1040
10.0
1040
10.0
1040
10.0
1070
     0
1002
{
1002
}
1002
}
  0
ENDSEC
  0
EOF
