  0
SECTION
  2
HEADER
  9
$ACADVER
  1
AC1009
  9
$INSBASE
 10
0.0
 20
0.0
 30
0.0
  9
$EXTMIN
 10
-137.5
 20
-325.0
 30
-0.0000000000000369
  9
$EXTMAX
 10
137.5
 20
157.0
 30
0.0
  9
$LIMMIN
 10
0.0
 20
0.0
  9
$LIMMAX
 10
210.0
 20
297.0
  9
$ORTHOMODE
 70
     1
  9
$REGENMODE
 70
     1
  9
$FILLMODE
 70
     1
  9
$QTEXTMODE
 70
     0
  9
$MIRRTEXT
 70
     1
  9
$DRAGMODE
 70
     2
  9
$LTSCALE
 40
10.0
  9
$OSMODE
 70
   511
  9
$ATTMODE
 70
     1
  9
$TEXTSIZE
 40
3.5
  9
$TRACEWID
 40
0.5
  9
$TEXTSTYLE
  7
STANDARD
  9
$CLAYER
  8
STEMPEL
  9
$CELTYPE
  6
BYLAYER
  9
$CECOLOR
 62
   256
  9
$DIMSCALE
 40
1.0
  9
$DIMASZ
 40
3.5
  9
$DIMEXO
 40
1.0
  9
$DIMDLI
 40
0.38
  9
$DIMRND
 40
0.0
  9
$DIMDLE
 40
0.0
  9
$DIMEXE
 40
1.0
  9
$DIMTP
 40
0.0
  9
$DIMTM
 40
0.000000001
  9
$DIMTXT
 40
3.5
  9
$DIMCEN
 40
0.09
  9
$DIMTSZ
 40
0.0
  9
$DIMTOL
 70
     0
  9
$DIMLIM
 70
     0
  9
$DIMTIH
 70
     0
  9
$DIMTOH
 70
     0
  9
$DIMSE1
 70
     0
  9
$DIMSE2
 70
     0
  9
$DIMTAD
 70
     1
  9
$DIMZIN
 70
     8
  9
$DIMBLK
  1

  9
$DIMASO
 70
     1
  9
$DIMSHO
 70
     0
  9
$DIMPOST
  1

  9
$DIMAPOST
  1

  9
$DIMALT
 70
     0
  9
$DIMALTD
 70
     2
  9
$DIMALTF
 40
25.3999999999999986
  9
$DIMLFAC
 40
2.0
  9
$DIMTOFL
 70
     1
  9
$DIMTVP
 40
0.0
  9
$DIMTIX
 70
     0
  9
$DIMSOXD
 70
     0
  9
$DIMSAH
 70
     0
  9
$DIMBLK1
  1

  9
$DIMBLK2
  1

  9
$DIMSTYLE
  2
LORO
  9
$DIMCLRD
 70
     0
  9
$DIMCLRE
 70
     0
  9
$DIMCLRT
 70
     1
  9
$DIMTFAC
 40
0.5
  9
$DIMGAP
 40
1.5
  9
$LUNITS
 70
     2
  9
$LUPREC
 70
     2
  9
$SKETCHINC
 40
1.0
  9
$FILLETRAD
 40
15.0
  9
$AUNITS
 70
     0
  9
$AUPREC
 70
     0
  9
$MENU
  1
ACAD
  9
$ELEVATION
 40
0.0
  9
$PELEVATION
 40
0.0
  9
$THICKNESS
 40
0.0
  9
$LIMCHECK
 70
     0
  9
$BLIPMODE
 70
     0
  9
$CHAMFERA
 40
0.0
  9
$CHAMFERB
 40
0.0
  9
$SKPOLY
 70
     0
  9
$TDCREATE
 40
2455397.8646990740671754
  9
$TDUPDATE
 40
2459807.4267939818091691
  9
$TDINDWG
 40
0.3277008333
  9
$TDUSRTIMER
 40
0.3277008333
  9
$USRTIMER
 70
     1
  9
$ANGBASE
 50
0.0
  9
$ANGDIR
 70
     0
  9
$PDMODE
 70
     0
  9
$PDSIZE
 40
0.0
  9
$PLINEWID
 40
0.0
  9
$COORDS
 70
     1
  9
$SPLFRAME
 70
     0
  9
$SPLINETYPE
 70
     6
  9
$SPLINESEGS
 70
     8
  9
$ATTDIA
 70
     1
  9
$ATTREQ
 70
     1
  9
$HANDLING
 70
     1
  9
$HANDSEED
  5
244D
  9
$SURFTAB1
 70
     6
  9
$SURFTAB2
 70
     6
  9
$SURFTYPE
 70
     6
  9
$SURFU
 70
     6
  9
$SURFV
 70
     6
  9
$UCSNAME
  2

  9
$UCSORG
 10
0.0
 20
0.0
 30
0.0
  9
$UCSXDIR
 10
1.0
 20
0.0
 30
0.0
  9
$UCSYDIR
 10
0.0
 20
1.0
 30
0.0
  9
$PUCSNAME
  2

  9
$PUCSORG
 10
0.0
 20
0.0
 30
0.0
  9
$PUCSXDIR
 10
1.0
 20
0.0
 30
0.0
  9
$PUCSYDIR
 10
0.0
 20
1.0
 30
0.0
  9
$USERI1
 70
     0
  9
$USERI2
 70
     0
  9
$USERI3
 70
     0
  9
$USERI4
 70
     0
  9
$USERI5
 70
     0
  9
$USERR1
 40
0.0
  9
$USERR2
 40
0.0
  9
$USERR3
 40
0.0
  9
$USERR4
 40
0.0
  9
$USERR5
 40
0.0
  9
$WORLDVIEW
 70
     1
  9
$SHADEDGE
 70
     3
  9
$SHADEDIF
 70
    70
  9
$TILEMODE
 70
     1
  9
$MAXACTVP
 70
    16
  9
$PLIMCHECK
 70
     0
  9
$PEXTMIN
 10
1.0000000000000000E+20
 20
1.0000000000000000E+20
 30
1.0000000000000000E+20
  9
$PEXTMAX
 10
-1.0000000000000000E+20
 20
-1.0000000000000000E+20
 30
-1.0000000000000000E+20
  9
$PLIMMIN
 10
-2.9930764031900021
 20
-4.2847224041281029
  9
$PLIMMAX
 10
294.0069235968099974
 20
415.7152775958718962
  9
$UNITMODE
 70
     0
  9
$VISRETAIN
 70
     0
  9
$PLINEGEN
 70
     0
  9
$PSLTSCALE
 70
     0
  0
ENDSEC
  0
SECTION
  2
TABLES
  0
TABLE
  2
VPORT
 70
     1
  0
VPORT
  2
*ACTIVE
 70
     0
 10
0.0
 20
0.0
 11
1.0
 21
1.0
 12
18.4546961589546683
 22
-47.9161878036999269
 13
0.0
 23
0.0
 14
1.0
 24
1.0
 15
10.0
 25
10.0
 16
-0.0000000000003908
 26
0.0
 36
1735.2451148293610004
 17
-18.4546961589546683
 27
-36.0838121963000802
 37
-0.0000000000000216
 40
484.4654731457799812
 41
1.8720136518771331
 42
50.0
 43
0.0
 44
0.0
 50
0.0
 51
0.0
 71
     0
 72
  1500
 73
     1
 74
     0
 75
     0
 76
     0
 77
     0
 78
     0
  0
ENDTAB
  0
TABLE
  2
LTYPE
 70
     3
  0
LTYPE
  2
CONTINUOUS
 70
     0
  3
Solid line
 72
    65
 73
     0
 40
0.0
  0
LTYPE
  2
STRICHPUNKT
 70
     0
  3
__ . __ . __ . __ . __ . __ . __ . __ . __ . __
 72
    65
 73
     4
 40
1.0
 49
0.5
 49
-0.25
 49
0.0
 49
-0.25
  0
LTYPE
  2
VERDECKT
 70
     0
  3
Verdeckt __ __ __ __ __ __ __ __ __ __ __ __ __
 72
    65
 73
     2
 40
0.375
 49
0.25
 49
-0.125
  0
ENDTAB
  0
TABLE
  2
LAYER
 70
     7
  0
LAYER
  2
0
 70
     0
 62
     7
  6
CONTINUOUS
  0
LAYER
  2
VOLL
 70
     0
 62
     1
  6
CONTINUOUS
  0
LAYER
  2
STEMPEL
 70
     0
 62
     3
  6
CONTINUOUS
  0
LAYER
  2
ADSK_ASSOC_ENTITY_BACKUPS
 70
     1
 62
    -7
  6
CONTINUOUS
  0
ENDTAB
  0
TABLE
  2
STYLE
 70
     3
  0
STYLE
  2
STANDARD
 70
     0
 40
0.0
 41
0.8
 50
0.0
 71
     0
 42
3.5
  3
simplex.shx
  4

  0
STYLE
  2
GREEKS
 70
     0
 40
0.0
 41
0.8
 50
0.0
 71
     0
 42
2.5
  3
SIMPLEX.shx
  4

  0
ENDTAB
  0
TABLE
  2
VIEW
 70
     0
  0
ENDTAB
  0
TABLE
  2
UCS
 70
     0
  0
ENDTAB
  0
TABLE
  2
APPID
 70
    26
  0
APPID
  2
ACAD
 70
     0
  0
APPID
  2
ACAD_NAV_VCDISPLAY
 70
     0
  0
APPID
  2
ACAD_MLEADERVER
 70
     0
  0
APPID
  2
ACAD_EXEMPT_FROM_CAD_STANDARDS
 70
     0
  0
APPID
  2
ACAD_PSEXT
 70
     0
  0
APPID
  2
ACAECLAYERSTANDARD
 70
     0
  0
APPID
  2
ACAUTHENVIRON
 70
     0
  0
APPID
  2
ACCMTRANSPARENCY
 70
     0
  0
APPID
  2
ACAD_STEPID
 70
     0
  0
APPID
  2
ACSYNERGY
 70
     0
  0
APPID
  2
SYNERGY_BODY_TBR_ID
 70
     0
  0
APPID
  2
ACAD_VIEW_EDGE_ID
 70
     0
  0
APPID
  2
ACSYNERGYSKETCH
 70
     0
  0
APPID
  2
ACAD_MODELDOC_XFORM
 70
     0
  0
APPID
  2
ACAD_DSTYLE_DIMJAG
 70
     0
  0
APPID
  2
ACAD_DSTYLE_DIMTALN
 70
     0
  0
APPID
  2
ACADANNOMONITORALERTICONDI
 70
     0
  0
APPID
  2
ACAD_DIMASSOC_CALC_DIMLFAC
 70
     0
  0
APPID
  2
ACAD_DIMASSOC_DIMLFAC
 70
     0
  0
APPID
  2
ACAD_DIMASSOC_OVERRIDDEN_D
 70
     0
  0
APPID
  2
ACAD_DSTYLE_DIMRADIAL_EXTENSION
 70
     0
  0
APPID
  2
GRADIENTCOLOR1ACI
 70
     0
  0
APPID
  2
GRADIENTCOLOR2ACI
 70
     0
  0
APPID
  2
ACDBDYNAMICBLOCKGUID
 70
     0
  0
APPID
  2
ACAD_DSTYLE_DIMBREAK
 70
     0
  0
APPID
  2
ACADANNOPO
 70
     0
  0
ENDTAB
  0
TABLE
  2
DIMSTYLE
 70
     1
  0
DIMSTYLE
  2
LORO
 70
     0
  3

  4

  5

  6

  7

 40
1.0
 41
3.5
 42
1.0
 43
0.38
 44
1.0
 45
0.0
 46
0.0
 47
0.0
 48
0.000000001
140
3.5
141
0.09
142
0.0
143
25.3999999999999986
144
2.0
145
0.0
146
0.5
147
1.5
 71
     0
 72
     0
 73
     0
 74
     0
 75
     0
 76
     0
 77
     1
 78
     8
170
     0
171
     2
172
     1
173
     0
174
     0
175
     0
176
     0
177
     0
178
     1
  0
ENDTAB
  0
ENDSEC
  0
SECTION
  2
BLOCKS
  0
BLOCK
  8
0
  2
$MODEL_SPACE
 70
     0
 10
0.0
 20
0.0
 30
0.0
  3
$MODEL_SPACE
  1

  0
ENDBLK
  5
36
  8
0
  0
BLOCK
 67
     1
  8
0
  2
$PAPER_SPACE
 70
     0
 10
0.0
 20
0.0
 30
0.0
  3
$PAPER_SPACE
  1

  0
ENDBLK
  5
34
 67
     1
  8
0
  0
BLOCK
  8
0
  2
*S0
 70
     1
 10
0.0
 20
0.0
 30
0.0
  3
*S0
  1

  0
ENDBLK
  5
B3A
  8
0
  0
BLOCK
  8
0
  2
A$CAE35E37C
 70
     0
 10
0.0
 20
0.0
 30
0.0
  3
A$CAE35E37C
  1

  0
CIRCLE
  5
239E
  8
0
  6
CONTINUOUS
 62
     3
 10
-0.0000000000001352
 20
-0.0000000000000019
 30
0.0
 40
49.0
  0
CIRCLE
  5
239F
  8
0
  6
CONTINUOUS
 62
     3
 10
0.0
 20
-0.000000000000005
 30
0.0
 40
48.1327239685572223
  0
CIRCLE
  5
23A0
  8
0
  6
CONTINUOUS
 62
     3
 10
-0.0000000000000344
 20
-0.0000000000000001
 30
0.0
 40
137.5
  0
CIRCLE
  5
23A1
  8
0
  6
CONTINUOUS
 62
     3
 10
-0.0000000000000273
 20
-0.0000000000000021
 30
0.0
 40
60.0
  0
CIRCLE
  5
23A2
  8
0
  6
CONTINUOUS
 62
     3
 10
-0.0000000000000331
 20
-0.0000000000000005
 30
0.0
 40
70.365984112298122
  0
CIRCLE
  5
23A3
  8
0
  6
VERDECKT
 62
     1
 10
0.0
 20
-0.000000000000005
 30
0.0
 40
50.125113364740848
  0
CIRCLE
  5
23A4
  8
0
  6
VERDECKT
 62
     1
 10
-0.0000000000001352
 20
-0.0000000000000019
 30
0.0
 40
51.0
  0
CIRCLE
  5
23A5
  8
0
  6
VERDECKT
 62
     1
 10
-0.0000000000001407
 20
-0.0000000000000004
 30
0.0
 40
61.7986015438735876
  0
CIRCLE
  5
23A6
  8
0
  6
VERDECKT
 62
     1
 10
-0.0000000000001404
 20
-0.0000000000000004
 30
0.0
 40
63.5016894972150112
  0
CIRCLE
  5
23A7
  8
0
  6
VERDECKT
 62
     1
 10
-0.0000000000000315
 20
-0.0000000000000009
 30
0.0
 40
73.0
  0
CIRCLE
  5
23A8
  8
0
  6
VERDECKT
 62
     1
 10
-0.0000000000000315
 20
-0.0000000000000009
 30
0.0
 40
71.5
  0
CIRCLE
  5
23A9
  8
0
  6
VERDECKT
 62
     1
 10
-0.0000000000000341
 20
-0.0000000000000002
 30
0.0
 40
137.2137865069350937
  0
CIRCLE
  5
23AA
  8
0
  6
VERDECKT
 62
     1
 10
-0.0000000000000331
 20
-0.0000000000000005
 30
0.0
 40
71.865984112298122
  0
ENDBLK
  5
23AC
  8
0
  0
BLOCK
  8
0
  2
A$C26A7429B
 70
     0
 10
0.0
 20
0.0
 30
0.0
  3
A$C26A7429B
  1

  0
LINE
  5
23B0
  8
0
  6
CONTINUOUS
 62
     3
 10
50.1251133647408409
 20
0.0
 30
0.0
 11
-50.1251133647408409
 21
0.0
 31
0.0
210
0.0
220
1.0
230
-0.0000000000000002
  0
LINE
  5
23B1
  8
0
  6
CONTINUOUS
 62
     3
 10
61.7986015438734668
 20
121.5
 30
-0.000000000000027
 11
-61.7986015438737013
 21
121.5
 31
-0.000000000000027
210
0.0
220
1.0
230
-0.0000000000000002
  0
LINE
  5
23B2
  8
0
  6
CONTINUOUS
 62
     3
 10
63.5016894972148904
 20
120.4514336343448946
 30
-0.0000000000000267
 11
-63.501689497215132
 21
120.4514336343448946
 31
-0.0000000000000267
210
0.0
220
1.0
230
-0.0000000000000002
  0
ARC
  5
23B3
  8
0
  6
CONTINUOUS
 62
     3
 10
-49.9999999999993392
 20
10.0436609429099697
 30
0.0
 40
1.0000000000006599
210
0.0
220
-0.0000000000000002
230
-1.0
 50
179.9999999999994884
 51
184.9999999999961062
  0
ARC
  5
23B4
  8
0
  6
CONTINUOUS
 62
     3
 10
49.9999999999993392
 20
10.0436609429099697
 30
0.0
 40
1.0000000000006599
210
0.0
220
-0.0000000000000002
230
-1.0
 50
355.0000000000038085
 51
0.0000000000005216
  0
LINE
  5
23B5
  8
0
  6
CONTINUOUS
 62
     3
 10
-50.125113364740848
 20
0.0
 30
0.0
 11
-50.9961946980917489
 21
9.9565052001623222
 31
-0.0000000000000022
210
0.0
220
1.0
230
-0.0000000000000002
  0
LINE
  5
23B6
  8
0
  6
CONTINUOUS
 62
     3
 10
50.125113364740848
 20
0.0
 30
0.0
 11
50.9961946980917489
 21
9.9565052001623222
 31
-0.0000000000000022
210
0.0
220
1.0
230
-0.0000000000000002
  0
LINE
  5
23B7
  8
0
  6
CONTINUOUS
 62
     3
 10
-51.0
 20
10.0436609429099803
 30
-0.0000000000000022
 11
-51.0
 21
96.7481925681526747
 31
-0.0000000000000215
210
0.0
220
1.0
230
-0.0000000000000002
  0
LINE
  5
23B8
  8
0
  6
CONTINUOUS
 62
     3
 10
51.0
 20
10.0436609429099803
 30
-0.0000000000000022
 11
51.0
 21
96.7481925681526747
 31
-0.0000000000000215
210
0.0
220
1.0
230
-0.0000000000000002
  0
ARC
  5
23B9
  8
0
  6
CONTINUOUS
 62
     3
 10
-62.9999999999998224
 20
96.7481925681527031
 30
0.0
 40
11.9999999999998295
210
0.0
220
-0.0000000000000002
230
-1.0
 50
0.0
 51
31.6199999999986012
  0
ARC
  5
23BA
  8
0
  6
CONTINUOUS
 62
     3
 10
62.9999999999999574
 20
96.7481925681527173
 30
0.0
 40
11.99999999999973
210
0.0
220
-0.0000000000000002
230
-1.0
 50
148.3800000000011892
 51
180.0
  0
LINE
  5
23BB
  8
0
  6
CONTINUOUS
 62
     3
 10
-52.7814722799512808
 20
103.0395907620831935
 30
-0.0000000000000229
 11
-63.5016894972151604
 21
120.4514336343448946
 31
-0.0000000000000267
210
0.0
220
1.0
230
-0.0000000000000002
  0
LINE
  5
23BC
  8
0
  6
CONTINUOUS
 62
     3
 10
52.7814722799510605
 20
103.0395907620831935
 30
-0.0000000000000229
 11
63.5016894972149331
 21
120.4514336343448946
 31
-0.0000000000000267
210
0.0
220
1.0
230
-0.0000000000000002
  0
LINE
  5
23BD
  8
0
  6
CONTINUOUS
 62
     3
 10
61.798601543873481
 20
121.5
 30
-0.000000000000027
 11
63.5016894972149117
 21
120.4514336343448946
 31
-0.0000000000000267
210
0.0
220
1.0
230
-0.0000000000000002
  0
LINE
  5
23BE
  8
0
  6
CONTINUOUS
 62
     3
 10
-61.7986015438737084
 20
121.5
 30
-0.000000000000027
 11
-63.501689497215132
 21
120.4514336343448946
 31
-0.0000000000000267
210
0.0
220
1.0
230
-0.0000000000000002
  0
LINE
  5
23BF
  8
0
  6
CONTINUOUS
 62
     3
 10
-126.8283894267972016
 20
157.0
 30
-0.0000000000000349
 11
126.8283894267972016
 21
157.0
 31
-0.0000000000000349
210
0.0
220
1.0
230
-0.0000000000000002
  0
LINE
  5
23C0
  8
0
  6
CONTINUOUS
 62
     3
 10
-137.5
 20
154.9724407751714921
 30
-0.0000000000000344
 11
137.5
 21
154.9724407751714921
 31
-0.0000000000000344
210
0.0
220
1.0
230
-0.0000000000000002
  0
LINE
  5
23C1
  8
0
  6
CONTINUOUS
 62
     3
 10
-137.2137865069350937
 20
153.5
 30
-0.0000000000000341
 11
137.2137865069350937
 21
153.5
 31
-0.0000000000000341
210
0.0
220
1.0
230
-0.0000000000000002
  0
ARC
  5
23C2
  8
0
  6
CONTINUOUS
 62
     3
 10
71.9999999999999432
 20
138.2679491924311037
 30
0.0
 40
1.0000000000000451
210
0.0
220
-0.0000000000000002
230
-1.0
 50
330.0000000000014779
 51
0.0000000000000127
  0
ARC
  5
23C3
  8
0
  6
CONTINUOUS
 62
     3
 10
-71.9999999999999432
 20
138.2679491924311037
 30
0.0
 40
1.000000000000056
210
0.0
220
-0.0000000000000002
230
-1.0
 50
180.0
 51
209.9999999999984936
  0
LINE
  5
23C4
  8
0
  6
CONTINUOUS
 62
     3
 10
73.0
 20
141.9125113364742106
 30
-0.0000000000000315
 11
73.0
 21
138.2679491924311037
 31
-0.0000000000000307
210
0.0
220
1.0
230
-0.0000000000000002
  0
LINE
  5
23C5
  8
0
  6
CONTINUOUS
 62
     3
 10
-73.0
 20
141.9125113364742958
 30
-0.0000000000000315
 11
-73.0
 21
138.2679491924311037
 31
-0.0000000000000307
210
0.0
220
1.0
230
-0.0000000000000002
  0
LINE
  5
23C6
  8
0
  6
CONTINUOUS
 62
     3
 10
-65.6084097491467304
 20
125.1973901367912987
 30
-0.0000000000000278
 11
-72.8660254037844339
 21
137.7679491924311037
 31
-0.0000000000000306
210
0.0
220
1.0
230
-0.0000000000000002
  0
LINE
  5
23C7
  8
0
  6
CONTINUOUS
 62
     3
 10
65.6084097491467162
 20
125.1973901367912987
 30
-0.0000000000000278
 11
72.8660254037844339
 21
137.7679491924311037
 31
-0.0000000000000306
210
0.0
220
1.0
230
-0.0000000000000002
  0
ARC
  5
23C8
  8
0
  6
CONTINUOUS
 62
     3
 10
71.9999999999990479
 20
141.9125113364740969
 30
0.0
 40
1.0000000000009519
210
0.0
220
-0.0000000000000002
230
-1.0
 50
0.0000000000048853
 51
9.9999999999955502
  0
ARC
  5
23C9
  8
0
  6
CONTINUOUS
 62
     3
 10
-71.9999999999990479
 20
141.9125113364740969
 30
0.0
 40
1.0000000000009499
210
0.0
220
-0.0000000000000002
230
-1.0
 50
170.0000000000044054
 51
179.9999999999951115
  0
LINE
  5
23CA
  8
0
  6
CONTINUOUS
 62
     3
 10
71.964733717718758
 20
147.8712868451648887
 30
-0.0000000000000328
 11
72.9848077530122055
 21
142.086159514141201
 31
-0.0000000000000315
210
0.0
220
1.0
230
-0.0000000000000002
  0
LINE
  5
23CB
  8
0
  6
CONTINUOUS
 62
     3
 10
-71.964733717718758
 20
147.8712868451648887
 30
-0.0000000000000328
 11
-72.9848077530122055
 21
142.086159514141201
 31
-0.0000000000000315
210
0.0
220
1.0
230
-0.0000000000000002
  0
ARC
  5
23CC
  8
0
  6
CONTINUOUS
 62
     3
 10
126.8283894267971021
 20
154.4999999999990905
 30
0.0
 40
2.5000000000008811
210
0.0
220
-0.0000000000000002
230
-1.0
 50
79.0000000000022311
 51
89.9999999999980531
  0
ARC
  5
23CD
  8
0
  6
CONTINUOUS
 62
     3
 10
-126.8283894267971021
 20
154.4999999999990905
 30
0.0
 40
2.5000000000008811
210
0.0
220
-0.0000000000000002
230
-1.0
 50
90.0000000000019753
 51
100.9999999999977973
  0
LINE
  5
23CE
  8
0
  6
CONTINUOUS
 62
     3
 10
127.3054119152384942
 20
156.9540679586191914
 30
-0.0000000000000349
 11
137.5
 21
154.9724407751714921
 31
-0.0000000000000344
210
0.0
220
1.0
230
-0.0000000000000002
  0
LINE
  5
23CF
  8
0
  6
CONTINUOUS
 62
     3
 10
-127.3054119152384942
 20
156.9540679586191914
 30
-0.0000000000000349
 11
-137.5
 21
154.9724407751714921
 31
-0.0000000000000344
210
0.0
220
1.0
230
-0.0000000000000002
  0
LINE
  5
23D0
  8
0
  6
CONTINUOUS
 62
     3
 10
-137.2137865069350937
 20
153.5000000000001137
 30
-0.0000000000000341
 11
-137.5
 21
154.9724407751714921
 31
-0.0000000000000344
210
0.0
220
1.0
230
-0.0000000000000002
  0
LINE
  5
23D1
  8
0
  6
CONTINUOUS
 62
     3
 10
137.2137865069350937
 20
153.5
 30
-0.0000000000000341
 11
137.5
 21
154.9724407751714921
 31
-0.0000000000000344
210
0.0
220
1.0
230
-0.0000000000000002
  0
ARC
  5
23D2
  8
0
  6
CONTINUOUS
 62
     3
 10
78.365984112298122
 20
149.0
 30
0.0
 40
6.4999999999999947
210
0.0
220
-0.0000000000000002
230
-1.0
 50
136.1869385395968095
 51
190.0
  0
ARC
  5
23D3
  8
0
  6
CONTINUOUS
 62
     3
 10
-78.365984112298122
 20
149.0
 30
0.0
 40
6.4999999999999982
210
0.0
220
-0.0000000000000002
230
-1.0
 50
349.9999999999998863
 51
43.8130614604031905
  0
ARC
  5
23D4
  8
0
  6
CONTINUOUS
 62
     3
 10
59.1132192207634404
 20
128.9473901367913129
 30
0.0
 40
7.4999999999999671
210
0.0
220
-0.0000000000000002
230
-1.0
 50
276.7903909729849943
 51
330.0000000000001137
  0
ARC
  5
23D5
  8
0
  6
CONTINUOUS
 62
     3
 10
-59.1132192207634475
 20
128.9473901367913129
 30
0.0
 40
7.4999999999999671
210
0.0
220
-0.0000000000000002
230
-1.0
 50
209.9999999999996874
 51
263.2096090270151194
  0
LINE
  5
23D6
  8
0
  6
VERDECKT
 62
     1
 10
48.1327239685572223
 20
0.1743114854953092
 30
0.0
 11
-48.1327239685572223
 21
0.1743114854953092
 31
0.0
210
0.0
220
1.0
230
-0.0000000000000002
  0
ARC
  5
23D7
  8
0
  6
VERDECKT
 62
     1
 10
-47.9999999999993392
 20
10.1309828287242993
 30
0.0
 40
1.0000000000006599
210
0.0
220
-0.0000000000000002
230
-1.0
 50
179.9999999999994884
 51
184.9999999999961062
  0
ARC
  5
23D8
  8
0
  6
VERDECKT
 62
     1
 10
47.9999999999993392
 20
10.1309828287242993
 30
0.0
 40
1.0000000000006599
210
0.0
220
-0.0000000000000002
230
-1.0
 50
355.0000000000038085
 51
0.0000000000005216
  0
LINE
  5
23D9
  8
0
  6
VERDECKT
 62
     1
 10
-49.0
 20
10.13098282872431
 30
-0.0000000000000022
 11
-49.0
 21
96.7481925681526747
 31
-0.0000000000000215
210
0.0
220
1.0
230
-0.0000000000000002
  0
LINE
  5
23DA
  8
0
  6
VERDECKT
 62
     1
 10
49.0
 20
10.13098282872431
 30
-0.0000000000000022
 11
49.0
 21
96.7481925681526747
 31
-0.0000000000000215
210
0.0
220
1.0
230
-0.0000000000000002
  0
LINE
  5
23DB
  8
0
  6
VERDECKT
 62
     1
 10
-48.1327239685572223
 20
0.1743114854953092
 30
0.0
 11
-48.9961946980917489
 21
10.0438270859766501
 31
-0.0000000000000022
210
0.0
220
1.0
230
-0.0000000000000002
  0
LINE
  5
23DC
  8
0
  6
VERDECKT
 62
     1
 10
48.1327239685572223
 20
0.1743114854953092
 30
0.0
 11
48.9961946980917489
 21
10.0438270859766501
 31
-0.0000000000000022
210
0.0
220
1.0
230
-0.0000000000000002
  0
LINE
  5
23DD
  8
0
  6
VERDECKT
 62
     1
 10
-51.0783843266100632
 20
104.0881571277385973
 30
-0.0000000000000231
 11
-61.7986015438737297
 21
121.5
 31
-0.000000000000027
210
0.0
220
1.0
230
-0.0000000000000002
  0
LINE
  5
23DE
  8
0
  6
VERDECKT
 62
     1
 10
51.0783843266098287
 20
104.0881571277385973
 30
-0.0000000000000231
 11
61.7986015438735024
 21
121.5
 31
-0.000000000000027
210
0.0
220
1.0
230
-0.0000000000000002
  0
ARC
  5
23DF
  8
0
  6
VERDECKT
 62
     1
 10
-63.0000000000006324
 20
96.7481925681523336
 30
0.0
 40
14.0000000000006892
210
0.0
220
-0.0000000000000002
230
-1.0
 50
0.0000000000014631
 51
31.6199999999998091
  0
ARC
  5
23E0
  8
0
  6
VERDECKT
 62
     1
 10
63.0000000000008029
 20
96.748192568152362
 30
0.0
 40
14.0000000000006306
210
0.0
220
-0.0000000000000002
230
-1.0
 50
148.3800000000001091
 51
179.9999999999986073
  0
LINE
  5
23E1
  8
0
  6
VERDECKT
 62
     1
 10
48.1327239685572223
 20
0.1743114854953092
 30
0.0
 11
50.125113364740848
 21
0.0
 31
0.0
210
0.0
220
1.0
230
-0.0000000000000002
  0
LINE
  5
23E2
  8
0
  6
VERDECKT
 62
     1
 10
-48.1327239685572223
 20
0.1743114854953092
 30
0.0
 11
-50.125113364740848
 21
0.0
 31
0.0
210
0.0
220
1.0
230
-0.0000000000000002
  0
LINE
  5
23E3
  8
0
  6
VERDECKT
 62
     1
 10
-126.8283894267971021
 20
155.5
 30
-0.0000000000000345
 11
126.8283894267971021
 21
155.5
 31
-0.0000000000000345
210
0.0
220
1.0
230
-0.0000000000000002
  0
LINE
  5
23E4
  8
0
  6
VERDECKT
 62
     1
 10
-60.0000000000000071
 20
123.0132836455345
 30
-0.0000000000000273
 11
60.0000000000000071
 21
123.0132836455345
 31
-0.0000000000000273
210
0.0
220
1.0
230
-0.0000000000000002
  0
ARC
  5
23E5
  8
0
  6
VERDECKT
 62
     1
 10
70.4999999999999432
 20
138.6698729810777877
 30
0.0
 40
1.0000000000000591
210
0.0
220
-0.0000000000000002
230
-1.0
 50
330.0000000000001137
 51
359.9999999999984084
  0
ARC
  5
23E6
  8
0
  6
VERDECKT
 62
     1
 10
-70.4999999999999432
 20
138.6698729810777877
 30
0.0
 40
1.000000000000056
210
0.0
220
-0.0000000000000002
230
-1.0
 50
180.0000000000015064
 51
209.9999999999998863
  0
LINE
  5
23E7
  8
0
  6
VERDECKT
 62
     1
 10
71.5
 20
141.7812783411854127
 30
-0.0000000000000315
 11
71.5
 21
138.6698729810777877
 31
-0.0000000000000308
210
0.0
220
1.0
230
-0.0000000000000002
  0
LINE
  5
23E8
  8
0
  6
VERDECKT
 62
     1
 10
-71.5
 20
141.7812783411854127
 30
-0.0000000000000315
 11
-71.5
 21
138.6698729810777877
 31
-0.0000000000000308
210
0.0
220
1.0
230
-0.0000000000000002
  0
LINE
  5
23E9
  8
0
  6
VERDECKT
 62
     1
 10
-64.309371643470044
 20
125.9473901367912987
 30
-0.000000000000028
 11
-71.3660254037844339
 21
138.1698729810777877
 31
-0.0000000000000307
210
0.0
220
1.0
230
-0.0000000000000002
  0
LINE
  5
23EA
  8
0
  6
VERDECKT
 62
     1
 10
64.3093716434700582
 20
125.9473901367912987
 30
-0.000000000000028
 11
71.3660254037844339
 21
138.1698729810777877
 31
-0.0000000000000307
210
0.0
220
1.0
230
-0.0000000000000002
  0
ARC
  5
23EB
  8
0
  6
VERDECKT
 62
     1
 10
70.4999999999998579
 20
141.781278341185299
 30
0.0
 40
1.0000000000001421
210
0.0
220
-0.0000000000000002
230
-1.0
 50
0.0000000000032569
 51
10.0000000000003908
  0
ARC
  5
23EC
  8
0
  6
VERDECKT
 62
     1
 10
-70.4999999999993605
 20
141.781278341185299
 30
0.0
 40
1.0000000000006419
210
0.0
220
-0.0000000000000002
230
-1.0
 50
170.0000000000013074
 51
179.9999999999951115
  0
LINE
  5
23ED
  8
0
  6
VERDECKT
 62
     1
 10
70.4875220882004641
 20
147.6108145786645878
 30
-0.0000000000000328
 11
71.4848077530122055
 21
141.9549265188522895
 31
-0.0000000000000315
210
0.0
220
1.0
230
-0.0000000000000002
  0
LINE
  5
23EE
  8
0
  6
VERDECKT
 62
     1
 10
-70.4875220882004498
 20
147.6108145786645878
 30
-0.0000000000000328
 11
-71.4848077530122055
 21
141.9549265188522895
 31
-0.0000000000000315
210
0.0
220
1.0
230
-0.0000000000000002
  0
LINE
  5
23EF
  8
0
  6
VERDECKT
 62
     1
 10
127.0191984221737016
 20
155.4816271834476993
 30
-0.0000000000000345
 11
137.2137865069350937
 21
153.5
 31
-0.0000000000000341
210
0.0
220
1.0
230
-0.0000000000000002
  0
LINE
  5
23F0
  8
0
  6
VERDECKT
 62
     1
 10
-127.0191984221737016
 20
155.4816271834476993
 30
-0.0000000000000345
 11
-137.2137865069350937
 21
153.5
 31
-0.0000000000000341
210
0.0
220
1.0
230
-0.0000000000000002
  0
ARC
  5
23F1
  8
0
  6
VERDECKT
 62
     1
 10
126.8283894267973011
 20
154.5000000000013074
 30
0.0
 40
0.9999999999986933
210
0.0
220
-0.0000000000000002
230
-1.0
 50
78.9999999999946994
 51
90.000000000008967
  0
ARC
  5
23F2
  8
0
  6
VERDECKT
 62
     1
 10
-126.8283894267973011
 20
154.5000000000013074
 30
0.0
 40
0.9999999999986926
210
0.0
220
-0.0000000000000002
230
-1.0
 50
89.999999999991033
 51
101.0000000000053006
  0
ARC
  5
23F3
  8
0
  6
VERDECKT
 62
     1
 10
78.365984112298122
 20
149.0
 30
0.0
 40
6.5
210
0.0
220
-0.0000000000000002
230
-1.0
 50
90.0
 51
136.1869385395968095
  0
ARC
  5
23F4
  8
0
  6
VERDECKT
 62
     1
 10
-78.365984112298122
 20
149.0
 30
0.0
 40
6.4999999999999947
210
0.0
220
-0.0000000000000002
230
-1.0
 50
43.8130614604031834
 51
90.0
  0
LINE
  5
23F5
  8
0
  6
VERDECKT
 62
     1
 10
60.0
 20
123.0132836455345
 30
-0.0000000000000273
 11
60.0
 21
121.5
 31
-0.000000000000027
210
0.0
220
1.0
230
-0.0000000000000002
  0
LINE
  5
23F6
  8
0
  6
VERDECKT
 62
     1
 10
-60.0
 20
123.0132836455345
 30
-0.0000000000000273
 11
-60.0
 21
121.5
 31
-0.000000000000027
210
0.0
220
1.0
230
-0.0000000000000002
  0
ARC
  5
23F7
  8
0
  6
VERDECKT
 62
     1
 10
59.1132192207634404
 20
128.9473901367913129
 30
0.0
 40
5.9999999999999698
210
0.0
220
-0.0000000000000002
230
-1.0
 50
278.499269210822888
 51
330.0000000000002274
  0
ARC
  5
23F8
  8
0
  6
VERDECKT
 62
     1
 10
-59.1132192207634475
 20
128.9473901367913129
 30
0.0
 40
5.9999999999999671
210
0.0
220
-0.0000000000000002
230
-1.0
 50
209.9999999999996874
 51
261.5007307891772257
  0
ARC
  5
23F9
  8
0
  6
VERDECKT
 62
     1
 10
78.3659841122981078
 20
149.0
 30
0.0
 40
8.0
210
0.0
220
-0.0000000000000002
230
-1.0
 50
89.9999999999999147
 51
190.000000000000199
  0
ARC
  5
23FA
  8
0
  6
VERDECKT
 62
     1
 10
-78.3659841122981078
 20
149.0
 30
0.0
 40
7.999999999999992
210
0.0
220
-0.0000000000000002
230
-1.0
 50
350.0
 51
90.0000000000001137
  0
ENDBLK
  5
23FC
  8
0
  0
ENDSEC
  0
SECTION
  2
ENTITIES
  0
TEXT
  5
8F
  8
VOLL
 10
78.076754716981128
 20
31.025947764705851
 30
0.0
 40
1.8
  1

  7
GREEKS
  0
INSERT
  5
B3C
  8
ADSK_ASSOC_ENTITY_BACKUPS
  2
*S0
 10
0.0
 20
0.0
 30
0.0
  0
INSERT
  5
23AD
  8
STEMPEL
  2
A$CAE35E37C
 10
0.000000000000026
 20
-187.5
 30
0.0
  0
INSERT
  5
23FD
  8
STEMPEL
  2
A$C26A7429B
 10
0.0
 20
0.0
 30
0.0
  0
VIEWPORT
  5
928
 67
     1
  8
0
 10
145.5069235968099122
 20
205.7152775958718962
 30
0.0
 40
790.2674510967764263
 41
422.1483375959078899
 68
     1
 69
     1
1001
ACAD
1000
MVIEW
1002
{
1070
    16
1010
0.0
1020
0.0
1030
0.0
1010
0.0
1020
0.0
1030
1.0
1040
0.0
1040
422.1483375959078899
1040
145.5069235968099122
1040
205.7152775958718962
1040
50.0
1040
0.0
1040
0.0
1070
     0
1070
  1500
1070
     1
1070
     1
1070
     0
1070
     0
1070
     0
1070
     0
1040
0.0
1040
0.0
1040
0.0
1040
10.0
1040
10.0
1040
10.0
1040
10.0
1070
     0
1002
{
1002
}
1002
}
  0
ENDSEC
  0
EOF
