  0
SECTION
  2
HEADER
  9
$ACADVER
  1
AC1009
  9
$INSBASE
 10
0.0
 20
0.0
 30
0.0
  9
$EXTMIN
 10
-75.0000000000000142
 20
-250.0
 30
-0.0000000000000402
  9
$EXTMAX
 10
75.0000000000000426
 20
150.0
 30
0.0000000000000167
  9
$LIMMIN
 10
0.0
 20
0.0
  9
$LIMMAX
 10
419.9999999999998863
 20
594.0
  9
$ORTHOMODE
 70
     1
  9
$REGENMODE
 70
     1
  9
$FILLMODE
 70
     1
  9
$QTEXTMODE
 70
     0
  9
$MIRRTEXT
 70
     1
  9
$DRAGMODE
 70
     2
  9
$LTSCALE
 40
20.0
  9
$OSMODE
 70
   511
  9
$ATTMODE
 70
     1
  9
$TEXTSIZE
 40
3.5
  9
$TRACEWID
 40
0.5
  9
$TEXTSTYLE
  7
STANDARD
  9
$CLAYER
  8
STEMPEL
  9
$CELTYPE
  6
BYLAYER
  9
$CECOLOR
 62
   256
  9
$DIMSCALE
 40
1.0
  9
$DIMASZ
 40
3.5
  9
$DIMEXO
 40
1.0
  9
$DIMDLI
 40
0.38
  9
$DIMRND
 40
0.0
  9
$DIMDLE
 40
0.0
  9
$DIMEXE
 40
1.0
  9
$DIMTP
 40
0.0
  9
$DIMTM
 40
0.000000001
  9
$DIMTXT
 40
3.5
  9
$DIMCEN
 40
0.09
  9
$DIMTSZ
 40
0.0
  9
$DIMTOL
 70
     0
  9
$DIMLIM
 70
     0
  9
$DIMTIH
 70
     0
  9
$DIMTOH
 70
     0
  9
$DIMSE1
 70
     0
  9
$DIMSE2
 70
     0
  9
$DIMTAD
 70
     1
  9
$DIMZIN
 70
     8
  9
$DIMBLK
  1

  9
$DIMASO
 70
     1
  9
$DIMSHO
 70
     0
  9
$DIMPOST
  1

  9
$DIMAPOST
  1

  9
$DIMALT
 70
     0
  9
$DIMALTD
 70
     2
  9
$DIMALTF
 40
25.3999999999999986
  9
$DIMLFAC
 40
2.0
  9
$DIMTOFL
 70
     1
  9
$DIMTVP
 40
0.0
  9
$DIMTIX
 70
     0
  9
$DIMSOXD
 70
     0
  9
$DIMSAH
 70
     0
  9
$DIMBLK1
  1

  9
$DIMBLK2
  1

  9
$DIMSTYLE
  2
LORO
  9
$DIMCLRD
 70
     0
  9
$DIMCLRE
 70
     0
  9
$DIMCLRT
 70
     1
  9
$DIMTFAC
 40
0.5
  9
$DIMGAP
 40
1.5
  9
$LUNITS
 70
     2
  9
$LUPREC
 70
     2
  9
$SKETCHINC
 40
1.0
  9
$FILLETRAD
 40
0.0
  9
$AUNITS
 70
     0
  9
$AUPREC
 70
     0
  9
$MENU
  1
ACAD
  9
$ELEVATION
 40
0.0
  9
$PELEVATION
 40
0.0
  9
$THICKNESS
 40
0.0
  9
$LIMCHECK
 70
     0
  9
$BLIPMODE
 70
     0
  9
$CHAMFERA
 40
0.0
  9
$CHAMFERB
 40
0.0
  9
$SKPOLY
 70
     0
  9
$TDCREATE
 40
2455397.8646990740671754
  9
$TDUPDATE
 40
2459233.4224305558018386
  9
$TDINDWG
 40
0.2187768866
  9
$TDUSRTIMER
 40
0.2187768866
  9
$USRTIMER
 70
     1
  9
$ANGBASE
 50
0.0
  9
$ANGDIR
 70
     0
  9
$PDMODE
 70
     0
  9
$PDSIZE
 40
0.0
  9
$PLINEWID
 40
0.0
  9
$COORDS
 70
     1
  9
$SPLFRAME
 70
     0
  9
$SPLINETYPE
 70
     6
  9
$SPLINESEGS
 70
     8
  9
$ATTDIA
 70
     1
  9
$ATTREQ
 70
     1
  9
$HANDLING
 70
     1
  9
$HANDSEED
  5
2DCE
  9
$SURFTAB1
 70
     6
  9
$SURFTAB2
 70
     6
  9
$SURFTYPE
 70
     6
  9
$SURFU
 70
     6
  9
$SURFV
 70
     6
  9
$UCSNAME
  2

  9
$UCSORG
 10
0.0
 20
0.0
 30
0.0
  9
$UCSXDIR
 10
1.0
 20
0.0
 30
0.0
  9
$UCSYDIR
 10
0.0
 20
1.0
 30
0.0
  9
$PUCSNAME
  2

  9
$PUCSORG
 10
0.0
 20
0.0
 30
0.0
  9
$PUCSXDIR
 10
1.0
 20
0.0
 30
0.0
  9
$PUCSYDIR
 10
0.0
 20
1.0
 30
0.0
  9
$USERI1
 70
     0
  9
$USERI2
 70
     0
  9
$USERI3
 70
     0
  9
$USERI4
 70
     0
  9
$USERI5
 70
     0
  9
$USERR1
 40
0.0
  9
$USERR2
 40
0.0
  9
$USERR3
 40
0.0
  9
$USERR4
 40
0.0
  9
$USERR5
 40
0.0
  9
$WORLDVIEW
 70
     1
  9
$SHADEDGE
 70
     3
  9
$SHADEDIF
 70
    70
  9
$TILEMODE
 70
     1
  9
$MAXACTVP
 70
    16
  9
$PLIMCHECK
 70
     0
  9
$PEXTMIN
 10
1.0000000000000000E+20
 20
1.0000000000000000E+20
 30
1.0000000000000000E+20
  9
$PEXTMAX
 10
-1.0000000000000000E+20
 20
-1.0000000000000000E+20
 30
-1.0000000000000000E+20
  9
$PLIMMIN
 10
-5.7683108028140859
 20
-3.2129244469068139
  9
$PLIMMAX
 10
204.4740907288833967
 20
294.1359534193466061
  9
$UNITMODE
 70
     0
  9
$VISRETAIN
 70
     0
  9
$PLINEGEN
 70
     0
  9
$PSLTSCALE
 70
     0
  0
ENDSEC
  0
SECTION
  2
TABLES
  0
TABLE
  2
VPORT
 70
     1
  0
VPORT
  2
*ACTIVE
 70
     0
 10
0.0
 20
0.0
 11
1.0
 21
1.0
 12
0.018434001935475
 22
43.5121636567734171
 13
0.0
 23
0.0
 14
1.0
 24
1.0
 15
10.0
 25
10.0
 16
-0.0000000000002332
 26
0.0
 36
1038.1519414004299051
 17
-0.018434001935516
 27
-93.5121636567733958
 37
-0.0000000000000025
 40
402.0390824129141834
 41
1.868197278911564
 42
50.0
 43
0.0
 44
0.0
 50
0.0
 51
0.0
 71
     0
 72
  1500
 73
     1
 74
     0
 75
     0
 76
     0
 77
     0
 78
     0
  0
ENDTAB
  0
TABLE
  2
LTYPE
 70
     4
  0
LTYPE
  2
CONTINUOUS
 70
     0
  3
Solid line
 72
    65
 73
     0
 40
0.0
  0
LTYPE
  2
STRICHPUNKT
 70
     0
  3
__ . __ . __ . __ . __ . __ . __ . __ . __ . __
 72
    65
 73
     4
 40
1.0
 49
0.5
 49
-0.25
 49
0.0
 49
-0.25
  0
LTYPE
  2
RAND
 70
     0
  3
__ __ . __ __ . __ __ . __ __ . __ __ . __ __
 72
    65
 73
     6
 40
1.75
 49
0.5
 49
-0.25
 49
0.5
 49
-0.25
 49
0.0
 49
-0.25
  0
LTYPE
  2
VERDECKT
 70
     0
  3
Verdeckt __ __ __ __ __ __ __ __ __ __ __ __ __
 72
    65
 73
     2
 40
0.375
 49
0.25
 49
-0.125
  0
ENDTAB
  0
TABLE
  2
LAYER
 70
     6
  0
LAYER
  2
0
 70
     0
 62
     7
  6
CONTINUOUS
  0
LAYER
  2
VOLL
 70
     0
 62
     1
  6
CONTINUOUS
  0
LAYER
  2
STEMPEL
 70
     0
 62
     3
  6
CONTINUOUS
  0
LAYER
  2
DEFPOINTS
 70
     0
 62
   255
  6
RAND
  0
LAYER
  2
ADSK_ASSOC_ENTITY_BACKUPS
 70
     1
 62
    -7
  6
CONTINUOUS
  0
ENDTAB
  0
TABLE
  2
STYLE
 70
     3
  0
STYLE
  2
STANDARD
 70
     0
 40
0.0
 41
0.8
 50
0.0
 71
     0
 42
3.5
  3
simplex.shx
  4

  0
STYLE
  2
GREEKS
 70
     0
 40
0.0
 41
0.8
 50
0.0
 71
     0
 42
2.5
  3
SIMPLEX.shx
  4

  0
ENDTAB
  0
TABLE
  2
VIEW
 70
     0
  0
ENDTAB
  0
TABLE
  2
UCS
 70
     0
  0
ENDTAB
  0
TABLE
  2
APPID
 70
    25
  0
APPID
  2
ACAD
 70
     0
  0
APPID
  2
ACAD_NAV_VCDISPLAY
 70
     0
  0
APPID
  2
ACAD_PSEXT
 70
     0
  0
APPID
  2
ACAD_EXEMPT_FROM_CAD_STANDARDS
 70
     0
  0
APPID
  2
ACAECLAYERSTANDARD
 70
     0
  0
APPID
  2
ACCMTRANSPARENCY
 70
     0
  0
APPID
  2
ACDBDYNAMICBLOCKGUID
 70
     0
  0
APPID
  2
ACAD_STEPID
 70
     0
  0
APPID
  2
ACSYNERGY
 70
     0
  0
APPID
  2
SYNERGY_BODY_TBR_ID
 70
     0
  0
APPID
  2
ACAD_VIEW_EDGE_ID
 70
     0
  0
APPID
  2
ACSYNERGYSKETCH
 70
     0
  0
APPID
  2
ACAD_MODELDOC_XFORM
 70
     0
  0
APPID
  2
GRADIENTCOLOR1ACI
 70
     0
  0
APPID
  2
GRADIENTCOLOR2ACI
 70
     0
  0
APPID
  2
ACAD_DSTYLE_DIMJAG
 70
     0
  0
APPID
  2
ACAD_DSTYLE_DIMBREAK
 70
     0
  0
APPID
  2
ACAD_DSTYLE_DIMTALN
 70
     0
  0
APPID
  2
ACAD_DIMASSOC_CALC_DIMLFAC
 70
     0
  0
APPID
  2
ACAD_DIMASSOC_DIMLFAC
 70
     0
  0
APPID
  2
ACAD_DIMASSOC_OVERRIDDEN_D
 70
     0
  0
APPID
  2
ACAD_DSTYLE_DIMRADIAL_EXTENSION
 70
     0
  0
APPID
  2
ACADANNOPO
 70
     0
  0
APPID
  2
ACADANNOMONITORALERTICONDI
 70
     0
  0
APPID
  2
ACAD_MLEADERVER
 70
     0
  0
ENDTAB
  0
TABLE
  2
DIMSTYLE
 70
     2
  0
DIMSTYLE
  2
STANDARD
 70
     0
  3

  4

  5

  6

  7

 40
1.0
 41
0.18
 42
0.0625
 43
0.38
 44
0.18
 45
0.0
 46
0.0
 47
0.0
 48
0.0
140
0.18
141
0.09
142
0.0
143
25.3999999999999986
144
1.0
145
0.0
146
1.0
147
0.09
 71
     0
 72
     0
 73
     1
 74
     1
 75
     0
 76
     0
 77
     0
 78
     0
170
     0
171
     2
172
     0
173
     0
174
     0
175
     0
176
     0
177
     0
178
     0
  0
DIMSTYLE
  2
LORO
 70
     0
  3

  4

  5

  6

  7

 40
1.0
 41
3.5
 42
1.0
 43
0.38
 44
1.0
 45
0.0
 46
0.0
 47
0.0
 48
0.000000001
140
3.5
141
0.09
142
0.0
143
25.3999999999999986
144
2.0
145
0.0
146
0.5
147
1.5
 71
     0
 72
     0
 73
     0
 74
     0
 75
     0
 76
     0
 77
     1
 78
     8
170
     0
171
     2
172
     1
173
     0
174
     0
175
     0
176
     0
177
     0
178
     1
  0
ENDTAB
  0
ENDSEC
  0
SECTION
  2
BLOCKS
  0
BLOCK
  8
0
  2
$MODEL_SPACE
 70
     0
 10
0.0
 20
0.0
 30
0.0
  3
$MODEL_SPACE
  1

  0
ENDBLK
  5
36
  8
0
  0
BLOCK
 67
     1
  8
0
  2
$PAPER_SPACE
 70
     0
 10
0.0
 20
0.0
 30
0.0
  3
$PAPER_SPACE
  1

  0
ENDBLK
  5
34
 67
     1
  8
0
  0
BLOCK
  8
0
  2
*S0
 70
     1
 10
0.0
 20
0.0
 30
0.0
  3
*S0
  1

  0
ENDBLK
  5
169B
  8
0
  0
BLOCK
  8
0
  2
A$CD57C3055
 70
     0
 10
0.0
 20
0.0
 30
0.0
  3
A$CD57C3055
  1

  0
LINE
  5
2D13
  8
0
  6
CONTINUOUS
 62
     3
 10
-74.9999999999999858
 20
150.0
 30
-0.0000000000000333
 11
75.0000000000000142
 21
150.0
 31
-0.0000000000000333
210
0.0
220
1.0
230
-0.0000000000000002
  0
LINE
  5
2D14
  8
0
  6
CONTINUOUS
 62
     3
 10
75.0000000000000142
 20
139.0
 30
-0.0000000000000309
 11
75.0000000000000142
 21
150.0
 31
-0.0000000000000333
210
0.0
220
1.0
230
-0.0000000000000002
  0
LINE
  5
2D15
  8
0
  6
CONTINUOUS
 62
     3
 10
-74.9999999999999858
 20
139.0
 30
-0.0000000000000309
 11
-74.9999999999999858
 21
150.0
 31
-0.0000000000000333
210
0.0
220
1.0
230
-0.0000000000000002
  0
LINE
  5
2D16
  8
0
  6
CONTINUOUS
 62
     3
 10
75.0000000000000142
 20
139.0
 30
-0.0000000000000309
 11
-74.9999999999999858
 21
139.0
 31
-0.0000000000000309
210
0.0
220
1.0
230
-0.0000000000000002
  0
LINE
  5
2D17
  8
0
  6
CONTINUOUS
 62
     3
 10
-66.5000000000000142
 20
107.0
 30
-0.0000000000000238
 11
66.5000000000000142
 21
107.0
 31
-0.0000000000000238
210
0.0
220
1.0
230
-0.0000000000000002
  0
LINE
  5
2D18
  8
0
  6
CONTINUOUS
 62
     3
 10
-66.5
 20
104.0
 30
-0.0000000000000231
 11
66.5
 21
104.0
 31
-0.0000000000000231
210
0.0
220
1.0
230
-0.0000000000000002
  0
LINE
  5
2D19
  8
0
  6
CONTINUOUS
 62
     3
 10
-66.5000000000000142
 20
92.0000000000000142
 30
-0.0000000000000204
 11
66.5000000000000142
 21
92.0000000000000142
 31
-0.0000000000000204
210
0.0
220
1.0
230
-0.0000000000000002
  0
LINE
  5
2D1A
  8
0
  6
CONTINUOUS
 62
     3
 10
-66.5
 20
89.0000000000000142
 30
-0.0000000000000198
 11
66.5
 21
89.0000000000000142
 31
-0.0000000000000198
210
0.0
220
1.0
230
-0.0000000000000002
  0
LINE
  5
2D1B
  8
0
  6
CONTINUOUS
 62
     3
 10
-66.5000000000000142
 20
77.0000000000000142
 30
-0.0000000000000171
 11
66.5000000000000142
 21
77.0000000000000142
 31
-0.0000000000000171
210
0.0
220
1.0
230
-0.0000000000000002
  0
LINE
  5
2D1C
  8
0
  6
CONTINUOUS
 62
     3
 10
-66.5
 20
74.0000000000000142
 30
-0.0000000000000164
 11
66.5
 21
74.0000000000000142
 31
-0.0000000000000164
210
0.0
220
1.0
230
-0.0000000000000002
  0
LINE
  5
2D1D
  8
0
  6
CONTINUOUS
 62
     3
 10
-66.5000000000000142
 20
62.0000000000000071
 30
-0.0000000000000138
 11
66.5000000000000142
 21
62.0000000000000213
 31
-0.0000000000000138
210
0.0
220
1.0
230
-0.0000000000000002
  0
LINE
  5
2D1E
  8
0
  6
CONTINUOUS
 62
     3
 10
-66.5
 20
59.0000000000000071
 30
-0.0000000000000131
 11
66.5
 21
59.0000000000000213
 31
-0.0000000000000131
210
0.0
220
1.0
230
-0.0000000000000002
  0
LINE
  5
2D1F
  8
0
  6
CONTINUOUS
 62
     3
 10
-66.5000000000000142
 20
47.0
 30
-0.0000000000000104
 11
66.5000000000000142
 21
47.0000000000000071
 31
-0.0000000000000104
210
0.0
220
1.0
230
-0.0000000000000002
  0
LINE
  5
2D20
  8
0
  6
CONTINUOUS
 62
     3
 10
-66.5
 20
44.0
 30
-0.0000000000000098
 11
66.5
 21
44.0000000000000071
 31
-0.0000000000000098
210
0.0
220
1.0
230
-0.0000000000000002
  0
LINE
  5
2D21
  8
0
  6
CONTINUOUS
 62
     3
 10
-66.5
 20
32.0
 30
-0.0000000000000071
 11
66.5
 21
32.0
 31
-0.0000000000000071
210
0.0
220
1.0
230
-0.0000000000000002
  0
LINE
  5
2D22
  8
0
  6
CONTINUOUS
 62
     3
 10
-66.5
 20
29.0
 30
-0.0000000000000064
 11
66.5
 21
29.0000000000000213
 31
-0.0000000000000064
210
0.0
220
1.0
230
-0.0000000000000002
  0
LINE
  5
2D23
  8
0
  6
CONTINUOUS
 62
     3
 10
-66.5
 20
16.9999999999999893
 30
-0.0000000000000038
 11
66.5
 21
17.0
 31
-0.0000000000000038
210
0.0
220
1.0
230
-0.0000000000000002
  0
LINE
  5
2D24
  8
0
  6
CONTINUOUS
 62
     3
 10
-66.5
 20
14.0
 30
-0.0000000000000031
 11
66.5
 21
14.0000000000000107
 31
-0.0000000000000031
210
0.0
220
1.0
230
-0.0000000000000002
  0
LINE
  5
2D25
  8
0
  6
CONTINUOUS
 62
     3
 10
-66.5
 20
-0.0000000000000042
 30
0.0
 11
66.5
 21
0.0000000000000042
 31
0.0
210
0.0
220
1.0
230
-0.0000000000000002
  0
LINE
  5
2D26
  8
0
  6
CONTINUOUS
 62
     3
 10
-66.5000000000000284
 20
122.0
 30
-0.0000000000000271
 11
66.5
 21
122.0
 31
-0.0000000000000271
210
0.0
220
1.0
230
-0.0000000000000002
  0
LINE
  5
2D27
  8
0
  6
CONTINUOUS
 62
     3
 10
-66.5000000000000142
 20
119.0
 30
-0.0000000000000264
 11
66.4999999999999858
 21
119.0
 31
-0.0000000000000264
210
0.0
220
1.0
230
-0.0000000000000002
  0
LINE
  5
2D28
  8
0
  6
CONTINUOUS
 62
     3
 10
66.0000000000000142
 20
107.0
 30
-0.0000000000000238
 11
66.0000000000000142
 21
104.0
 31
-0.0000000000000231
210
0.0
220
1.0
230
-0.0000000000000002
  0
LINE
  5
2D29
  8
0
  6
CONTINUOUS
 62
     3
 10
-66.0000000000000142
 20
107.0
 30
-0.0000000000000238
 11
-66.0000000000000142
 21
104.0
 31
-0.0000000000000231
210
0.0
220
1.0
230
-0.0000000000000002
  0
LINE
  5
2D2A
  8
0
  6
CONTINUOUS
 62
     3
 10
66.5000000000000142
 20
104.0
 30
-0.0000000000000231
 11
66.5000000000000142
 21
92.0000000000000142
 31
-0.0000000000000204
210
0.0
220
1.0
230
-0.0000000000000002
  0
LINE
  5
2D2B
  8
0
  6
CONTINUOUS
 62
     3
 10
-66.5000000000000142
 20
104.0
 30
-0.0000000000000231
 11
-66.5000000000000142
 21
92.0000000000000142
 31
-0.0000000000000204
210
0.0
220
1.0
230
-0.0000000000000002
  0
LINE
  5
2D2C
  8
0
  6
CONTINUOUS
 62
     3
 10
66.0000000000000142
 20
92.0000000000000142
 30
-0.0000000000000204
 11
66.0000000000000142
 21
89.0000000000000142
 31
-0.0000000000000198
210
0.0
220
1.0
230
-0.0000000000000002
  0
LINE
  5
2D2D
  8
0
  6
CONTINUOUS
 62
     3
 10
-66.0000000000000142
 20
92.0000000000000142
 30
-0.0000000000000204
 11
-66.0000000000000142
 21
89.0000000000000142
 31
-0.0000000000000198
210
0.0
220
1.0
230
-0.0000000000000002
  0
LINE
  5
2D2E
  8
0
  6
CONTINUOUS
 62
     3
 10
66.5000000000000142
 20
89.0000000000000142
 30
-0.0000000000000198
 11
66.5000000000000142
 21
77.0000000000000142
 31
-0.0000000000000171
210
0.0
220
1.0
230
-0.0000000000000002
  0
LINE
  5
2D2F
  8
0
  6
CONTINUOUS
 62
     3
 10
-66.5000000000000142
 20
89.0000000000000142
 30
-0.0000000000000198
 11
-66.5000000000000142
 21
77.0000000000000142
 31
-0.0000000000000171
210
0.0
220
1.0
230
-0.0000000000000002
  0
LINE
  5
2D30
  8
0
  6
CONTINUOUS
 62
     3
 10
66.0000000000000142
 20
77.0000000000000142
 30
-0.0000000000000171
 11
66.0000000000000142
 21
74.0000000000000142
 31
-0.0000000000000164
210
0.0
220
1.0
230
-0.0000000000000002
  0
LINE
  5
2D31
  8
0
  6
CONTINUOUS
 62
     3
 10
-66.0000000000000142
 20
77.0000000000000142
 30
-0.0000000000000171
 11
-66.0000000000000142
 21
74.0000000000000142
 31
-0.0000000000000164
210
0.0
220
1.0
230
-0.0000000000000002
  0
LINE
  5
2D32
  8
0
  6
CONTINUOUS
 62
     3
 10
66.5
 20
74.0000000000000142
 30
-0.0000000000000164
 11
66.5
 21
62.0000000000000071
 31
-0.0000000000000138
210
0.0
220
1.0
230
-0.0000000000000002
  0
LINE
  5
2D33
  8
0
  6
CONTINUOUS
 62
     3
 10
-66.5
 20
74.0000000000000142
 30
-0.0000000000000164
 11
-66.5
 21
62.0000000000000071
 31
-0.0000000000000138
210
0.0
220
1.0
230
-0.0000000000000002
  0
LINE
  5
2D34
  8
0
  6
CONTINUOUS
 62
     3
 10
66.0
 20
62.0000000000000071
 30
-0.0000000000000138
 11
66.0
 21
59.0000000000000213
 31
-0.0000000000000131
210
0.0
220
1.0
230
-0.0000000000000002
  0
LINE
  5
2D35
  8
0
  6
CONTINUOUS
 62
     3
 10
-66.0
 20
62.0000000000000071
 30
-0.0000000000000138
 11
-66.0
 21
59.0000000000000071
 31
-0.0000000000000131
210
0.0
220
1.0
230
-0.0000000000000002
  0
LINE
  5
2D36
  8
0
  6
CONTINUOUS
 62
     3
 10
66.5
 20
59.0000000000000213
 30
-0.0000000000000131
 11
66.5
 21
47.0000000000000071
 31
-0.0000000000000104
210
0.0
220
1.0
230
-0.0000000000000002
  0
LINE
  5
2D37
  8
0
  6
CONTINUOUS
 62
     3
 10
-66.5
 20
59.0000000000000071
 30
-0.0000000000000131
 11
-66.5
 21
47.0
 31
-0.0000000000000104
210
0.0
220
1.0
230
-0.0000000000000002
  0
LINE
  5
2D38
  8
0
  6
CONTINUOUS
 62
     3
 10
66.0
 20
47.0000000000000071
 30
-0.0000000000000104
 11
66.0
 21
44.0000000000000071
 31
-0.0000000000000098
210
0.0
220
1.0
230
-0.0000000000000002
  0
LINE
  5
2D39
  8
0
  6
CONTINUOUS
 62
     3
 10
-66.0
 20
47.0
 30
-0.0000000000000104
 11
-66.0
 21
44.0
 31
-0.0000000000000098
210
0.0
220
1.0
230
-0.0000000000000002
  0
LINE
  5
2D3A
  8
0
  6
CONTINUOUS
 62
     3
 10
66.5
 20
44.0000000000000071
 30
-0.0000000000000098
 11
66.5
 21
32.0000000000000071
 31
-0.0000000000000071
210
0.0
220
1.0
230
-0.0000000000000002
  0
LINE
  5
2D3B
  8
0
  6
CONTINUOUS
 62
     3
 10
-66.5
 20
44.0
 30
-0.0000000000000098
 11
-66.5
 21
32.0
 31
-0.0000000000000071
210
0.0
220
1.0
230
-0.0000000000000002
  0
LINE
  5
2D3C
  8
0
  6
CONTINUOUS
 62
     3
 10
66.0
 20
32.0000000000000071
 30
-0.0000000000000071
 11
66.0
 21
29.0000000000000107
 31
-0.0000000000000064
210
0.0
220
1.0
230
-0.0000000000000002
  0
LINE
  5
2D3D
  8
0
  6
CONTINUOUS
 62
     3
 10
-66.0
 20
32.0
 30
-0.0000000000000071
 11
-66.0
 21
29.0000000000000107
 31
-0.0000000000000064
210
0.0
220
1.0
230
-0.0000000000000002
  0
LINE
  5
2D3E
  8
0
  6
CONTINUOUS
 62
     3
 10
66.5
 20
29.0000000000000107
 30
-0.0000000000000064
 11
66.5
 21
17.0
 31
-0.0000000000000038
210
0.0
220
1.0
230
-0.0000000000000002
  0
LINE
  5
2D3F
  8
0
  6
CONTINUOUS
 62
     3
 10
-66.5
 20
29.0000000000000107
 30
-0.0000000000000064
 11
-66.5
 21
16.9999999999999893
 31
-0.0000000000000038
210
0.0
220
1.0
230
-0.0000000000000002
  0
LINE
  5
2D40
  8
0
  6
CONTINUOUS
 62
     3
 10
66.0
 20
17.0
 30
-0.0000000000000038
 11
66.0
 21
14.0
 31
-0.0000000000000031
210
0.0
220
1.0
230
-0.0000000000000002
  0
LINE
  5
2D41
  8
0
  6
CONTINUOUS
 62
     3
 10
-66.0
 20
16.9999999999999893
 30
-0.0000000000000038
 11
-66.0
 21
14.0
 31
-0.0000000000000031
210
0.0
220
1.0
230
-0.0000000000000002
  0
LINE
  5
2D42
  8
0
  6
CONTINUOUS
 62
     3
 10
66.5
 20
14.0
 30
-0.0000000000000031
 11
66.5
 21
0.0
 31
0.0
210
0.0
220
1.0
230
-0.0000000000000002
  0
LINE
  5
2D43
  8
0
  6
CONTINUOUS
 62
     3
 10
-66.5
 20
14.0
 30
-0.0000000000000031
 11
-66.5
 21
-0.0000000000000036
 31
0.0
210
0.0
220
1.0
230
-0.0000000000000002
  0
LINE
  5
2D44
  8
0
  6
CONTINUOUS
 62
     3
 10
66.5
 20
139.0
 30
-0.0000000000000309
 11
66.5
 21
122.0
 31
-0.0000000000000271
210
0.0
220
1.0
230
-0.0000000000000002
  0
LINE
  5
2D45
  8
0
  6
CONTINUOUS
 62
     3
 10
-66.5000000000000284
 20
139.0
 30
-0.0000000000000309
 11
-66.5000000000000284
 21
122.0
 31
-0.0000000000000271
210
0.0
220
1.0
230
-0.0000000000000002
  0
LINE
  5
2D46
  8
0
  6
CONTINUOUS
 62
     3
 10
66.0
 20
122.0
 30
-0.0000000000000271
 11
66.0
 21
119.0
 31
-0.0000000000000264
210
0.0
220
1.0
230
-0.0000000000000002
  0
LINE
  5
2D47
  8
0
  6
CONTINUOUS
 62
     3
 10
-66.0000000000000284
 20
122.0
 30
-0.0000000000000271
 11
-66.0000000000000284
 21
119.0
 31
-0.0000000000000264
210
0.0
220
1.0
230
-0.0000000000000002
  0
LINE
  5
2D48
  8
0
  6
CONTINUOUS
 62
     3
 10
66.5000000000000142
 20
119.0
 30
-0.0000000000000264
 11
66.5000000000000142
 21
107.0
 31
-0.0000000000000238
210
0.0
220
1.0
230
-0.0000000000000002
  0
LINE
  5
2D49
  8
0
  6
CONTINUOUS
 62
     3
 10
-66.5000000000000142
 20
119.0
 30
-0.0000000000000264
 11
-66.5000000000000142
 21
107.0
 31
-0.0000000000000238
210
0.0
220
1.0
230
-0.0000000000000002
  0
LINE
  5
2D4A
  8
0
  6
VERDECKT
 62
     1
 10
72.0000000000000142
 20
142.0
 30
-0.0000000000000315
 11
72.0000000000000142
 21
150.0
 31
-0.0000000000000333
210
0.0
220
1.0
230
-0.0000000000000002
  0
LINE
  5
2D4B
  8
0
  6
VERDECKT
 62
     1
 10
-72.0000000000000142
 20
142.0
 30
-0.0000000000000315
 11
72.0000000000000142
 21
142.0
 31
-0.0000000000000315
210
0.0
220
1.0
230
-0.0000000000000002
  0
LINE
  5
2D4C
  8
0
  6
VERDECKT
 62
     1
 10
-72.0000000000000142
 20
150.0
 30
-0.0000000000000333
 11
-72.0000000000000142
 21
142.0
 31
-0.0000000000000315
210
0.0
220
1.0
230
-0.0000000000000002
  0
LINE
  5
2D4D
  8
0
  6
VERDECKT
 62
     1
 10
-55.313338674880967
 20
140.0
 30
-0.0000000000000311
 11
-51.8133386748809599
 21
140.0
 31
-0.0000000000000311
210
0.0
220
1.0
230
-0.0000000000000002
  0
LINE
  5
2D4E
  8
0
  6
VERDECKT
 62
     1
 10
51.8133386748810025
 20
140.0
 30
-0.0000000000000311
 11
55.3133386748810025
 21
140.0
 31
-0.0000000000000311
210
0.0
220
1.0
230
-0.0000000000000002
  0
LINE
  5
2D4F
  8
0
  6
VERDECKT
 62
     1
 10
57.5633386748810025
 20
146.0
 30
-0.0000000000000324
 11
49.5633386748810025
 21
146.0
 31
-0.0000000000000324
210
0.0
220
1.0
230
-0.0000000000000002
  0
LINE
  5
2D50
  8
0
  6
VERDECKT
 62
     1
 10
-49.5633386748809599
 20
146.0
 30
-0.0000000000000324
 11
-57.5633386748809599
 21
146.0
 31
-0.0000000000000324
210
0.0
220
1.0
230
-0.0000000000000002
  0
LINE
  5
2D51
  8
0
  6
VERDECKT
 62
     1
 10
-51.8133386748809599
 20
146.0
 30
-0.0000000000000324
 11
-51.8133386748809599
 21
140.0
 31
-0.0000000000000311
210
0.0
220
1.0
230
-0.0000000000000002
  0
LINE
  5
2D52
  8
0
  6
VERDECKT
 62
     1
 10
-55.313338674880967
 20
146.0
 30
-0.0000000000000324
 11
-55.313338674880967
 21
140.0
 31
-0.0000000000000311
210
0.0
220
1.0
230
-0.0000000000000002
  0
LINE
  5
2D53
  8
0
  6
VERDECKT
 62
     1
 10
55.3133386748810025
 20
146.0
 30
-0.0000000000000324
 11
55.3133386748810025
 21
140.0
 31
-0.0000000000000311
210
0.0
220
1.0
230
-0.0000000000000002
  0
LINE
  5
2D54
  8
0
  6
VERDECKT
 62
     1
 10
51.8133386748810025
 20
146.0
 30
-0.0000000000000324
 11
51.8133386748810025
 21
140.0
 31
-0.0000000000000311
210
0.0
220
1.0
230
-0.0000000000000002
  0
LINE
  5
2D55
  8
0
  6
VERDECKT
 62
     1
 10
49.5633386748810025
 20
142.0
 30
-0.0000000000000315
 11
49.5633386748810025
 21
146.0
 31
-0.0000000000000324
210
0.0
220
1.0
230
-0.0000000000000002
  0
LINE
  5
2D56
  8
0
  6
VERDECKT
 62
     1
 10
57.5633386748810025
 20
142.0
 30
-0.0000000000000315
 11
57.5633386748810025
 21
146.0
 31
-0.0000000000000324
210
0.0
220
1.0
230
-0.0000000000000002
  0
LINE
  5
2D57
  8
0
  6
VERDECKT
 62
     1
 10
-57.5633386748809599
 20
142.0
 30
-0.0000000000000315
 11
-57.5633386748809599
 21
146.0
 31
-0.0000000000000324
210
0.0
220
1.0
230
-0.0000000000000002
  0
LINE
  5
2D58
  8
0
  6
VERDECKT
 62
     1
 10
-49.5633386748809599
 20
142.0
 30
-0.0000000000000315
 11
-49.5633386748809599
 21
146.0
 31
-0.0000000000000324
210
0.0
220
1.0
230
-0.0000000000000002
  0
LINE
  5
2D59
  8
0
  6
VERDECKT
 62
     1
 10
62.0213807801930486
 20
142.0
 30
-0.0000000000000315
 11
64.4999999999999858
 21
0.0
 31
0.0
210
0.0
220
1.0
230
-0.0000000000000002
  0
LINE
  5
2D5A
  8
0
  6
VERDECKT
 62
     1
 10
-62.021380780193077
 20
142.0
 30
-0.0000000000000315
 11
-64.5
 21
0.0
 31
0.0
210
0.0
220
1.0
230
-0.0000000000000002
  0
ENDBLK
  5
2D5C
  8
0
  0
BLOCK
  8
0
  2
A$C9D79AD76
 70
     0
 10
0.0
 20
0.0
 30
0.0
  3
A$C9D79AD76
  1

  0
LINE
  5
2D60
  8
0
  6
CONTINUOUS
 62
     3
 10
72.0000000000000568
 20
-71.9999999999999858
 30
0.0000000000000284
 11
-72.0
 21
-71.9999999999999858
 31
-0.0000000000000036
  0
LINE
  5
2D61
  8
0
  6
CONTINUOUS
 62
     3
 10
72.0000000000000568
 20
72.0000000000000426
 30
0.0000000000000284
 11
72.0000000000000568
 21
-71.9999999999999858
 31
0.0000000000000284
  0
LINE
  5
2D62
  8
0
  6
CONTINUOUS
 62
     3
 10
-72.0
 20
-71.9999999999999858
 30
-0.0000000000000284
 11
-72.0
 21
72.0000000000000426
 31
-0.0000000000000284
  0
LINE
  5
2D63
  8
0
  6
CONTINUOUS
 62
     3
 10
-72.0
 20
72.0000000000000426
 30
-0.0000000000000284
 11
72.0000000000000142
 21
72.0000000000000426
 31
0.0000000000000036
  0
LINE
  5
2D64
  8
0
  6
CONTINUOUS
 62
     3
 10
75.0000000000000142
 20
75.0000000000000284
 30
0.0000000000000284
 11
-75.0000000000000142
 21
75.0
 31
-0.0000000000000049
  0
LINE
  5
2D65
  8
0
  6
CONTINUOUS
 62
     3
 10
-75.0
 20
75.0
 30
-0.0000000000000284
 11
-74.9999999999999574
 21
-74.9999999999999716
 31
-0.0000000000000284
  0
LINE
  5
2D66
  8
0
  6
CONTINUOUS
 62
     3
 10
-74.9999999999999574
 20
-74.9999999999999858
 30
-0.0000000000000284
 11
75.0000000000000426
 21
-74.9999999999999858
 31
0.0000000000000049
  0
LINE
  5
2D67
  8
0
  6
CONTINUOUS
 62
     3
 10
75.0000000000000426
 20
-74.9999999999999858
 30
0.0000000000000284
 11
75.0000000000000142
 21
75.0000000000000142
 31
0.0000000000000284
  0
CIRCLE
  5
2D68
  8
0
  6
CONTINUOUS
 62
     3
 10
0.0000000000000226
 20
0.0000000000000087
 30
0.0
 40
62.0213807801930699
  0
CIRCLE
  5
2D69
  8
0
  6
CONTINUOUS
 62
     3
 10
-53.5633386748809599
 20
53.5633386748809599
 30
0.0
 40
1.75
  0
CIRCLE
  5
2D6A
  8
0
  6
CONTINUOUS
 62
     3
 10
53.5633386748809599
 20
53.5633386748810167
 30
0.0
 40
1.75
  0
CIRCLE
  5
2D6B
  8
0
  6
CONTINUOUS
 62
     3
 10
-53.5633386748809315
 20
-53.5633386748810025
 30
0.0
 40
1.75
  0
CIRCLE
  5
2D6C
  8
0
  6
CONTINUOUS
 62
     3
 10
53.563338674881031
 20
-53.5633386748809315
 30
0.0
 40
1.75
  0
CIRCLE
  5
2D6D
  8
0
  6
CONTINUOUS
 62
     3
 10
53.563338674881031
 20
-53.5633386748809315
 30
0.0
 40
3.999999999999996
  0
CIRCLE
  5
2D6E
  8
0
  6
CONTINUOUS
 62
     3
 10
-53.5633386748809315
 20
-53.5633386748810025
 30
0.0
 40
3.999999999999996
  0
CIRCLE
  5
2D6F
  8
0
  6
CONTINUOUS
 62
     3
 10
53.5633386748809599
 20
53.5633386748810167
 30
0.0
 40
3.999999999999996
  0
CIRCLE
  5
2D70
  8
0
  6
CONTINUOUS
 62
     3
 10
-53.563338674880967
 20
53.5633386748809599
 30
0.0
 40
3.999999999999996
  0
CIRCLE
  5
2D71
  8
0
  6
VERDECKT
 62
     1
 10
0.0
 20
0.0
 30
0.0
 40
64.5
  0
CIRCLE
  5
2D72
  8
0
  6
VERDECKT
 62
     1
 10
0.0000000000000222
 20
0.0000000000000085
 30
0.0
 40
66.5000000000000142
  0
CIRCLE
  5
2D73
  8
0
  6
VERDECKT
 62
     1
 10
0.0000000000000195
 20
0.0000000000000075
 30
0.0
 40
66.0000000000000142
  0
ENDBLK
  5
2D75
  8
0
  0
ENDSEC
  0
SECTION
  2
ENTITIES
  0
TEXT
  5
8F
  8
VOLL
 10
78.076754716981128
 20
31.025947764705851
 30
0.0
 40
1.8
  1

  7
GREEKS
  0
INSERT
  5
169D
  8
ADSK_ASSOC_ENTITY_BACKUPS
  2
*S0
 10
0.0
 20
0.0
 30
0.0
  0
INSERT
  5
2D5D
  8
STEMPEL
  2
A$CD57C3055
 10
0.0
 20
0.0
 30
0.0
  0
INSERT
  5
2D76
  8
STEMPEL
  2
A$C9D79AD76
 10
0.0000000000000047
 20
-175.0
 30
-0.0000000000000118
  0
VIEWPORT
  5
11E9
 67
     1
  8
0
 10
99.3528899630346132
 20
145.4615144862198974
 30
0.0
 40
558.3381726625136707
 41
298.8646750346454724
 68
     1
 69
     1
1001
ACAD
1000
MVIEW
1002
{
1070
    16
1010
0.0
1020
0.0
1030
0.0
1010
0.0
1020
0.0
1030
1.0
1040
0.0
1040
298.8646750346454724
1040
99.3528899630346132
1040
145.4615144862198974
1040
50.0
1040
0.0
1040
0.0
1070
     0
1070
  1500
1070
     1
1070
     1
1070
     0
1070
     0
1070
     0
1070
     0
1040
0.0
1040
0.0
1040
0.0
1040
10.0
1040
10.0
1040
10.0
1040
10.0
1070
     0
1002
{
1002
}
1002
}
  0
ENDSEC
  0
EOF
