  0
SECTION
  2
HEADER
  9
$ACADVER
  1
AC1009
  9
$INSBASE
 10
0.0
 20
0.0
 30
0.0
  9
$EXTMIN
 10
-250.0000011837350939
 20
-550.000000818857643
 30
-0.0000000116415251
  9
$EXTMAX
 10
249.9999996298915903
 20
158.6713336040033937
 30
-0.0000000116415251
  9
$LIMMIN
 10
0.0
 20
0.0
  9
$LIMMAX
 10
594.0
 20
840.0
  9
$ORTHOMODE
 70
     1
  9
$REGENMODE
 70
     1
  9
$FILLMODE
 70
     1
  9
$QTEXTMODE
 70
     0
  9
$MIRRTEXT
 70
     1
  9
$DRAGMODE
 70
     2
  9
$LTSCALE
 40
10.0
  9
$OSMODE
 70
   511
  9
$ATTMODE
 70
     1
  9
$TEXTSIZE
 40
3.5
  9
$TRACEWID
 40
1.0
  9
$TEXTSTYLE
  7
STANDARD
  9
$CLAYER
  8
STEMPEL
  9
$CELTYPE
  6
BYLAYER
  9
$CECOLOR
 62
   256
  9
$DIMSCALE
 40
1.0
  9
$DIMASZ
 40
3.5
  9
$DIMEXO
 40
1.0
  9
$DIMDLI
 40
0.38
  9
$DIMRND
 40
0.0
  9
$DIMDLE
 40
0.0
  9
$DIMEXE
 40
1.0
  9
$DIMTP
 40
0.0
  9
$DIMTM
 40
0.000000001
  9
$DIMTXT
 40
3.5
  9
$DIMCEN
 40
0.09
  9
$DIMTSZ
 40
0.0
  9
$DIMTOL
 70
     0
  9
$DIMLIM
 70
     0
  9
$DIMTIH
 70
     0
  9
$DIMTOH
 70
     0
  9
$DIMSE1
 70
     0
  9
$DIMSE2
 70
     0
  9
$DIMTAD
 70
     1
  9
$DIMZIN
 70
     8
  9
$DIMBLK
  1

  9
$DIMASO
 70
     1
  9
$DIMSHO
 70
     0
  9
$DIMPOST
  1

  9
$DIMAPOST
  1

  9
$DIMALT
 70
     0
  9
$DIMALTD
 70
     2
  9
$DIMALTF
 40
25.3999999999999986
  9
$DIMLFAC
 40
2.0
  9
$DIMTOFL
 70
     1
  9
$DIMTVP
 40
0.0
  9
$DIMTIX
 70
     0
  9
$DIMSOXD
 70
     0
  9
$DIMSAH
 70
     0
  9
$DIMBLK1
  1

  9
$DIMBLK2
  1

  9
$DIMSTYLE
  2
LORO
  9
$DIMCLRD
 70
     0
  9
$DIMCLRE
 70
     0
  9
$DIMCLRT
 70
     1
  9
$DIMTFAC
 40
0.5
  9
$DIMGAP
 40
1.5
  9
$LUNITS
 70
     2
  9
$LUPREC
 70
     2
  9
$SKETCHINC
 40
1.0
  9
$FILLETRAD
 40
0.5
  9
$AUNITS
 70
     0
  9
$AUPREC
 70
     0
  9
$MENU
  1
ACAD
  9
$ELEVATION
 40
0.0
  9
$PELEVATION
 40
0.0
  9
$THICKNESS
 40
0.0
  9
$LIMCHECK
 70
     0
  9
$BLIPMODE
 70
     0
  9
$CHAMFERA
 40
0.0
  9
$CHAMFERB
 40
0.0
  9
$SKPOLY
 70
     0
  9
$TDCREATE
 40
2455397.867048610933125
  9
$TDUPDATE
 40
2460662.442708333954215
  9
$TDINDWG
 40
1.8320664582999999
  9
$TDUSRTIMER
 40
1.8320664582999999
  9
$USRTIMER
 70
     1
  9
$ANGBASE
 50
0.0
  9
$ANGDIR
 70
     0
  9
$PDMODE
 70
     0
  9
$PDSIZE
 40
0.0
  9
$PLINEWID
 40
0.0
  9
$COORDS
 70
     1
  9
$SPLFRAME
 70
     0
  9
$SPLINETYPE
 70
     6
  9
$SPLINESEGS
 70
     8
  9
$ATTDIA
 70
     1
  9
$ATTREQ
 70
     1
  9
$HANDLING
 70
     1
  9
$HANDSEED
  5
14A6E
  9
$SURFTAB1
 70
     6
  9
$SURFTAB2
 70
     6
  9
$SURFTYPE
 70
     6
  9
$SURFU
 70
     6
  9
$SURFV
 70
     6
  9
$UCSNAME
  2

  9
$UCSORG
 10
0.0
 20
0.0
 30
0.0
  9
$UCSXDIR
 10
1.0
 20
0.0
 30
0.0
  9
$UCSYDIR
 10
0.0
 20
1.0
 30
0.0
  9
$PUCSNAME
  2

  9
$PUCSORG
 10
0.0
 20
0.0
 30
0.0
  9
$PUCSXDIR
 10
1.0
 20
0.0
 30
0.0
  9
$PUCSYDIR
 10
0.0
 20
1.0
 30
0.0
  9
$USERI1
 70
     0
  9
$USERI2
 70
     0
  9
$USERI3
 70
     0
  9
$USERI4
 70
     0
  9
$USERI5
 70
     0
  9
$USERR1
 40
0.0
  9
$USERR2
 40
0.0
  9
$USERR3
 40
0.0
  9
$USERR4
 40
0.0
  9
$USERR5
 40
0.0
  9
$WORLDVIEW
 70
     1
  9
$SHADEDGE
 70
     3
  9
$SHADEDIF
 70
    70
  9
$TILEMODE
 70
     1
  9
$MAXACTVP
 70
    16
  9
$PLIMCHECK
 70
     0
  9
$PEXTMIN
 10
-0.0000000000001137
 20
-0.0000000000001188
 30
-0.0000000000004547
  9
$PEXTMAX
 10
419.5
 20
593.5000000000001137
 30
0.0000000000004547
  9
$PLIMMIN
 10
-0.2499978649088916
 20
-0.2499987629715861
  9
$PLIMMAX
 10
419.7500021350911084
 20
593.7500012370284139
  9
$UNITMODE
 70
     0
  9
$VISRETAIN
 70
     0
  9
$PLINEGEN
 70
     0
  9
$PSLTSCALE
 70
     0
  0
ENDSEC
  0
SECTION
  2
TABLES
  0
TABLE
  2
VPORT
 70
     1
  0
VPORT
  2
*ACTIVE
 70
     0
 10
0.0
 20
0.0
 11
1.0
 21
1.0
 12
-0.0000007769217518
 22
-196.4143336074270962
 13
0.0
 23
0.0
 14
1.0
 24
1.0
 15
10.0
 25
10.0
 16
-0.0000000000004071
 26
0.0
 36
1833.2958620872909705
 17
0.0
 27
0.75
 37
0.0
 40
712.3242794456593856
 41
1.8847807394668961
 42
50.0
 43
0.0
 44
0.0
 50
0.0
 51
0.0
 71
     0
 72
  1500
 73
     1
 74
     0
 75
     0
 76
     0
 77
     0
 78
     0
  0
ENDTAB
  0
TABLE
  2
LTYPE
 70
     3
  0
LTYPE
  2
CONTINUOUS
 70
     0
  3
Solid line
 72
    65
 73
     0
 40
0.0
  0
LTYPE
  2
STRICHPUNKT
 70
     0
  3
__ . __ . __ . __ . __ . __ . __ . __ . __ . __
 72
    65
 73
     4
 40
1.0
 49
0.5
 49
-0.25
 49
0.0
 49
-0.25
  0
LTYPE
  2
VERDECKT
 70
     0
  3
Verdeckt __ __ __ __ __ __ __ __ __ __ __ __ __
 72
    65
 73
     2
 40
0.375
 49
0.25
 49
-0.125
  0
ENDTAB
  0
TABLE
  2
LAYER
 70
     7
  0
LAYER
  2
0
 70
     0
 62
     7
  6
CONTINUOUS
  0
LAYER
  2
STEMPEL
 70
     0
 62
     3
  6
CONTINUOUS
  0
LAYER
  2
ADSK_ASSOC_ENTITY_BACKUPS
 70
     1
 62
    -7
  6
CONTINUOUS
  0
ENDTAB
  0
TABLE
  2
STYLE
 70
     2
  0
STYLE
  2
STANDARD
 70
     0
 40
0.0
 41
0.8
 50
0.0
 71
     0
 42
3.5
  3
simplex.shx
  4

  0
ENDTAB
  0
TABLE
  2
VIEW
 70
     0
  0
ENDTAB
  0
TABLE
  2
UCS
 70
     0
  0
ENDTAB
  0
TABLE
  2
APPID
 70
    30
  0
APPID
  2
ACAD
 70
     0
  0
APPID
  2
ACAECLAYERSTANDARD
 70
     0
  0
APPID
  2
ACCMTRANSPARENCY
 70
     0
  0
APPID
  2
ACAD_NAV_VCDISPLAY
 70
     0
  0
APPID
  2
ACAD_PSEXT
 70
     0
  0
APPID
  2
ACAD_STEPID
 70
     0
  0
APPID
  2
ACAD_EXEMPT_FROM_CAD_STANDARDS
 70
     0
  0
APPID
  2
ACSYNERGY
 70
     0
  0
APPID
  2
SYNERGY_BODY_TBR_ID
 70
     0
  0
APPID
  2
ACAD_VIEW_EDGE_ID
 70
     0
  0
APPID
  2
GRADIENTCOLOR1ACI
 70
     0
  0
APPID
  2
GRADIENTCOLOR2ACI
 70
     0
  0
APPID
  2
ACAD_DSTYLE_DIMRADIAL_EXTENSION
 70
     0
  0
APPID
  2
ACADANNOMONITORALERTICONDI
 70
     0
  0
APPID
  2
ACAD_MLEADERVER
 70
     0
  0
APPID
  2
ACSYNERGYSKETCH
 70
     0
  0
APPID
  2
ACAD_MODELDOC_XFORM
 70
     0
  0
APPID
  2
ACDBDYNAMICBLOCKGUID
 70
     0
  0
APPID
  2
ACAD_DSTYLE_DIMJAG
 70
     0
  0
APPID
  2
ACAD_DSTYLE_DIMBREAK
 70
     0
  0
APPID
  2
ACAD_DSTYLE_DIMTALN
 70
     0
  0
APPID
  2
ACADANNOPO
 70
     0
  0
APPID
  2
PLOTTRANSPARENCY
 70
     0
  0
APPID
  2
ACADANNOTATIVE
 70
     0
  0
APPID
  2
ACAD_DIMASSOC_CALC_DIMLFAC
 70
     0
  0
APPID
  2
ACAD_DIMASSOC_DIMLFAC
 70
     0
  0
APPID
  2
ACAD_DIMASSOC_OVERRIDDEN_D
 70
     0
  0
APPID
  2
ACADANNOAV
 70
     0
  0
APPID
  2
ACAUTHENVIRON
 70
     0
  0
APPID
  2
ACDBDYNAMICBLOCKTRUENAME
 70
     0
  0
ENDTAB
  0
TABLE
  2
DIMSTYLE
 70
     1
  0
DIMSTYLE
  2
LORO
 70
     0
  3

  4

  5

  6

  7

 40
1.0
 41
3.5
 42
1.0
 43
0.38
 44
1.0
 45
0.0
 46
0.0
 47
0.0
 48
0.000000001
140
3.5
141
0.09
142
0.0
143
25.3999999999999986
144
2.0
145
0.0
146
0.5
147
1.5
 71
     0
 72
     0
 73
     0
 74
     0
 75
     0
 76
     0
 77
     1
 78
     8
170
     0
171
     2
172
     1
173
     0
174
     0
175
     0
176
     0
177
     0
178
     1
  0
ENDTAB
  0
ENDSEC
  0
SECTION
  2
BLOCKS
  0
BLOCK
  8
0
  2
$MODEL_SPACE
 70
     0
 10
0.0
 20
0.0
 30
0.0
  3
$MODEL_SPACE
  1

  0
ENDBLK
  5
38
  8
0
  0
BLOCK
 67
     1
  8
0
  2
$PAPER_SPACE
 70
     0
 10
0.0
 20
0.0
 30
0.0
  3
$PAPER_SPACE
  1

  0
ENDBLK
  5
36
 67
     1
  8
0
  0
BLOCK
  8
0
  2
*S0
 70
     1
 10
0.0
 20
0.0
 30
0.0
  3
*S0
  1

  0
ENDBLK
  5
7128
  8
0
  0
BLOCK
  8
0
  2
A$C568FF376
 70
     0
 10
0.0
 20
0.0
 30
0.0
  3
A$C568FF376
  1

  0
CIRCLE
  5
148A1
  8
0
  6
CONTINUOUS
 62
     3
 10
0.0000000000005038
 20
-0.0000000000000327
 30
0.0
 40
48.0000000000004619
  0
CIRCLE
  5
148A2
  8
0
  6
CONTINUOUS
 62
     3
 10
0.0000000000005076
 20
-0.0000000000000317
 30
0.0
 40
55.3000906917927821
  0
CIRCLE
  5
148A3
  8
0
  6
CONTINUOUS
 62
     3
 10
0.0000000000005069
 20
-0.0000000000000319
 30
0.0
 40
65.877949011989358
  0
LINE
  5
148A4
  8
0
  6
CONTINUOUS
 62
     3
 10
-250.0
 20
-250.0
 30
-0.0000000000000568
 11
250.0
 21
-250.0
 31
0.0000000000000542
  0
LINE
  5
148A5
  8
0
  6
CONTINUOUS
 62
     3
 10
250.0
 20
250.0
 30
0.0000000000000568
 11
-250.0
 21
250.0
 31
-0.0000000000000542
  0
LINE
  5
148A6
  8
0
  6
CONTINUOUS
 62
     3
 10
250.0
 20
-250.0
 30
0.0000000000000568
 11
250.0
 21
250.0
 31
0.0000000000000568
  0
LINE
  5
148A7
  8
0
  6
CONTINUOUS
 62
     3
 10
-250.0
 20
-250.0
 30
-0.0000000000000568
 11
-250.0
 21
250.0
 31
-0.0000000000000568
  0
CIRCLE
  5
148A8
  8
0
  6
CONTINUOUS
 62
     3
 10
0.0000000000000537
 20
0.000000000000021
 30
0.0
 40
68.7516380057669494
  0
CIRCLE
  5
148A9
  8
0
  6
VERDECKT
 62
     1
 10
0.0000000000005094
 20
-0.0000000000000312
 30
0.0
 40
58.0000000000002203
  0
CIRCLE
  5
148AA
  8
0
  6
VERDECKT
 62
     1
 10
0.0000000000005094
 20
-0.0000000000000312
 30
0.0
 40
60.0000000000002274
  0
CIRCLE
  5
148AB
  8
0
  6
VERDECKT
 62
     1
 10
0.0000000000005032
 20
-0.0000000000000329
 30
0.0
 40
56.2320508075690668
  0
CIRCLE
  5
148AC
  8
0
  6
VERDECKT
 62
     1
 10
0.0000000000005034
 20
-0.0000000000000329
 30
0.0
 40
54.5000000000006821
  0
CIRCLE
  5
148AD
  8
0
  6
VERDECKT
 62
     1
 10
0.0000000000005094
 20
-0.0000000000000312
 30
0.0
 40
58.0000000000002203
  0
CIRCLE
  5
148AE
  8
0
  6
VERDECKT
 62
     1
 10
0.0000000000005094
 20
-0.0000000000000312
 30
0.0
 40
60.0000000000002274
  0
CIRCLE
  5
148AF
  8
0
  6
VERDECKT
 62
     1
 10
0.0000000000000521
 20
0.0000000000000188
 30
0.0
 40
71.5
  0
CIRCLE
  5
148B0
  8
0
  6
VERDECKT
 62
     1
 10
0.0000000000000484
 20
0.0000000000000137
 30
0.0
 40
57.5000000000002274
  0
CIRCLE
  5
148B1
  8
0
  6
VERDECKT
 62
     1
 10
0.0000000000000521
 20
0.0000000000000187
 30
0.0
 40
70.0
  0
CIRCLE
  5
148B2
  8
0
  6
VERDECKT
 62
     1
 10
0.0000000000000537
 20
0.000000000000021
 30
0.0
 40
70.2516380057672905
  0
CIRCLE
  5
148B3
  8
0
  6
VERDECKT
 62
     1
 10
-0.0000000000000899
 20
-0.0000000000000578
 30
0.0
 40
73.0
  0
CIRCLE
  5
148B4
  8
0
  6
VERDECKT
 62
     1
 10
-0.000000000000087
 20
-0.000000000000057
 30
0.0
 40
137.5
  0
CIRCLE
  5
148B5
  8
0
  6
VERDECKT
 62
     1
 10
-0.0000000000000874
 20
-0.0000000000000571
 30
0.0
 40
137.2137865069350937
  0
CIRCLE
  5
148B6
  8
0
  6
VERDECKT
 62
     1
 10
-0.0000000000000884
 20
-0.0000000000000573
 30
0.0
 40
71.865984112298122
  0
CIRCLE
  5
148B7
  8
0
  6
VERDECKT
 62
     1
 10
-0.0000000000000884
 20
-0.0000000000000573
 30
0.0
 40
70.365984112298122
  0
CIRCLE
  5
148B8
  8
0
  6
VERDECKT
 62
     1
 10
-0.0000000000002067
 20
-0.0000000000001705
 30
0.0
 40
48.0154442465727698
  0
CIRCLE
  5
148B9
  8
0
  6
VERDECKT
 62
     1
 10
-0.0000000000001852
 20
-0.0000000000001563
 30
0.0
 40
49.0
  0
CIRCLE
  5
148BA
  8
0
  6
VERDECKT
 62
     1
 10
-0.0000000000001852
 20
-0.0000000000001563
 30
0.0
 40
51.0
  0
CIRCLE
  5
148BB
  8
0
  6
VERDECKT
 62
     1
 10
-0.0000000000002067
 20
-0.0000000000001705
 30
0.0
 40
50.0
  0
CIRCLE
  5
148BC
  8
0
  6
VERDECKT
 62
     1
 10
-0.0000000000001797
 20
-0.0000000000001421
 30
0.0
 40
61.7986015438735876
  0
CIRCLE
  5
148BD
  8
0
  6
VERDECKT
 62
     1
 10
-0.00000000000018
 20
-0.0000000000001421
 30
0.0
 40
63.5016894972150112
  0
ENDBLK
  5
148BF
  8
0
  0
BLOCK
  8
0
  2
A$CE3D6C123
 70
     0
 10
0.0
 20
0.0
 30
0.0
  3
A$CE3D6C123
  1

  0
LINE
  5
1496F
  8
0
  6
CONTINUOUS
 62
     3
 10
-249.999999999999801
 20
157.0000000000001137
 30
-0.0000000000000349
 11
-249.999999999999801
 21
158.5000000000001137
 31
-0.0000000000000352
210
0.0
220
1.0
230
-0.0000000000000002
  0
LINE
  5
14970
  8
0
  6
CONTINUOUS
 62
     3
 10
250.000000000000199
 20
157.0000000000001137
 30
-0.0000000000000349
 11
-249.999999999999801
 21
157.0000000000001137
 31
-0.0000000000000349
210
0.0
220
1.0
230
-0.0000000000000002
  0
LINE
  5
14971
  8
0
  6
CONTINUOUS
 62
     3
 10
250.000000000000199
 20
158.5000000000001137
 30
-0.0000000000000352
 11
250.000000000000199
 21
157.0000000000001137
 31
-0.0000000000000349
210
0.0
220
1.0
230
-0.0000000000000002
  0
LINE
  5
14972
  8
0
  6
CONTINUOUS
 62
     3
 10
-249.999999999999801
 20
158.5000000000001137
 30
-0.0000000000000352
 11
250.000000000000199
 21
158.5000000000001137
 31
-0.0000000000000352
210
0.0
220
1.0
230
-0.0000000000000002
  0
LINE
  5
14973
  8
0
  6
CONTINUOUS
 62
     3
 10
-137.4999999999998863
 20
154.9724407751714921
 30
-0.0000000000000344
 11
137.5000000000001137
 21
154.9724407751714921
 31
-0.0000000000000344
210
0.0
220
1.0
230
-0.0000000000000002
  0
LINE
  5
14974
  8
0
  6
CONTINUOUS
 62
     3
 10
-137.2137865069350084
 20
153.5
 30
-0.0000000000000341
 11
137.2137865069352074
 21
153.5
 31
-0.0000000000000341
210
0.0
220
1.0
230
-0.0000000000000002
  0
ARC
  5
14975
  8
0
  6
CONTINUOUS
 62
     3
 10
71.9999999999998437
 20
138.2679491924311037
 30
0.0
 40
1.0000000000000591
210
0.0
220
-0.0000000000000002
230
-1.0
 50
330.0000000000001137
 51
359.9999999999984084
  0
ARC
  5
14976
  8
0
  6
CONTINUOUS
 62
     3
 10
-72.0000000000000142
 20
138.2679491924311037
 30
0.0
 40
1.000000000000056
210
0.0
220
-0.0000000000000002
230
-1.0
 50
180.0000000000015916
 51
210.0
  0
LINE
  5
14977
  8
0
  6
CONTINUOUS
 62
     3
 10
73.0000000000000853
 20
141.9125113364742106
 30
-0.0000000000000315
 11
73.0000000000000853
 21
138.2679491924311037
 31
-0.0000000000000307
210
0.0
220
1.0
230
-0.0000000000000002
  0
LINE
  5
14978
  8
0
  6
CONTINUOUS
 62
     3
 10
-72.9999999999999147
 20
141.9125113364742106
 30
-0.0000000000000315
 11
-72.9999999999999147
 21
138.2679491924311037
 31
-0.0000000000000307
210
0.0
220
1.0
230
-0.0000000000000002
  0
LINE
  5
14979
  8
0
  6
CONTINUOUS
 62
     3
 10
-65.6084097491466309
 20
125.1973901367912987
 30
-0.0000000000000278
 11
-72.8660254037843487
 21
137.7679491924311037
 31
-0.0000000000000306
210
0.0
220
1.0
230
-0.0000000000000002
  0
LINE
  5
1497A
  8
0
  6
CONTINUOUS
 62
     3
 10
65.6084097491468015
 20
125.1973901367912987
 30
-0.0000000000000278
 11
72.8660254037845192
 21
137.7679491924311037
 31
-0.0000000000000306
210
0.0
220
1.0
230
-0.0000000000000002
  0
ARC
  5
1497B
  8
0
  6
CONTINUOUS
 62
     3
 10
71.9999999999997726
 20
141.9125113364740969
 30
0.0
 40
1.0000000000001421
210
0.0
220
-0.0000000000000002
230
-1.0
 50
0.0000000000032569
 51
10.0000000000001901
  0
ARC
  5
1497C
  8
0
  6
CONTINUOUS
 62
     3
 10
-71.9999999999994458
 20
141.9125113364740969
 30
0.0
 40
1.0000000000006419
210
0.0
220
-0.0000000000000002
230
-1.0
 50
170.0000000000013927
 51
179.9999999999951115
  0
LINE
  5
1497D
  8
0
  6
CONTINUOUS
 62
     3
 10
71.9647337177188433
 20
147.8712868451648887
 30
-0.0000000000000328
 11
72.9848077530122907
 21
142.086159514141201
 31
-0.0000000000000315
210
0.0
220
1.0
230
-0.0000000000000002
  0
LINE
  5
1497E
  8
0
  6
CONTINUOUS
 62
     3
 10
-71.9647337177186728
 20
147.8712868451648887
 30
-0.0000000000000328
 11
-72.9848077530121202
 21
142.086159514141201
 31
-0.0000000000000315
210
0.0
220
1.0
230
-0.0000000000000002
  0
ARC
  5
1497F
  8
0
  6
CONTINUOUS
 62
     3
 10
126.8283894267970027
 20
154.4999999999990905
 30
0.0
 40
2.5000000000008811
210
0.0
220
-0.0000000000000002
230
-1.0
 50
79.0000000000022311
 51
89.9999999999980531
  0
ARC
  5
14980
  8
0
  6
CONTINUOUS
 62
     3
 10
-126.8283894267972016
 20
154.4999999999990905
 30
0.0
 40
2.5000000000008811
210
0.0
220
-0.0000000000000002
230
-1.0
 50
90.0000000000019753
 51
100.9999999999977973
  0
LINE
  5
14981
  8
0
  6
CONTINUOUS
 62
     3
 10
127.3054119152385937
 20
156.9540679586191061
 30
-0.0000000000000349
 11
137.5000000000001137
 21
154.9724407751714921
 31
-0.0000000000000344
210
0.0
220
1.0
230
-0.0000000000000002
  0
LINE
  5
14982
  8
0
  6
CONTINUOUS
 62
     3
 10
-127.3054119152383947
 20
156.9540679586191061
 30
-0.0000000000000349
 11
-137.4999999999998863
 21
154.9724407751714921
 31
-0.0000000000000344
210
0.0
220
1.0
230
-0.0000000000000002
  0
LINE
  5
14983
  8
0
  6
CONTINUOUS
 62
     3
 10
-137.2137865069350084
 20
153.5
 30
-0.0000000000000341
 11
-137.4999999999998863
 21
154.9724407751714921
 31
-0.0000000000000344
210
0.0
220
1.0
230
-0.0000000000000002
  0
LINE
  5
14984
  8
0
  6
CONTINUOUS
 62
     3
 10
137.2137865069352074
 20
153.5
 30
-0.0000000000000341
 11
137.5000000000001137
 21
154.9724407751714921
 31
-0.0000000000000344
210
0.0
220
1.0
230
-0.0000000000000002
  0
ARC
  5
14985
  8
0
  6
CONTINUOUS
 62
     3
 10
78.3659841122980367
 20
149.0
 30
0.0
 40
6.4999999999999938
210
0.0
220
-0.0000000000000002
230
-1.0
 50
136.1869385395966106
 51
190.0000000000001137
  0
ARC
  5
14986
  8
0
  6
CONTINUOUS
 62
     3
 10
-78.3659841122982073
 20
149.0
 30
0.0
 40
6.4999999999999982
210
0.0
220
-0.0000000000000002
230
-1.0
 50
349.9999999999997726
 51
43.8130614604033823
  0
ARC
  5
14987
  8
0
  6
CONTINUOUS
 62
     3
 10
59.1132192207634191
 20
128.9473901367911992
 30
0.0
 40
7.499999999999873
210
0.0
220
-0.0000000000000002
230
-1.0
 50
276.7903909729845964
 51
330.0000000000001137
  0
ARC
  5
14988
  8
0
  6
CONTINUOUS
 62
     3
 10
-59.1132192207635896
 20
128.9473901367911992
 30
0.0
 40
7.4999999999998757
210
0.0
220
-0.0000000000000002
230
-1.0
 50
209.9999999999992042
 51
263.2096090270154036
  0
LINE
  5
14989
  8
0
  6
CONTINUOUS
 62
     3
 10
-50.0
 20
0.0
 30
0.0
 11
50.0
 21
0.0
 31
0.0
210
0.0
220
1.0
230
-0.0000000000000002
  0
LINE
  5
1498A
  8
0
  6
CONTINUOUS
 62
     3
 10
61.7986015438737013
 20
121.5
 30
-0.000000000000027
 11
-61.7986015438737013
 21
121.5
 31
-0.000000000000027
210
0.0
220
1.0
230
-0.0000000000000002
  0
LINE
  5
1498B
  8
0
  6
CONTINUOUS
 62
     3
 10
63.5016894972150112
 20
120.4514336343448946
 30
-0.0000000000000267
 11
-63.5016894972150112
 21
120.4514336343448946
 31
-0.0000000000000267
210
0.0
220
1.0
230
-0.0000000000000002
  0
ARC
  5
1498C
  8
0
  6
CONTINUOUS
 62
     3
 10
50.0000000000013429
 20
8.0622577482984923
 30
0.0
 40
0.999999999998664
210
0.0
220
-0.0000000000000002
230
-1.0
 50
352.874983651092009
 51
0.0000000000040711
  0
ARC
  5
1498D
  8
0
  6
CONTINUOUS
 62
     3
 10
-50.0000000000013429
 20
8.0622577482984923
 30
0.0
 40
0.9999999999986641
210
0.0
220
-0.0000000000000002
230
-1.0
 50
179.9999999999959073
 51
187.1250163489079057
  0
LINE
  5
1498E
  8
0
  6
CONTINUOUS
 62
     3
 10
51.0
 20
96.7481925681526747
 30
-0.0000000000000215
 11
51.0
 21
8.0622577482985633
 31
-0.0000000000000018
210
0.0
220
1.0
230
-0.0000000000000002
  0
LINE
  5
1498F
  8
0
  6
CONTINUOUS
 62
     3
 10
-51.0
 20
96.7481925681526747
 30
-0.0000000000000215
 11
-51.0
 21
8.0622577482985633
 31
-0.0000000000000018
210
0.0
220
1.0
230
-0.0000000000000002
  0
LINE
  5
14990
  8
0
  6
CONTINUOUS
 62
     3
 10
-50.0
 20
0.0
 30
0.0
 11
-50.992277876713672
 21
7.9382230137093472
 31
-0.0000000000000018
210
0.0
220
1.0
230
-0.0000000000000002
  0
LINE
  5
14991
  8
0
  6
CONTINUOUS
 62
     3
 10
50.0
 20
0.0
 30
0.0
 11
50.992277876713672
 21
7.9382230137093472
 31
-0.0000000000000018
210
0.0
220
1.0
230
-0.0000000000000002
  0
ARC
  5
14992
  8
0
  6
CONTINUOUS
 62
     3
 10
-62.9999999999999432
 20
96.7481925681526747
 30
0.0
 40
11.9999999999998295
210
0.0
220
-0.0000000000000002
230
-1.0
 50
0.0
 51
31.6199999999984698
  0
ARC
  5
14993
  8
0
  6
CONTINUOUS
 62
     3
 10
63.0000000000002487
 20
96.748192568152632
 30
0.0
 40
12.0000000000001297
210
0.0
220
-0.0000000000000002
230
-1.0
 50
148.3800000000015871
 51
180.0
  0
LINE
  5
14994
  8
0
  6
CONTINUOUS
 62
     3
 10
-52.7814722799512026
 20
103.0395907620832929
 30
-0.0000000000000229
 11
-63.5016894972150467
 21
120.4514336343448946
 31
-0.0000000000000267
210
0.0
220
1.0
230
-0.0000000000000002
  0
LINE
  5
14995
  8
0
  6
CONTINUOUS
 62
     3
 10
52.78147227995116
 20
103.0395907620831935
 30
-0.0000000000000229
 11
63.5016894972150467
 21
120.4514336343448946
 31
-0.0000000000000267
210
0.0
220
1.0
230
-0.0000000000000002
  0
LINE
  5
14996
  8
0
  6
CONTINUOUS
 62
     3
 10
61.7986015438736018
 20
121.5000000000000995
 30
-0.000000000000027
 11
63.5016894972150325
 21
120.4514336343448946
 31
-0.0000000000000267
210
0.0
220
1.0
230
-0.0000000000000002
  0
LINE
  5
14997
  8
0
  6
CONTINUOUS
 62
     3
 10
-61.7986015438736871
 20
121.5
 30
-0.000000000000027
 11
-63.5016894972150325
 21
120.4514336343448946
 31
-0.0000000000000267
210
0.0
220
1.0
230
-0.0000000000000002
  0
LINE
  5
14998
  8
0
  6
VERDECKT
 62
     1
 10
-59.9999999999995381
 20
130.053856488130009
 30
-0.0000000000000289
 11
60.0000000000009095
 21
130.053856488130009
 31
-0.0000000000000289
210
0.0
220
1.0
230
-0.0000000000000002
  0
LINE
  5
14999
  8
0
  6
VERDECKT
 62
     1
 10
-59.9999999999995381
 20
153.053856488130009
 30
-0.000000000000034
 11
60.0000000000009095
 21
153.053856488130009
 31
-0.000000000000034
210
0.0
220
1.0
230
-0.0000000000000002
  0
LINE
  5
1499A
  8
0
  6
VERDECKT
 62
     1
 10
58.0000000000009095
 20
153.0538564881298953
 30
-0.000000000000034
 11
58.0000000000009095
 21
130.053856488130009
 31
-0.0000000000000289
210
0.0
220
1.0
230
-0.0000000000000002
  0
LINE
  5
1499B
  8
0
  6
VERDECKT
 62
     1
 10
-57.9999999999995381
 20
153.0538564881298953
 30
-0.000000000000034
 11
-57.9999999999995381
 21
130.053856488130009
 31
-0.0000000000000289
210
0.0
220
1.0
230
-0.0000000000000002
  0
LINE
  5
1499C
  8
0
  6
VERDECKT
 62
     1
 10
60.0000000000009095
 20
153.053856488130009
 30
-0.000000000000034
 11
60.0000000000009095
 21
130.053856488130009
 31
-0.0000000000000289
210
0.0
220
1.0
230
-0.0000000000000002
  0
LINE
  5
1499D
  8
0
  6
VERDECKT
 62
     1
 10
-59.9999999999995381
 20
153.053856488130009
 30
-0.000000000000034
 11
-59.9999999999995381
 21
130.053856488130009
 31
-0.0000000000000289
210
0.0
220
1.0
230
-0.0000000000000002
  0
LINE
  5
1499E
  8
0
  6
VERDECKT
 62
     1
 10
-69.9999999999993179
 20
138.9102629486804972
 30
-0.0000000000000308
 11
70.0000000000006821
 21
138.9102629486804972
 31
-0.0000000000000308
210
0.0
220
1.0
230
-0.0000000000000002
  0
LINE
  5
1499F
  8
0
  6
VERDECKT
 62
     1
 10
-61.1339745962152321
 20
125.0538564881297958
 30
-0.0000000000000278
 11
61.1339745962166035
 21
125.0538564881297958
 31
-0.0000000000000278
210
0.0
220
1.0
230
-0.0000000000000002
  0
LINE
  5
149A0
  8
0
  6
VERDECKT
 62
     1
 10
-54.5
 20
126.0538564881298953
 30
-0.000000000000028
 11
54.5000000000013571
 21
126.0538564881298953
 31
-0.000000000000028
210
0.0
220
1.0
230
-0.0000000000000002
  0
LINE
  5
149A1
  8
0
  6
VERDECKT
 62
     1
 10
-48.3218007376449279
 20
128.053856488130009
 30
-0.0000000000000284
 11
48.3218007376462921
 21
128.053856488130009
 31
-0.0000000000000284
210
0.0
220
1.0
230
-0.0000000000000002
  0
LINE
  5
149A2
  8
0
  6
VERDECKT
 62
     1
 10
-55.3000906917920929
 20
145.053856488130009
 30
-0.0000000000000322
 11
55.3000906917934572
 21
145.053856488130009
 31
-0.0000000000000322
210
0.0
220
1.0
230
-0.0000000000000002
  0
LINE
  5
149A3
  8
0
  6
VERDECKT
 62
     1
 10
-59.9923603249130721
 20
155.053856488130009
 30
-0.0000000000000344
 11
59.9923603249144293
 21
155.053856488130009
 31
-0.0000000000000344
210
0.0
220
1.0
230
-0.0000000000000002
  0
LINE
  5
149A4
  8
0
  6
VERDECKT
 62
     1
 10
-65.8779490119886759
 20
142.0765399403061053
 30
-0.0000000000000315
 11
65.8779490119900402
 21
142.0765399403061053
 31
-0.0000000000000315
210
0.0
220
1.0
230
-0.0000000000000002
  0
LINE
  5
149A5
  8
0
  6
VERDECKT
 62
     1
 10
-69.9999999999993179
 20
141.6354291064799895
 30
-0.0000000000000314
 11
70.0000000000006821
 21
141.6354291064799895
 31
-0.0000000000000314
210
0.0
220
1.0
230
-0.0000000000000002
  0
LINE
  5
149A6
  8
0
  6
VERDECKT
 62
     1
 10
-59.9999999999995381
 20
130.053856488130009
 30
-0.0000000000000289
 11
60.0000000000009095
 21
130.053856488130009
 31
-0.0000000000000289
210
0.0
220
1.0
230
-0.0000000000000002
  0
LINE
  5
149A7
  8
0
  6
VERDECKT
 62
     1
 10
-59.9999999999995381
 20
153.053856488130009
 30
-0.000000000000034
 11
60.0000000000009095
 21
153.053856488130009
 31
-0.000000000000034
210
0.0
220
1.0
230
-0.0000000000000002
  0
LINE
  5
149A8
  8
0
  6
VERDECKT
 62
     1
 10
-62.4330127018919399
 20
125.8038564881299948
 30
-0.0000000000000279
 11
-69.9999999999992042
 21
138.9102629486806109
 31
-0.0000000000000308
210
0.0
220
1.0
230
-0.0000000000000002
  0
LINE
  5
149A9
  8
0
  6
VERDECKT
 62
     1
 10
62.4330127018933112
 20
125.8038564881299948
 30
-0.0000000000000279
 11
70.0000000000005826
 21
138.9102629486806109
 31
-0.0000000000000308
210
0.0
220
1.0
230
-0.0000000000000002
  0
ARC
  5
149AA
  8
0
  6
VERDECKT
 62
     1
 10
61.1339745962150687
 20
126.5538564881301937
 30
0.0
 40
1.500000000000369
210
0.0
220
-0.0000000000000002
230
-1.0
 50
270.0
 51
329.9999999999932925
  0
ARC
  5
149AB
  8
0
  6
VERDECKT
 62
     1
 10
-61.13397459621644
 20
126.5538564881301937
 30
0.0
 40
1.5000000000003639
210
0.0
220
-0.0000000000000002
230
-1.0
 50
210.0000000000009095
 51
269.9999999999938041
  0
LINE
  5
149AC
  8
0
  6
VERDECKT
 62
     1
 10
54.5000000000013429
 20
126.0538564881298953
 30
-0.000000000000028
 11
56.2320508075697205
 21
125.0538564881299948
 31
-0.0000000000000278
210
0.0
220
1.0
230
-0.0000000000000002
  0
LINE
  5
149AD
  8
0
  6
VERDECKT
 62
     1
 10
-54.4999999999999716
 20
126.0538564881298953
 30
-0.000000000000028
 11
-56.2320508075683634
 21
125.0538564881299948
 31
-0.0000000000000278
210
0.0
220
1.0
230
-0.0000000000000002
  0
LINE
  5
149AE
  8
0
  6
VERDECKT
 62
     1
 10
48.0000000000009095
 20
128.053856488130009
 30
-0.0000000000000284
 11
48.0000000000009095
 21
126.0538564881300942
 31
-0.000000000000028
210
0.0
220
1.0
230
-0.0000000000000002
  0
LINE
  5
149AF
  8
0
  6
VERDECKT
 62
     1
 10
-47.9999999999995381
 20
128.053856488130009
 30
-0.0000000000000284
 11
-47.9999999999995381
 21
126.0538564881300942
 31
-0.000000000000028
210
0.0
220
1.0
230
-0.0000000000000002
  0
ARC
  5
149B0
  8
0
  6
VERDECKT
 62
     1
 10
48.3218007376451411
 20
130.0538564881300942
 30
0.0
 40
2.0000000000000848
210
0.0
220
-0.0000000000000002
230
-1.0
 50
270.0
 51
350.0000000000006253
  0
ARC
  5
149B1
  8
0
  6
VERDECKT
 62
     1
 10
-48.3218007376464982
 20
130.0538564881300942
 30
0.0
 40
2.000000000000079
210
0.0
220
-0.0000000000000002
230
-1.0
 50
190.0000000000050875
 51
270.0000000000059117
  0
LINE
  5
149B2
  8
0
  6
VERDECKT
 62
     1
 10
-50.291416243669353
 20
129.7065601327961133
 30
-0.0000000000000288
 11
-52.633288367456089
 21
142.9879769322973004
 31
-0.0000000000000317
210
0.0
220
1.0
230
-0.0000000000000002
  0
LINE
  5
149B3
  8
0
  6
VERDECKT
 62
     1
 10
50.2914162436707102
 20
129.7065601327961133
 30
-0.0000000000000288
 11
52.6332883674574603
 21
142.9879769322973004
 31
-0.0000000000000317
210
0.0
220
1.0
230
-0.0000000000000002
  0
ARC
  5
149B4
  8
0
  6
VERDECKT
 62
     1
 10
55.0953077499861905
 20
142.5538564881304069
 30
0.0
 40
2.4999999999995159
210
0.0
220
-0.0000000000000002
230
-1.0
 50
89.9999999999946283
 51
170.000000000008896
  0
ARC
  5
149B5
  8
0
  6
VERDECKT
 62
     1
 10
-55.0953077499875619
 20
142.5538564881304069
 30
0.0
 40
2.4999999999995142
210
0.0
220
-0.0000000000000002
230
-1.0
 50
9.9999999999911022
 51
90.0000000000053859
  0
LINE
  5
149B6
  8
0
  6
VERDECKT
 62
     1
 10
-55.3000906917919792
 20
145.053856488130009
 30
-0.0000000000000322
 11
-56.0152502789027196
 21
153.2281679736252897
 31
-0.000000000000034
210
0.0
220
1.0
230
-0.0000000000000002
  0
LINE
  5
149B7
  8
0
  6
VERDECKT
 62
     1
 10
55.3000906917933435
 20
145.053856488130009
 30
-0.0000000000000322
 11
56.0152502789040909
 21
153.2281679736252897
 31
-0.000000000000034
210
0.0
220
1.0
230
-0.0000000000000002
  0
ARC
  5
149B8
  8
0
  6
VERDECKT
 62
     1
 10
58.0076396750862173
 20
153.0538564881302079
 30
0.0
 40
1.999999999999857
210
0.0
220
-0.0000000000000002
230
-1.0
 50
89.9999999999995879
 51
175.0000000000042917
  0
ARC
  5
149B9
  8
0
  6
VERDECKT
 62
     1
 10
-58.0076396750875887
 20
153.0538564881302079
 30
0.0
 40
1.9999999999998801
210
0.0
220
-0.0000000000000002
230
-1.0
 50
4.9999999999957092
 51
90.0000000000004263
  0
ARC
  5
149BA
  8
0
  6
VERDECKT
 62
     1
 10
59.9923603249126387
 20
153.053856488130009
 30
0.0
 40
2.0000000000000289
210
0.0
220
-0.0000000000000002
230
-1.0
 50
5.0000000000006102
 51
89.9999999999875939
  0
ARC
  5
149BB
  8
0
  6
VERDECKT
 62
     1
 10
-59.9923603249140101
 20
153.053856488130009
 30
0.0
 40
2.000000000000028
210
0.0
220
-0.0000000000000002
230
-1.0
 50
90.0000000000124061
 51
174.9999999999994031
  0
LINE
  5
149BC
  8
0
  6
VERDECKT
 62
     1
 10
61.9847497210977281
 20
153.2281679736254034
 30
-0.000000000000034
 11
62.850855703094453
 21
143.3285312996696916
 31
-0.0000000000000318
210
0.0
220
1.0
230
-0.0000000000000002
  0
LINE
  5
149BD
  8
0
  6
VERDECKT
 62
     1
 10
-61.9847497210963567
 20
153.2281679736254034
 30
-0.000000000000034
 11
-62.8508557030930888
 21
143.3285312996696916
 31
-0.0000000000000318
210
0.0
220
1.0
230
-0.0000000000000002
  0
ARC
  5
149BE
  8
0
  6
VERDECKT
 62
     1
 10
70.8204132878055219
 20
144.0257772416470914
 30
0.0
 40
7.999999999978102
210
0.0
220
-0.0000000000000002
230
-1.0
 50
184.9999999999859028
 51
193.6461999882332918
  0
ARC
  5
149BF
  8
0
  6
VERDECKT
 62
     1
 10
-70.8204132878068862
 20
144.0257772416470914
 30
0.0
 40
7.999999999978102
210
0.0
220
-0.0000000000000002
230
-1.0
 50
346.3538000117666797
 51
355.0000000000140972
  0
LINE
  5
149C0
  8
0
  6
VERDECKT
 62
     1
 10
63.0462446503851126
 20
142.1383710859466873
 30
-0.0000000000000316
 11
63.1000630181753124
 21
141.9166948634081109
 31
-0.0000000000000315
210
0.0
220
1.0
230
-0.0000000000000002
  0
LINE
  5
149C1
  8
0
  6
VERDECKT
 62
     1
 10
-63.0462446503837484
 20
142.1383710859466873
 30
-0.0000000000000316
 11
-63.1000630181739481
 21
141.9166948634081109
 31
-0.0000000000000315
210
0.0
220
1.0
230
-0.0000000000000002
  0
ARC
  5
149C2
  8
0
  6
VERDECKT
 62
     1
 10
64.474405360740306
 20
142.25035654716811
 30
0.0
 40
1.414265531567785
210
0.0
220
-0.0000000000000002
230
-1.0
 50
193.6461999882216105
 51
270.0000000000006253
  0
ARC
  5
149C3
  8
0
  6
VERDECKT
 62
     1
 10
64.4744053607402776
 20
142.2503565471683089
 30
0.0
 40
1.414265531567878
210
0.0
220
-0.0000000000000002
230
-1.0
 50
270.0
 51
352.9403627560341192
  0
ARC
  5
149C4
  8
0
  6
VERDECKT
 62
     1
 10
-64.4744053607416561
 20
142.2503565471683089
 30
0.0
 40
1.4142655315678501
210
0.0
220
-0.0000000000000002
230
-1.0
 50
187.0596372439642039
 51
269.9999999999993747
  0
ARC
  5
149C5
  8
0
  6
VERDECKT
 62
     1
 10
-64.4744053607417129
 20
142.2503565471681952
 30
0.0
 40
1.414265531567849
210
0.0
220
-0.0000000000000002
230
-1.0
 50
270.0
 51
346.3538000117733873
  0
LINE
  5
149C6
  8
0
  6
VERDECKT
 62
     1
 10
-64.4744053607403202
 20
140.8360910156004024
 30
-0.0000000000000313
 11
64.4744053607416845
 21
140.8360910156004024
 31
-0.0000000000000313
210
0.0
220
1.0
230
-0.0000000000000002
  0
ARC
  5
149C7
  8
0
  6
VERDECKT
 62
     1
 10
67.8779407505769541
 20
142.0707914118879103
 30
0.0
 40
2.0000000000000839
210
0.0
220
-0.0000000000000002
230
-1.0
 50
11.0000000000015401
 51
90.0
  0
ARC
  5
149C8
  8
0
  6
VERDECKT
 62
     1
 10
67.8779407505769967
 20
142.0707914118877966
 30
0.0
 40
2.0000000000001421
210
0.0
220
-0.0000000000000002
230
-1.0
 50
90.0000000000012221
 51
179.8353165648593972
  0
ARC
  5
149C9
  8
0
  6
VERDECKT
 62
     1
 10
-67.877940750578361
 20
142.0707914118877966
 30
0.0
 40
2.000000000000127
210
0.0
220
-0.0000000000000002
230
-1.0
 50
0.1646834351406187
 51
89.9999999999987921
  0
ARC
  5
149CA
  8
0
  6
VERDECKT
 62
     1
 10
-67.8779407505783041
 20
142.0707914118879103
 30
0.0
 40
2.0000000000000848
210
0.0
220
-0.0000000000000002
230
-1.0
 50
90.0
 51
168.9999999999984084
  0
LINE
  5
149CB
  8
0
  6
VERDECKT
 62
     1
 10
67.8779407505783041
 20
144.0707914118879955
 30
-0.000000000000032
 11
-67.8779407505769541
 21
144.0707914118879955
 31
-0.000000000000032
210
0.0
220
1.0
230
-0.0000000000000002
  0
LINE
  5
149CC
  8
0
  6
VERDECKT
 62
     1
 10
69.8411951174737169
 20
142.4524094026411092
 30
-0.0000000000000316
 11
70.0000000000006821
 21
141.6354291064799895
 31
-0.0000000000000314
210
0.0
220
1.0
230
-0.0000000000000002
  0
LINE
  5
149CD
  8
0
  6
VERDECKT
 62
     1
 10
-69.8411951174723526
 20
142.4524094026411092
 30
-0.0000000000000316
 11
-69.9999999999993179
 21
141.6354291064799895
 31
-0.0000000000000314
210
0.0
220
1.0
230
-0.0000000000000002
  0
LINE
  5
149CE
  8
0
  6
VERDECKT
 62
     1
 10
70.0000000000006821
 20
141.6354291064799895
 30
-0.0000000000000314
 11
70.0000000000006821
 21
138.9102629486804972
 31
-0.0000000000000308
210
0.0
220
1.0
230
-0.0000000000000002
  0
LINE
  5
149CF
  8
0
  6
VERDECKT
 62
     1
 10
-69.9999999999993179
 20
141.6354291064799895
 30
-0.0000000000000314
 11
-69.9999999999993179
 21
138.9102629486804972
 31
-0.0000000000000308
210
0.0
220
1.0
230
-0.0000000000000002
  0
LINE
  5
149D0
  8
0
  6
VERDECKT
 62
     1
 10
58.0000000000009095
 20
153.0538564881298953
 30
-0.000000000000034
 11
58.0000000000009095
 21
130.053856488130009
 31
-0.0000000000000289
210
0.0
220
1.0
230
-0.0000000000000002
  0
LINE
  5
149D1
  8
0
  6
VERDECKT
 62
     1
 10
-57.9999999999995381
 20
153.0538564881298953
 30
-0.000000000000034
 11
-57.9999999999995381
 21
130.053856488130009
 31
-0.0000000000000289
210
0.0
220
1.0
230
-0.0000000000000002
  0
LINE
  5
149D2
  8
0
  6
VERDECKT
 62
     1
 10
60.0000000000009095
 20
153.053856488130009
 30
-0.000000000000034
 11
60.0000000000009095
 21
130.053856488130009
 31
-0.0000000000000289
210
0.0
220
1.0
230
-0.0000000000000002
  0
LINE
  5
149D3
  8
0
  6
VERDECKT
 62
     1
 10
-59.9999999999995381
 20
153.053856488130009
 30
-0.000000000000034
 11
-59.9999999999995381
 21
130.053856488130009
 31
-0.0000000000000289
210
0.0
220
1.0
230
-0.0000000000000002
  0
LINE
  5
149D4
  8
0
  6
VERDECKT
 62
     1
 10
-71.4999999999997726
 20
141.8074219036049044
 30
-0.0000000000000315
 11
71.5000000000002274
 21
141.8074219036049044
 31
-0.0000000000000315
210
0.0
220
1.0
230
-0.0000000000000002
  0
LINE
  5
149D5
  8
0
  6
VERDECKT
 62
     1
 10
-71.4999999999997726
 20
138.5358983848624064
 30
-0.0000000000000308
 11
71.5000000000002274
 21
138.5358983848624064
 31
-0.0000000000000308
210
0.0
220
1.0
230
-0.0000000000000002
  0
LINE
  5
149D6
  8
0
  6
VERDECKT
 62
     1
 10
-61.1339745962157011
 20
123.5814157129585027
 30
-0.0000000000000274
 11
61.1339745962161487
 21
123.5814157129585027
 31
-0.0000000000000274
210
0.0
220
1.0
230
-0.0000000000000002
  0
LINE
  5
149D7
  8
0
  6
VERDECKT
 62
     1
 10
-61.1339745962157011
 20
125.0814157129583037
 30
-0.0000000000000278
 11
61.1339745962161487
 21
125.0814157129583037
 31
-0.0000000000000278
210
0.0
220
1.0
230
-0.0000000000000002
  0
LINE
  5
149D8
  8
0
  6
VERDECKT
 62
     1
 10
-69.9999999999997726
 20
138.9378221735090904
 30
-0.0000000000000309
 11
70.0000000000002274
 21
138.9378221735090904
 31
-0.0000000000000309
210
0.0
220
1.0
230
-0.0000000000000002
  0
LINE
  5
149D9
  8
0
  6
VERDECKT
 62
     1
 10
-69.9999999999997726
 20
141.6629883313084974
 30
-0.0000000000000315
 11
70.0000000000002274
 21
141.6629883313084974
 31
-0.0000000000000315
210
0.0
220
1.0
230
-0.0000000000000002
  0
ARC
  5
149DA
  8
0
  6
VERDECKT
 62
     1
 10
78.2516380057670631
 20
149.0
 30
0.0
 40
8.0
210
0.0
220
-0.0000000000000002
230
-1.0
 50
90.0000000000000995
 51
190.9999999999974136
  0
ARC
  5
149DB
  8
0
  6
VERDECKT
 62
     1
 10
-78.251638005767532
 20
149.0
 30
0.0
 40
8.0000000000000142
210
0.0
220
-0.0000000000000002
230
-1.0
 50
349.000000000001819
 51
90.000000000003169
  0
LINE
  5
149DC
  8
0
  6
VERDECKT
 62
     1
 10
70.3986205381860515
 20
147.4735280369878865
 30
-0.0000000000000327
 11
71.5000000000001137
 21
141.8074219036047907
 31
-0.0000000000000315
210
0.0
220
1.0
230
-0.0000000000000002
  0
LINE
  5
149DD
  8
0
  6
VERDECKT
 62
     1
 10
-70.3986205381855967
 20
147.4735280369878865
 30
-0.0000000000000327
 11
-71.4999999999996732
 21
141.8074219036047907
 31
-0.0000000000000315
210
0.0
220
1.0
230
-0.0000000000000002
  0
LINE
  5
149DE
  8
0
  6
VERDECKT
 62
     1
 10
71.5000000000002274
 20
141.8074219036049044
 30
-0.0000000000000315
 11
71.5000000000002274
 21
138.5358983848624064
 31
-0.0000000000000308
210
0.0
220
1.0
230
-0.0000000000000002
  0
LINE
  5
149DF
  8
0
  6
VERDECKT
 62
     1
 10
-71.4999999999997726
 20
141.8074219036049044
 30
-0.0000000000000315
 11
-71.4999999999997726
 21
138.5358983848624064
 31
-0.0000000000000308
210
0.0
220
1.0
230
-0.0000000000000002
  0
LINE
  5
149E0
  8
0
  6
VERDECKT
 62
     1
 10
-63.7320508075691805
 20
125.0814157129584032
 30
-0.0000000000000278
 11
-71.4999999999998721
 21
138.5358983848622927
 31
-0.0000000000000308
210
0.0
220
1.0
230
-0.0000000000000002
  0
LINE
  5
149E1
  8
0
  6
VERDECKT
 62
     1
 10
63.7320508075697418
 20
125.0814157129586022
 30
-0.0000000000000278
 11
71.5000000000003268
 21
138.5358983848622927
 31
-0.0000000000000308
210
0.0
220
1.0
230
-0.0000000000000002
  0
ARC
  5
149E2
  8
0
  6
VERDECKT
 62
     1
 10
61.1339745962154666
 20
126.5814157129592985
 30
0.0
 40
3.0000000000007949
210
0.0
220
-0.0000000000000002
230
-1.0
 50
270.0
 51
329.9999999999859028
  0
ARC
  5
149E3
  8
0
  6
VERDECKT
 62
     1
 10
-61.1339745962159427
 20
126.5814157129592985
 30
0.0
 40
3.0000000000007621
210
0.0
220
-0.0000000000000002
230
-1.0
 50
210.0000000000055991
 51
269.999999999996021
  0
LINE
  5
149E4
  8
0
  6
VERDECKT
 62
     1
 10
57.5000000000004619
 20
125.0814157129585027
 30
-0.0000000000000278
 11
57.5000000000004619
 21
123.5814157129585027
 31
-0.0000000000000274
210
0.0
220
1.0
230
-0.0000000000000002
  0
LINE
  5
149E5
  8
0
  6
VERDECKT
 62
     1
 10
-57.5
 20
125.0814157129585027
 30
-0.0000000000000278
 11
-57.5
 21
123.5814157129585027
 31
-0.0000000000000274
210
0.0
220
1.0
230
-0.0000000000000002
  0
ARC
  5
149E6
  8
0
  6
VERDECKT
 62
     1
 10
61.1339745962155305
 20
126.5814157129587016
 30
0.0
 40
1.500000000000369
210
0.0
220
-0.0000000000000002
230
-1.0
 50
270.0
 51
329.9999999999932925
  0
ARC
  5
149E7
  8
0
  6
VERDECKT
 62
     1
 10
-61.1339745962159711
 20
126.5814157129587016
 30
0.0
 40
1.5000000000003899
210
0.0
220
-0.0000000000000002
230
-1.0
 50
209.9999999999971863
 51
269.9999999999931788
  0
LINE
  5
149E8
  8
0
  6
VERDECKT
 62
     1
 10
-62.4330127018924088
 20
125.8314157129585027
 30
-0.0000000000000279
 11
-69.9999999999996732
 21
138.937822173509204
 31
-0.0000000000000309
210
0.0
220
1.0
230
-0.0000000000000002
  0
LINE
  5
149E9
  8
0
  6
VERDECKT
 62
     1
 10
62.4330127018929204
 20
125.8314157129586022
 30
-0.0000000000000279
 11
70.0000000000001421
 21
138.937822173509204
 31
-0.0000000000000309
210
0.0
220
1.0
230
-0.0000000000000002
  0
LINE
  5
149EA
  8
0
  6
VERDECKT
 62
     1
 10
70.0000000000002274
 20
141.6629883313084974
 30
-0.0000000000000315
 11
70.0000000000002274
 21
138.9378221735090904
 31
-0.0000000000000309
210
0.0
220
1.0
230
-0.0000000000000002
  0
LINE
  5
149EB
  8
0
  6
VERDECKT
 62
     1
 10
-69.9999999999997726
 20
141.6629883313084974
 30
-0.0000000000000315
 11
-69.9999999999997726
 21
138.9378221735090904
 31
-0.0000000000000309
210
0.0
220
1.0
230
-0.0000000000000002
  0
LINE
  5
149EC
  8
0
  6
VERDECKT
 62
     1
 10
68.9261797630148294
 20
147.1873145439230086
 30
-0.0000000000000327
 11
70.0000000000003411
 21
141.6629883313086111
 31
-0.0000000000000315
210
0.0
220
1.0
230
-0.0000000000000002
  0
LINE
  5
149ED
  8
0
  6
VERDECKT
 62
     1
 10
-68.9261797630143747
 20
147.1873145439230086
 30
-0.0000000000000327
 11
-69.9999999999998863
 21
141.6629883313086111
 31
-0.0000000000000315
210
0.0
220
1.0
230
-0.0000000000000002
  0
ARC
  5
149EE
  8
0
  6
VERDECKT
 62
     1
 10
78.2516380057665941
 20
149.0000000000001137
 30
0.0
 40
9.4999999999998863
210
0.0
220
-0.0000000000000002
230
-1.0
 50
89.9999999999972573
 51
191.0000000000007105
  0
ARC
  5
149EF
  8
0
  6
VERDECKT
 62
     1
 10
-78.2516380057670631
 20
149.0000000000001137
 30
0.0
 40
9.4999999999999005
210
0.0
220
-0.0000000000000002
230
-1.0
 50
349.0000000000001137
 51
90.0000000000054143
  0
LINE
  5
149F0
  8
0
  6
VERDECKT
 62
     1
 10
-126.8283894267971021
 20
155.5
 30
-0.0000000000000345
 11
126.8283894267972016
 21
155.5
 31
-0.0000000000000345
210
0.0
220
1.0
230
-0.0000000000000002
  0
LINE
  5
149F1
  8
0
  6
VERDECKT
 62
     1
 10
-59.9999999999999218
 20
123.0132836455344005
 30
-0.0000000000000273
 11
60.0000000000000995
 21
123.0132836455344005
 31
-0.0000000000000273
210
0.0
220
1.0
230
-0.0000000000000002
  0
ARC
  5
149F2
  8
0
  6
VERDECKT
 62
     1
 10
70.4999999999998579
 20
138.6698729810777877
 30
0.0
 40
1.0000000000000451
210
0.0
220
-0.0000000000000002
230
-1.0
 50
330.000000000001819
 51
0.0
  0
ARC
  5
149F3
  8
0
  6
VERDECKT
 62
     1
 10
-70.5000000000000284
 20
138.6698729810777877
 30
0.0
 40
1.000000000000056
210
0.0
220
-0.0000000000000002
230
-1.0
 50
180.0
 51
209.9999999999982094
  0
LINE
  5
149F4
  8
0
  6
VERDECKT
 62
     1
 10
71.5000000000000853
 20
141.7812783411854127
 30
-0.0000000000000315
 11
71.5000000000000853
 21
138.6698729810777877
 31
-0.0000000000000308
210
0.0
220
1.0
230
-0.0000000000000002
  0
LINE
  5
149F5
  8
0
  6
VERDECKT
 62
     1
 10
-71.4999999999999147
 20
141.781278341185299
 30
-0.0000000000000315
 11
-71.4999999999999147
 21
138.6698729810777877
 31
-0.0000000000000308
210
0.0
220
1.0
230
-0.0000000000000002
  0
LINE
  5
149F6
  8
0
  6
VERDECKT
 62
     1
 10
-64.3093716434699587
 20
125.9473901367912987
 30
-0.000000000000028
 11
-71.3660254037843629
 21
138.1698729810777877
 31
-0.0000000000000307
210
0.0
220
1.0
230
-0.0000000000000002
  0
LINE
  5
149F7
  8
0
  6
VERDECKT
 62
     1
 10
64.3093716434701292
 20
125.9473901367912987
 30
-0.000000000000028
 11
71.3660254037845334
 21
138.1698729810777877
 31
-0.0000000000000307
210
0.0
220
1.0
230
-0.0000000000000002
  0
ARC
  5
149F8
  8
0
  6
VERDECKT
 62
     1
 10
70.4999999999989626
 20
141.781278341185299
 30
0.0
 40
1.0000000000009519
210
0.0
220
-0.0000000000000002
230
-1.0
 50
0.0000000000048853
 51
9.9999999999952394
  0
ARC
  5
149F9
  8
0
  6
VERDECKT
 62
     1
 10
-70.4999999999991331
 20
141.781278341185299
 30
0.0
 40
1.0000000000009499
210
0.0
220
-0.0000000000000002
230
-1.0
 50
170.0000000000046896
 51
179.9999999999951115
  0
LINE
  5
149FA
  8
0
  6
VERDECKT
 62
     1
 10
70.4875220882005351
 20
147.6108145786645025
 30
-0.0000000000000328
 11
71.4848077530122907
 21
141.9549265188522895
 31
-0.0000000000000315
210
0.0
220
1.0
230
-0.0000000000000002
  0
LINE
  5
149FB
  8
0
  6
VERDECKT
 62
     1
 10
-70.4875220882003788
 20
147.6108145786645025
 30
-0.0000000000000328
 11
-71.4848077530121202
 21
141.9549265188522895
 31
-0.0000000000000315
210
0.0
220
1.0
230
-0.0000000000000002
  0
LINE
  5
149FC
  8
0
  6
VERDECKT
 62
     1
 10
127.0191984221738011
 20
155.481627183447614
 30
-0.0000000000000345
 11
137.2137865069352074
 21
153.5
 31
-0.0000000000000341
210
0.0
220
1.0
230
-0.0000000000000002
  0
LINE
  5
149FD
  8
0
  6
VERDECKT
 62
     1
 10
-127.0191984221736021
 20
155.481627183447614
 30
-0.0000000000000345
 11
-137.2137865069350084
 21
153.5
 31
-0.0000000000000341
210
0.0
220
1.0
230
-0.0000000000000002
  0
ARC
  5
149FE
  8
0
  6
VERDECKT
 62
     1
 10
126.8283894267972016
 20
154.5000000000013074
 30
0.0
 40
0.999999999998721
210
0.0
220
-0.0000000000000002
230
-1.0
 50
78.9999999999949551
 51
90.0000000000089528
  0
ARC
  5
149FF
  8
0
  6
VERDECKT
 62
     1
 10
-126.8283894267974006
 20
154.5000000000013074
 30
0.0
 40
0.999999999998721
210
0.0
220
-0.0000000000000002
230
-1.0
 50
89.999999999991033
 51
101.0000000000050022
  0
ARC
  5
14A00
  8
0
  6
VERDECKT
 62
     1
 10
78.3659841122980936
 20
148.9999999999998863
 30
0.0
 40
6.5000000000000853
210
0.0
220
-0.0000000000000002
230
-1.0
 50
90.000000000000469
 51
136.1869385395964969
  0
ARC
  5
14A01
  8
0
  6
VERDECKT
 62
     1
 10
-78.3659841122982641
 20
148.9999999999998863
 30
0.0
 40
6.500000000000095
210
0.0
220
-0.0000000000000002
230
-1.0
 50
43.8130614604034818
 51
89.9999999999995168
  0
LINE
  5
14A02
  8
0
  6
VERDECKT
 62
     1
 10
60.0000000000000782
 20
123.0132836455344005
 30
-0.0000000000000273
 11
60.0000000000000782
 21
121.5
 31
-0.000000000000027
210
0.0
220
1.0
230
-0.0000000000000002
  0
LINE
  5
14A03
  8
0
  6
VERDECKT
 62
     1
 10
-59.9999999999999218
 20
123.0132836455344005
 30
-0.0000000000000273
 11
-59.9999999999999218
 21
121.4999999999999005
 31
-0.000000000000027
210
0.0
220
1.0
230
-0.0000000000000002
  0
ARC
  5
14A04
  8
0
  6
VERDECKT
 62
     1
 10
59.1132192207633409
 20
128.9473901367913129
 30
0.0
 40
6.0000000000000009
210
0.0
220
-0.0000000000000002
230
-1.0
 50
278.4992692108231154
 51
330.0
  0
ARC
  5
14A05
  8
0
  6
VERDECKT
 62
     1
 10
-59.1132192207635114
 20
128.9473901367913129
 30
0.0
 40
6.0
210
0.0
220
-0.0000000000000002
230
-1.0
 50
210.0
 51
261.5007307891769983
  0
ARC
  5
14A06
  8
0
  6
VERDECKT
 62
     1
 10
78.3659841122980367
 20
149.0
 30
0.0
 40
8.0
210
0.0
220
-0.0000000000000002
230
-1.0
 50
90.0
 51
190.0000000000001137
  0
ARC
  5
14A07
  8
0
  6
VERDECKT
 62
     1
 10
-78.3659841122982073
 20
149.0
 30
0.0
 40
8.0000000000000071
210
0.0
220
-0.0000000000000002
230
-1.0
 50
349.9999999999997726
 51
90.0
  0
LINE
  5
14A08
  8
0
  6
VERDECKT
 62
     1
 10
-48.0154442465727698
 20
0.2480694691784038
 30
-0.0000000000000001
 11
48.0154442465727698
 21
0.2480694691784038
 31
-0.0000000000000001
210
0.0
220
1.0
230
-0.0000000000000002
  0
ARC
  5
14A09
  8
0
  6
VERDECKT
 62
     1
 10
48.0000000000000711
 20
8.1867732448948942
 30
0.0
 40
0.9999999999999221
210
0.0
220
-0.0000000000000002
230
-1.0
 50
352.8749836510993987
 51
0.0000000000016284
  0
ARC
  5
14A0A
  8
0
  6
VERDECKT
 62
     1
 10
-48.0000000000000711
 20
8.1867732448948942
 30
0.0
 40
0.9999999999999218
210
0.0
220
-0.0000000000000002
230
-1.0
 50
179.9999999999984084
 51
187.1250163489006013
  0
LINE
  5
14A0B
  8
0
  6
VERDECKT
 62
     1
 10
-48.0154442465727698
 20
0.248069469178418
 30
-0.0000000000000001
 11
-48.992277876713672
 21
8.0627385103057208
 31
-0.0000000000000018
210
0.0
220
1.0
230
-0.0000000000000002
  0
LINE
  5
14A0C
  8
0
  6
VERDECKT
 62
     1
 10
48.0154442465727698
 20
0.248069469178418
 30
-0.0000000000000001
 11
48.992277876713672
 21
8.0627385103057065
 31
-0.0000000000000018
210
0.0
220
1.0
230
-0.0000000000000002
  0
LINE
  5
14A0D
  8
0
  6
VERDECKT
 62
     1
 10
49.0
 20
96.7481925681526747
 30
-0.0000000000000215
 11
49.0
 21
8.1867732448949226
 31
-0.0000000000000018
210
0.0
220
1.0
230
-0.0000000000000002
  0
LINE
  5
14A0E
  8
0
  6
VERDECKT
 62
     1
 10
-49.0
 20
96.7481925681526747
 30
-0.0000000000000215
 11
-49.0
 21
8.1867732448949226
 31
-0.0000000000000018
210
0.0
220
1.0
230
-0.0000000000000002
  0
LINE
  5
14A0F
  8
0
  6
VERDECKT
 62
     1
 10
-51.0783843266099495
 20
104.0881571277385973
 30
-0.0000000000000231
 11
-61.7986015438736374
 21
121.5000000000000995
 31
-0.000000000000027
210
0.0
220
1.0
230
-0.0000000000000002
  0
LINE
  5
14A10
  8
0
  6
VERDECKT
 62
     1
 10
51.0783843266099495
 20
104.0881571277385973
 30
-0.0000000000000231
 11
61.7986015438736231
 21
121.5
 31
-0.000000000000027
210
0.0
220
1.0
230
-0.0000000000000002
  0
ARC
  5
14A11
  8
0
  6
VERDECKT
 62
     1
 10
-63.0000000000007674
 20
96.7481925681523336
 30
0.0
 40
14.0000000000007194
210
0.0
220
-0.0000000000000002
230
-1.0
 50
0.0000000000016284
 51
31.6199999999994787
  0
ARC
  5
14A12
  8
0
  6
VERDECKT
 62
     1
 10
63.0000000000007674
 20
96.7481925681523336
 30
0.0
 40
14.0000000000007194
210
0.0
220
-0.0000000000000002
230
-1.0
 50
148.380000000000507
 51
179.9999999999984084
  0
LINE
  5
14A13
  8
0
  6
VERDECKT
 62
     1
 10
48.0154442465727698
 20
0.2480694691784038
 30
-0.0000000000000001
 11
50.0
 21
0.0
 31
0.0
210
0.0
220
1.0
230
-0.0000000000000002
  0
LINE
  5
14A14
  8
0
  6
VERDECKT
 62
     1
 10
-48.0154442465727698
 20
0.2480694691784038
 30
-0.0000000000000001
 11
-50.0
 21
0.0
 31
0.0
210
0.0
220
1.0
230
-0.0000000000000002
  0
ENDBLK
  5
1496A
  8
0
  0
ENDSEC
  0
SECTION
  2
ENTITIES
  0
INSERT
  5
712A
  8
ADSK_ASSOC_ENTITY_BACKUPS
  2
*S0
 10
0.0
 20
0.0
 30
0.0
  0
INSERT
  5
148C0
  8
STEMPEL
  2
A$C568FF376
 10
0.0
 20
-300.0
 30
0.0
  0
INSERT
  5
1496B
  8
STEMPEL
  2
A$CE3D6C123
 10
0.0
 20
0.0
 30
0.0
  0
VIEWPORT
  5
7108
 67
     1
  8
0
 10
209.7499995171768035
 20
296.7499995008091105
 30
0.0
 40
1124.4528781298399736
 41
596.5961210150566103
 68
     1
 69
     1
1001
ACAD
1000
MVIEW
1002
{
1070
    16
1010
0.0
1020
0.0
1030
0.0
1010
0.0
1020
0.0
1030
1.0
1040
0.0
1040
596.5961210150566103
1040
209.7499995171768035
1040
296.7499995008091105
1040
50.0
1040
0.0
1040
0.0
1070
     0
1070
  1500
1070
     1
1070
     1
1070
     0
1070
     0
1070
     0
1070
     0
1040
0.0
1040
0.0
1040
0.0
1040
10.0
1040
10.0
1040
10.0
1040
10.0
1070
     0
1002
{
1002
}
1002
}
  0
ENDSEC
  0
EOF
