  0
SECTION
  2
HEADER
  9
$ACADVER
  1
AC1009
  9
$INSBASE
 10
0.0
 20
0.0
 30
0.0
  9
$EXTMIN
 10
-88.5000000000004832
 20
-197.7188084492109112
 30
1.9999999999999929
  9
$EXTMAX
 10
88.5000000000008384
 20
29.0000000000002309
 30
2.0
  9
$LIMMIN
 10
0.0
 20
0.0
  9
$LIMMAX
 10
420.0
 20
297.0
  9
$ORTHOMODE
 70
     1
  9
$REGENMODE
 70
     1
  9
$FILLMODE
 70
     1
  9
$QTEXTMODE
 70
     0
  9
$MIRRTEXT
 70
     1
  9
$DRAGMODE
 70
     2
  9
$LTSCALE
 40
10.0
  9
$OSMODE
 70
  1327
  9
$ATTMODE
 70
     1
  9
$TEXTSIZE
 40
3.5
  9
$TRACEWID
 40
1.0
  9
$TEXTSTYLE
  7
STANDARD
  9
$CLAYER
  8
0
  9
$CELTYPE
  6
BYLAYER
  9
$CECOLOR
 62
   256
  9
$DIMSCALE
 40
1.0
  9
$DIMASZ
 40
3.5
  9
$DIMEXO
 40
1.0
  9
$DIMDLI
 40
7.0
  9
$DIMRND
 40
0.0
  9
$DIMDLE
 40
0.0
  9
$DIMEXE
 40
1.0
  9
$DIMTP
 40
0.0
  9
$DIMTM
 40
0.0
  9
$DIMTXT
 40
3.5
  9
$DIMCEN
 40
1.5
  9
$DIMTSZ
 40
0.0
  9
$DIMTOL
 70
     0
  9
$DIMLIM
 70
     0
  9
$DIMTIH
 70
     0
  9
$DIMTOH
 70
     0
  9
$DIMSE1
 70
     0
  9
$DIMSE2
 70
     0
  9
$DIMTAD
 70
     1
  9
$DIMZIN
 70
     8
  9
$DIMBLK
  1

  9
$DIMASO
 70
     1
  9
$DIMSHO
 70
     0
  9
$DIMPOST
  1

  9
$DIMAPOST
  1

  9
$DIMALT
 70
     0
  9
$DIMALTD
 70
     2
  9
$DIMALTF
 40
25.3999999999999986
  9
$DIMLFAC
 40
1.0
  9
$DIMTOFL
 70
     1
  9
$DIMTVP
 40
0.0
  9
$DIMTIX
 70
     0
  9
$DIMSOXD
 70
     0
  9
$DIMSAH
 70
     0
  9
$DIMBLK1
  1

  9
$DIMBLK2
  1

  9
$DIMSTYLE
  2
STANDARD
  9
$DIMCLRD
 70
     0
  9
$DIMCLRE
 70
     0
  9
$DIMCLRT
 70
     1
  9
$DIMTFAC
 40
0.5
  9
$DIMGAP
 40
1.5
  9
$LUNITS
 70
     2
  9
$LUPREC
 70
     2
  9
$SKETCHINC
 40
1.0
  9
$FILLETRAD
 40
0.0
  9
$AUNITS
 70
     0
  9
$AUPREC
 70
     0
  9
$MENU
  1
ACAD
  9
$ELEVATION
 40
0.0
  9
$PELEVATION
 40
0.0
  9
$THICKNESS
 40
0.0
  9
$LIMCHECK
 70
     0
  9
$BLIPMODE
 70
     0
  9
$CHAMFERA
 40
0.0
  9
$CHAMFERB
 40
0.0
  9
$SKPOLY
 70
     0
  9
$TDCREATE
 40
2455397.867048610933125
  9
$TDUPDATE
 40
2458709.3284953702241182
  9
$TDINDWG
 40
0.1304791088
  9
$TDUSRTIMER
 40
0.1304791088
  9
$USRTIMER
 70
     1
  9
$ANGBASE
 50
0.0
  9
$ANGDIR
 70
     0
  9
$PDMODE
 70
     0
  9
$PDSIZE
 40
0.0
  9
$PLINEWID
 40
0.0
  9
$COORDS
 70
     1
  9
$SPLFRAME
 70
     0
  9
$SPLINETYPE
 70
     6
  9
$SPLINESEGS
 70
     8
  9
$ATTDIA
 70
     0
  9
$ATTREQ
 70
     0
  9
$HANDLING
 70
     1
  9
$HANDSEED
  5
1DAB
  9
$SURFTAB1
 70
     6
  9
$SURFTAB2
 70
     6
  9
$SURFTYPE
 70
     6
  9
$SURFU
 70
     6
  9
$SURFV
 70
     6
  9
$UCSNAME
  2

  9
$UCSORG
 10
0.0
 20
0.0
 30
0.0
  9
$UCSXDIR
 10
1.0
 20
0.0
 30
0.0
  9
$UCSYDIR
 10
0.0
 20
1.0
 30
0.0
  9
$PUCSNAME
  2

  9
$PUCSORG
 10
0.0
 20
0.0
 30
0.0
  9
$PUCSXDIR
 10
1.0
 20
0.0
 30
0.0
  9
$PUCSYDIR
 10
0.0
 20
1.0
 30
0.0
  9
$USERI1
 70
     0
  9
$USERI2
 70
     0
  9
$USERI3
 70
     0
  9
$USERI4
 70
     0
  9
$USERI5
 70
     0
  9
$USERR1
 40
0.0
  9
$USERR2
 40
0.0
  9
$USERR3
 40
0.0
  9
$USERR4
 40
0.0
  9
$USERR5
 40
0.0
  9
$WORLDVIEW
 70
     1
  9
$SHADEDGE
 70
     3
  9
$SHADEDIF
 70
    70
  9
$TILEMODE
 70
     1
  9
$MAXACTVP
 70
    16
  9
$PLIMCHECK
 70
     0
  9
$PEXTMIN
 10
1.0000000000000000E+20
 20
1.0000000000000000E+20
 30
1.0000000000000000E+20
  9
$PEXTMAX
 10
-1.0000000000000000E+20
 20
-1.0000000000000000E+20
 30
-1.0000000000000000E+20
  9
$PLIMMIN
 10
-216.8960389678240972
 20
418.3537863460321091
  9
$PLIMMAX
 10
203.1039610321759028
 20
715.3537863460320523
  9
$UNITMODE
 70
     0
  9
$VISRETAIN
 70
     0
  9
$PLINEGEN
 70
     0
  9
$PSLTSCALE
 70
     0
  0
ENDSEC
  0
SECTION
  2
TABLES
  0
TABLE
  2
VPORT
 70
     1
  0
VPORT
  2
*ACTIVE
 70
     0
 10
0.0
 20
0.0
 11
1.0
 21
1.0
 12
-0.0007629394529403
 22
-84.3594042246053561
 13
0.0
 23
0.0
 14
1.0
 24
1.0
 15
10.0
 25
10.0
 16
-0.000000000000143
 26
0.0
 36
644.1876511329232926
 17
0.000762939453125
 27
0.0000000000000142
 37
1.999999999999996
 40
228.4002829247307034
 41
1.870049504950495
 42
50.0
 43
0.0
 44
0.0
 50
0.0
 51
0.0
 71
     0
 72
  1500
 73
     1
 74
     0
 75
     0
 76
     0
 77
     0
 78
     0
  0
ENDTAB
  0
TABLE
  2
LTYPE
 70
     7
  0
LTYPE
  2
CONTINUOUS
 70
     0
  3
Solid line
 72
    65
 73
     0
 40
0.0
  0
LTYPE
  2
AUSGEZOGEN
 70
     0
  3
Ausgezogene Linie
 72
    65
 73
     0
 40
0.0
  0
LTYPE
  2
VERDECKT
 70
     0
  3
Verdeckt __ __ __ __ __ __ __ __ __ __ __ __ __
 72
    65
 73
     2
 40
0.375
 49
0.25
 49
-0.125
  0
ENDTAB
  0
TABLE
  2
LAYER
 70
    16
  0
LAYER
  2
0
 70
     0
 62
     7
  6
CONTINUOUS
  0
LAYER
  2
DEFPOINTS
 70
     0
 62
     7
  6
AUSGEZOGEN
  0
LAYER
  2
ADSK_ASSOC_ENTITY_BACKUPS
 70
     1
 62
    -7
  6
CONTINUOUS
  0
ENDTAB
  0
TABLE
  2
STYLE
 70
     4
  0
STYLE
  2
STANDARD
 70
     0
 40
0.0
 41
0.8
 50
0.0
 71
     0
 42
3.5
  3
simplex.shx
  4

  0
ENDTAB
  0
TABLE
  2
VIEW
 70
     1
  0
ENDTAB
  0
TABLE
  2
UCS
 70
     0
  0
ENDTAB
  0
TABLE
  2
APPID
 70
    20
  0
APPID
  2
ACAD
 70
     0
  0
APPID
  2
ACAECLAYERSTANDARD
 70
     0
  0
APPID
  2
ACCMTRANSPARENCY
 70
     0
  0
APPID
  2
ACAD_NAV_VCDISPLAY
 70
     0
  0
APPID
  2
ACAD_PSEXT
 70
     0
  0
APPID
  2
ACAD_MLEADERVER
 70
     0
  0
APPID
  2
ACAD_OBJECT_CHANGE_GUID
 70
     0
  0
APPID
  2
ACAD_EXEMPT_FROM_CAD_STANDARDS
 70
     0
  0
APPID
  2
ACSYNERGY
 70
     0
  0
APPID
  2
SYNERGY_BODY_TBR_ID
 70
     0
  0
APPID
  2
ACAD_VIEW_EDGE_ID
 70
     0
  0
APPID
  2
ACSYNERGYSKETCH
 70
     0
  0
APPID
  2
ACAD_MODELDOC_XFORM
 70
     0
  0
APPID
  2
GRADIENTCOLOR1ACI
 70
     0
  0
APPID
  2
GRADIENTCOLOR2ACI
 70
     0
  0
APPID
  2
ACAD_DSTYLE_DIMRADIAL_EXTENSION
 70
     0
  0
APPID
  2
ACADANNOMONITORALERTICONDI
 70
     0
  0
APPID
  2
ACAD_DIMASSOC_CALC_DIMLFAC
 70
     0
  0
APPID
  2
ACAD_DIMASSOC_DIMLFAC
 70
     0
  0
APPID
  2
ACAD_DIMASSOC_OVERRIDDEN_D
 70
     0
  0
ENDTAB
  0
TABLE
  2
DIMSTYLE
 70
     2
  0
DIMSTYLE
  2
STANDARD
 70
     0
  3

  4

  5

  6

  7

 40
1.0
 41
0.18
 42
0.0625
 43
0.38
 44
0.18
 45
0.0
 46
0.0
 47
0.0
 48
0.0
140
0.18
141
0.09
142
0.0
143
25.3999999999999986
144
1.0
145
0.0
146
1.0
147
0.09
 71
     0
 72
     0
 73
     1
 74
     1
 75
     0
 76
     0
 77
     0
 78
     0
170
     0
171
     2
172
     0
173
     0
174
     0
175
     0
176
     0
177
     0
178
     0
  0
ENDTAB
  0
ENDSEC
  0
SECTION
  2
BLOCKS
  0
BLOCK
  8
0
  2
$MODEL_SPACE
 70
     0
 10
0.0
 20
0.0
 30
0.0
  3
$MODEL_SPACE
  1

  0
ENDBLK
  5
38
  8
0
  0
BLOCK
 67
     1
  8
0
  2
$PAPER_SPACE
 70
     0
 10
0.0
 20
0.0
 30
0.0
  3
$PAPER_SPACE
  1

  0
ENDBLK
  5
36
 67
     1
  8
0
  0
BLOCK
  8
0
  2
*S2
 70
     1
 10
0.0
 20
0.0
 30
0.0
  3
*S2
  1

  0
ENDBLK
  5
1487
  8
0
  0
BLOCK
  8
0
  2
A$C533B25AF
 70
     0
 10
0.0
 20
0.0
 30
0.0
  3
A$C533B25AF
  1

  0
CIRCLE
  5
1D0D
  8
0
  6
CONTINUOUS
 62
     3
 10
-0.0000000000000042
 20
0.0000000000000123
 30
0.0
 40
70.3000000000001108
  0
CIRCLE
  5
1D0E
  8
0
  6
CONTINUOUS
 62
     3
 10
-0.0000000000000004
 20
0.0000000000000112
 30
0.0
 40
62.5
  0
CIRCLE
  5
1D0F
  8
0
  6
CONTINUOUS
 62
     3
 10
-0.0000000000000031
 20
0.0000000000000119
 30
0.0
 40
88.5000000000001279
  0
CIRCLE
  5
1D10
  8
0
  6
VERDECKT
 62
     1
 10
-0.000000000000006
 20
0.0000000000000128
 30
0.0
 40
73.0000000000000284
  0
CIRCLE
  5
1D11
  8
0
  6
VERDECKT
 62
     1
 10
-0.000000000000006
 20
0.0000000000000128
 30
0.0
 40
75.0000000000000284
  0
CIRCLE
  5
1D12
  8
0
  6
VERDECKT
 62
     1
 10
-0.0000000000000024
 20
0.0000000000000118
 30
0.0
 40
83.7000000000001734
  0
CIRCLE
  5
1D13
  8
0
  6
VERDECKT
 62
     1
 10
0.0000000000000002
 20
0.000000000000011
 30
0.0
 40
76.9999999999999858
  0
CIRCLE
  5
1D14
  8
0
  6
VERDECKT
 62
     1
 10
0.0000000000000002
 20
0.000000000000011
 30
0.0
 40
71.7320508075689247
  0
CIRCLE
  5
1D15
  8
0
  6
VERDECKT
 62
     1
 10
0.0
 20
0.0000000000000111
 30
0.0
 40
70.0000000000001137
  0
CIRCLE
  5
1D16
  8
0
  6
VERDECKT
 62
     1
 10
-0.000000000000006
 20
0.0000000000000128
 30
0.0
 40
73.0000000000000284
  0
CIRCLE
  5
1D17
  8
0
  6
VERDECKT
 62
     1
 10
-0.000000000000006
 20
0.0000000000000128
 30
0.0
 40
75.0000000000000284
  0
ENDBLK
  5
1D19
  8
0
  0
BLOCK
  8
0
  2
A$C236E6000
 70
     0
 10
0.0
 20
0.0
 30
0.0
  3
A$C236E6000
  1

  0
LINE
  5
1D1D
  8
0
  6
CONTINUOUS
 62
     3
 10
-74.9923603249134203
 20
29.0000000000002096
 30
-0.0000000000000064
 11
74.9923603249136335
 21
28.9999999999997513
 31
-0.0000000000000064
210
0.0
220
1.0
230
-0.0000000000000002
  0
LINE
  5
1D1E
  8
0
  6
CONTINUOUS
 62
     3
 10
-83.7000000000001592
 20
10.6047404107118801
 30
-0.0000000000000024
 11
83.7000000000001592
 21
10.6047404107114307
 31
-0.0000000000000024
210
0.0
220
1.0
230
-0.0000000000000002
  0
LINE
  5
1D1F
  8
0
  6
CONTINUOUS
 62
     3
 10
-77.0
 20
-0.9999999999998296
 30
0.0000000000000002
 11
77.0
 21
-1.000000000000284
 31
0.0000000000000002
210
0.0
220
1.0
230
-0.0000000000000002
  0
ARC
  5
1D20
  8
0
  6
CONTINUOUS
 62
     3
 10
74.9923603249132356
 20
27.0000000000000391
 30
0.0
 40
2.0000000000001301
210
0.0
220
-0.0000000000000002
230
-1.0
 50
5.0000000000032534
 51
89.9999999999951257
  0
ARC
  5
1D21
  8
0
  6
CONTINUOUS
 62
     3
 10
-74.9923603249135056
 20
26.9999999999996412
 30
0.0
 40
2.000000000000099
210
0.0
220
-0.0000000000000002
230
-1.0
 50
90.0000000000028564
 51
174.9999999999978968
  0
LINE
  5
1D22
  8
0
  6
CONTINUOUS
 62
     3
 10
76.9847497210970175
 20
27.1743114854950285
 30
-0.000000000000006
 11
77.9047732021437298
 21
16.6583949773615885
 31
-0.0000000000000037
210
0.0
220
1.0
230
-0.0000000000000002
  0
LINE
  5
1D23
  8
0
  6
CONTINUOUS
 62
     3
 10
-76.9847497210969891
 20
27.1743114854954904
 30
-0.000000000000006
 11
-77.9047732021437582
 21
16.6583949773620397
 31
-0.0000000000000037
210
0.0
220
1.0
230
-0.0000000000000002
  0
ARC
  5
1D24
  8
0
  6
CONTINUOUS
 62
     3
 10
79.8971625983250391
 20
16.8327064628569616
 30
0.0
 40
1.9999999999977769
210
0.0
220
-0.0000000000000002
230
-1.0
 50
184.999999999994003
 51
195.1737024718943871
  0
ARC
  5
1D25
  8
0
  6
CONTINUOUS
 62
     3
 10
-79.8971625983266307
 20
16.8327064628567307
 30
0.0
 40
1.999999999999382
210
0.0
220
-0.0000000000000002
230
-1.0
 50
344.8262975281118088
 51
355.0000000000036948
  0
ARC
  5
1D26
  8
0
  6
CONTINUOUS
 62
     3
 10
86.0000000000001279
 20
13.8092140043286697
 30
0.0
 40
2.4999999999999778
210
0.0
220
-0.0000000000000002
230
-1.0
 50
284.9999999999993179
 51
90.0
  0
ARC
  5
1D27
  8
0
  6
CONTINUOUS
 62
     3
 10
-86.0000000000001279
 20
13.8092140043281795
 30
0.0
 40
2.4999999999999778
210
0.0
220
-0.0000000000000002
230
-1.0
 50
90.0
 51
255.0
  0
LINE
  5
1D28
  8
0
  6
CONTINUOUS
 62
     3
 10
86.0000000000001279
 20
16.3092140043281617
 30
-0.0000000000000036
 11
-86.0000000000001279
 21
16.3092140043286484
 31
-0.0000000000000036
210
0.0
220
1.0
230
-0.0000000000000002
  0
LINE
  5
1D29
  8
0
  6
CONTINUOUS
 62
     3
 10
-83.7000000000001592
 20
10.6047404107118801
 30
-0.0000000000000024
 11
-86.647047612756424
 21
11.3943994386060297
 31
-0.0000000000000025
210
0.0
220
1.0
230
-0.0000000000000002
  0
LINE
  5
1D2A
  8
0
  6
CONTINUOUS
 62
     3
 10
83.7000000000001734
 20
10.60474041071142
 30
-0.0000000000000024
 11
86.647047612756424
 21
11.3943994386055394
 31
-0.0000000000000025
210
0.0
220
1.0
230
-0.0000000000000002
  0
LINE
  5
1D2B
  8
0
  6
CONTINUOUS
 62
     3
 10
-77.0000000000000426
 20
-0.9999999999998536
 30
0.0000000000000002
 11
-83.7000000000002018
 21
10.6047404107118606
 31
-0.0000000000000024
210
0.0
220
1.0
230
-0.0000000000000002
  0
LINE
  5
1D2C
  8
0
  6
CONTINUOUS
 62
     3
 10
77.0000000000000142
 20
-1.0000000000002871
 30
0.0000000000000002
 11
83.7000000000002444
 21
10.6047404107113898
 31
-0.0000000000000024
210
0.0
220
1.0
230
-0.0000000000000002
  0
LINE
  5
1D2D
  8
0
  6
VERDECKT
 62
     1
 10
-74.9999999999998863
 20
4.000000000000199
 30
-0.0000000000000009
 11
74.9999999999998863
 21
3.999999999999801
 31
-0.0000000000000009
210
0.0
220
1.0
230
-0.0000000000000002
  0
LINE
  5
1D2E
  8
0
  6
VERDECKT
 62
     1
 10
-75.0
 20
27.0000000000001492
 30
-0.000000000000006
 11
75.0
 21
26.9999999999997513
 31
-0.000000000000006
210
0.0
220
1.0
230
-0.0000000000000002
  0
LINE
  5
1D2F
  8
0
  6
VERDECKT
 62
     1
 10
73.0000000000000284
 20
26.9999999999997691
 30
-0.000000000000006
 11
72.9999999999999716
 21
3.9999999999997939
 31
-0.0000000000000009
210
0.0
220
1.0
230
-0.0000000000000002
  0
LINE
  5
1D30
  8
0
  6
VERDECKT
 62
     1
 10
-72.9999999999999716
 20
27.0000000000001812
 30
-0.000000000000006
 11
-73.0000000000000284
 21
4.000000000000199
 31
-0.0000000000000009
210
0.0
220
1.0
230
-0.0000000000000002
  0
LINE
  5
1D31
  8
0
  6
VERDECKT
 62
     1
 10
75.0000000000000284
 20
26.9999999999997407
 30
-0.000000000000006
 11
74.9999999999999716
 21
3.9999999999997868
 31
-0.0000000000000009
210
0.0
220
1.0
230
-0.0000000000000002
  0
LINE
  5
1D32
  8
0
  6
VERDECKT
 62
     1
 10
-74.9999999999999716
 20
27.0000000000001812
 30
-0.000000000000006
 11
-75.0000000000000284
 21
4.000000000000199
 31
-0.0000000000000009
210
0.0
220
1.0
230
-0.0000000000000002
  0
LINE
  5
1D33
  8
0
  6
VERDECKT
 62
     1
 10
-70.3000000000000682
 20
19.0000000000000604
 30
-0.0000000000000042
 11
70.3000000000000682
 21
18.9999999999997193
 31
-0.0000000000000042
210
0.0
220
1.0
230
-0.0000000000000002
  0
LINE
  5
1D34
  8
0
  6
VERDECKT
 62
     1
 10
-70.0000000000001137
 20
0.0000000000001705
 30
0.0
 11
70.0000000000001137
 21
-0.0000000000002274
 31
0.0
210
0.0
220
1.0
230
-0.0000000000000002
  0
LINE
  5
1D35
  8
0
  6
VERDECKT
 62
     1
 10
-63.3218007376453897
 20
2.0000000000001701
 30
-0.0000000000000004
 11
63.3218007376453897
 21
1.999999999999829
 31
-0.0000000000000004
210
0.0
220
1.0
230
-0.0000000000000002
  0
LINE
  5
1D36
  8
0
  6
VERDECKT
 62
     1
 10
-74.9999999999998863
 20
4.000000000000199
 30
-0.0000000000000009
 11
74.9999999999998863
 21
3.999999999999801
 31
-0.0000000000000009
210
0.0
220
1.0
230
-0.0000000000000002
  0
LINE
  5
1D37
  8
0
  6
VERDECKT
 62
     1
 10
-75.0
 20
27.0000000000001492
 30
-0.000000000000006
 11
75.0
 21
26.9999999999997513
 31
-0.000000000000006
210
0.0
220
1.0
230
-0.0000000000000002
  0
LINE
  5
1D38
  8
0
  6
VERDECKT
 62
     1
 10
-65.2914162436698007
 20
3.652703644666305
 30
-0.0000000000000008
 11
-67.6332883674565437
 21
16.9341204441675188
 31
-0.0000000000000038
210
0.0
220
1.0
230
-0.0000000000000002
  0
LINE
  5
1D39
  8
0
  6
VERDECKT
 62
     1
 10
65.2914162436697438
 20
3.6527036446659249
 30
-0.0000000000000008
 11
67.6332883674565863
 21
16.9341204441671316
 31
-0.0000000000000038
210
0.0
220
1.0
230
-0.0000000000000002
  0
ARC
  5
1D3A
  8
0
  6
VERDECKT
 62
     1
 10
70.0953077499870432
 20
16.5000000000001705
 30
0.0
 40
2.4999999999999498
210
0.0
220
-0.0000000000000002
230
-1.0
 50
89.9999999999987068
 51
169.9999999999992895
  0
ARC
  5
1D3B
  8
0
  6
VERDECKT
 62
     1
 10
-70.0953077499870432
 20
16.4999999999997797
 30
0.0
 40
2.4999999999999418
210
0.0
220
-0.0000000000000002
230
-1.0
 50
10.0000000000008402
 51
90.0000000000026148
  0
LINE
  5
1D3C
  8
0
  6
VERDECKT
 62
     1
 10
-70.3000000000001251
 20
19.0000000000001101
 30
-0.0000000000000042
 11
-71.0151595871107446
 21
27.1743114854954797
 31
-0.000000000000006
210
0.0
220
1.0
230
-0.0000000000000002
  0
LINE
  5
1D3D
  8
0
  6
VERDECKT
 62
     1
 10
70.300000000000324
 20
18.9999999999997016
 30
-0.0000000000000042
 11
71.0151595871110146
 21
27.1743114854950782
 31
-0.000000000000006
210
0.0
220
1.0
230
-0.0000000000000002
  0
ARC
  5
1D3E
  8
0
  6
VERDECKT
 62
     1
 10
73.007548983294285
 20
27.0000000000000817
 30
0.0
 40
2.0000000000001381
210
0.0
220
-0.0000000000000002
230
-1.0
 50
90.0000000000020464
 51
174.9999999999974989
  0
ARC
  5
1D3F
  8
0
  6
VERDECKT
 62
     1
 10
-73.0075489832945124
 20
26.9999999999996589
 30
0.0
 40
2.000000000000143
210
0.0
220
-0.0000000000000002
230
-1.0
 50
5.0000000000028084
 51
89.9999999999967457
  0
ARC
  5
1D40
  8
0
  6
VERDECKT
 62
     1
 10
79.8971625983272418
 20
16.8327064628572884
 30
0.0
 40
1.99999999999999
210
0.0
220
-0.0000000000000002
230
-1.0
 50
195.1737024718871112
 51
270.0000000000003979
  0
ARC
  5
1D41
  8
0
  6
VERDECKT
 62
     1
 10
79.8971625983272702
 20
16.8327064628572103
 30
0.0
 40
1.9999999999999041
210
0.0
220
-0.0000000000000002
230
-1.0
 50
270.0
 51
285.0000000000006821
  0
ARC
  5
1D42
  8
0
  6
VERDECKT
 62
     1
 10
-79.8971625983272418
 20
16.8327064628569296
 30
0.0
 40
2.0000000000000902
210
0.0
220
-0.0000000000000002
230
-1.0
 50
254.9999999999990052
 51
269.9999999999996021
  0
ARC
  5
1D43
  8
0
  6
VERDECKT
 62
     1
 10
-79.897162598327256
 20
16.8327064628568586
 30
0.0
 40
2.0000000000000169
210
0.0
220
-0.0000000000000002
230
-1.0
 50
270.0
 51
344.8262975281126046
  0
LINE
  5
1D44
  8
0
  6
VERDECKT
 62
     1
 10
-79.8971625983272702
 20
14.8327064628573009
 30
-0.0000000000000033
 11
79.8971625983272702
 21
14.8327064628568497
 31
-0.0000000000000033
210
0.0
220
1.0
230
-0.0000000000000002
  0
LINE
  5
1D45
  8
0
  6
VERDECKT
 62
     1
 10
-80.4148006885322815
 20
14.9008548102792204
 30
-0.0000000000000033
 11
-85.3529523872438176
 21
16.2240285700513382
 31
-0.0000000000000036
210
0.0
220
1.0
230
-0.0000000000000002
  0
LINE
  5
1D46
  8
0
  6
VERDECKT
 62
     1
 10
80.4148006885323241
 20
14.9008548102787692
 30
-0.0000000000000033
 11
85.352952387243846
 21
16.2240285700508586
 31
-0.0000000000000036
210
0.0
220
1.0
230
-0.0000000000000002
  0
ARC
  5
1D47
  8
0
  6
VERDECKT
 62
     1
 10
86.0000000000001279
 20
13.8092140043286804
 30
0.0
 40
2.4999999999999658
210
0.0
220
-0.0000000000000002
230
-1.0
 50
90.0
 51
105.0000000000006963
  0
ARC
  5
1D48
  8
0
  6
VERDECKT
 62
     1
 10
-86.0000000000000995
 20
13.8092140043284797
 30
0.0
 40
2.4999999999996758
210
0.0
220
-0.0000000000000002
230
-1.0
 50
74.9999999999995026
 51
90.000000000001009
  0
LINE
  5
1D49
  8
0
  6
VERDECKT
 62
     1
 10
70.0000000000001137
 20
-0.0000000000002244
 30
0.0
 11
71.7320508075689247
 21
-1.0000000000002289
 31
0.0000000000000002
210
0.0
220
1.0
230
-0.0000000000000002
  0
LINE
  5
1D4A
  8
0
  6
VERDECKT
 62
     1
 10
-70.0000000000001137
 20
0.0000000000001724
 30
0.0
 11
-71.7320508075689531
 21
-0.9999999999998278
 31
0.0000000000000002
210
0.0
220
1.0
230
-0.0000000000000002
  0
LINE
  5
1D4B
  8
0
  6
VERDECKT
 62
     1
 10
62.4999999999998934
 20
1.9999999999998219
 30
-0.0000000000000004
 11
62.4999999999998934
 21
-0.0000000000001776
 31
0.0
210
0.0
220
1.0
230
-0.0000000000000002
  0
LINE
  5
1D4C
  8
0
  6
VERDECKT
 62
     1
 10
-62.4999999999998934
 20
2.0000000000001701
 30
-0.0000000000000004
 11
-62.4999999999998934
 21
0.0000000000001705
 31
0.0
210
0.0
220
1.0
230
-0.0000000000000002
  0
ARC
  5
1D4D
  8
0
  6
VERDECKT
 62
     1
 10
63.3218007376453969
 20
4.0000000000001501
 30
0.0
 40
1.999999999999968
210
0.0
220
-0.0000000000000002
230
-1.0
 50
270.0
 51
350.0000000000006821
  0
ARC
  5
1D4E
  8
0
  6
VERDECKT
 62
     1
 10
-63.3218007376453897
 20
3.9999999999998028
 30
0.0
 40
1.999999999999984
210
0.0
220
-0.0000000000000002
230
-1.0
 50
190.0000000000005116
 51
270.0
  0
LINE
  5
1D4F
  8
0
  6
VERDECKT
 62
     1
 10
73.0000000000000284
 20
26.9999999999997691
 30
-0.000000000000006
 11
72.9999999999999716
 21
3.9999999999997939
 31
-0.0000000000000009
210
0.0
220
1.0
230
-0.0000000000000002
  0
LINE
  5
1D50
  8
0
  6
VERDECKT
 62
     1
 10
-72.9999999999999716
 20
27.0000000000001812
 30
-0.000000000000006
 11
-73.0000000000000284
 21
4.000000000000199
 31
-0.0000000000000009
210
0.0
220
1.0
230
-0.0000000000000002
  0
LINE
  5
1D51
  8
0
  6
VERDECKT
 62
     1
 10
75.0000000000000284
 20
26.9999999999997407
 30
-0.000000000000006
 11
74.9999999999999716
 21
3.9999999999997868
 31
-0.0000000000000009
210
0.0
220
1.0
230
-0.0000000000000002
  0
LINE
  5
1D52
  8
0
  6
VERDECKT
 62
     1
 10
-74.9999999999999716
 20
27.0000000000001812
 30
-0.000000000000006
 11
-75.0000000000000284
 21
4.000000000000199
 31
-0.0000000000000009
210
0.0
220
1.0
230
-0.0000000000000002
  0
ENDBLK
  5
1D54
  8
0
  0
ENDSEC
  0
SECTION
  2
ENTITIES
  0
INSERT
  5
1489
  8
ADSK_ASSOC_ENTITY_BACKUPS
  2
*S2
 10
0.0
 20
0.0
 30
0.0
  0
INSERT
  5
1D1A
  8
0
  2
A$C533B25AF
 10
0.0
 20
-109.2188084492103002
 30
2.0
  0
INSERT
  5
1D55
  8
0
  2
A$C236E6000
 10
0.0000000000000002
 20
0.0000000000000223
 30
2.0
  0
VIEWPORT
  5
12AA
 67
     1
  8
0
 10
-6.8960389678241114
 20
566.8537863460320523
 30
0.0
 40
559.523897306294316
 41
299.2027194066749871
 68
     1
 69
     1
1001
ACAD
1000
MVIEW
1002
{
1070
    16
1010
0.0
1020
0.0
1030
0.0
1010
0.0
1020
0.0
1030
1.0
1040
0.0
1040
299.2027194066749871
1040
-6.8960389678241114
1040
566.8537863460320523
1040
50.0
1040
0.0
1040
0.0
1070
     0
1070
  1500
1070
     1
1070
     1
1070
     0
1070
     0
1070
     0
1070
     0
1040
0.0
1040
0.0
1040
0.0
1040
10.0
1040
10.0
1040
10.0
1040
10.0
1070
     0
1002
{
1002
}
1002
}
  0
ENDSEC
  0
EOF
