  0
SECTION
  2
HEADER
  9
$ACADVER
  1
AC1009
  9
$INSBASE
 10
0.0
 20
0.0
 30
0.0
  9
$EXTMIN
 10
-74.2504374192334637
 20
100.7168991366360018
 30
-6.5000000000000044
  9
$EXTMAX
 10
99.0819853618603332
 20
481.6361152510397119
 30
53.866038776972232
  9
$LIMMIN
 10
0.0
 20
0.0
  9
$LIMMAX
 10
210.0
 20
297.0
  9
$ORTHOMODE
 70
     1
  9
$REGENMODE
 70
     1
  9
$FILLMODE
 70
     1
  9
$QTEXTMODE
 70
     0
  9
$MIRRTEXT
 70
     1
  9
$DRAGMODE
 70
     2
  9
$LTSCALE
 40
10.0
  9
$OSMODE
 70
    39
  9
$ATTMODE
 70
     1
  9
$TEXTSIZE
 40
3.5
  9
$TRACEWID
 40
0.5
  9
$TEXTSTYLE
  7
STANDARD
  9
$CLAYER
  8
BEM
  9
$CELTYPE
  6
BYLAYER
  9
$CECOLOR
 62
   256
  9
$DIMSCALE
 40
1.0
  9
$DIMASZ
 40
3.5
  9
$DIMEXO
 40
1.0
  9
$DIMDLI
 40
7.0
  9
$DIMRND
 40
0.0
  9
$DIMDLE
 40
0.0
  9
$DIMEXE
 40
1.0
  9
$DIMTP
 40
0.2
  9
$DIMTM
 40
0.5
  9
$DIMTXT
 40
3.5
  9
$DIMCEN
 40
1.5
  9
$DIMTSZ
 40
0.0
  9
$DIMTOL
 70
     0
  9
$DIMLIM
 70
     0
  9
$DIMTIH
 70
     0
  9
$DIMTOH
 70
     0
  9
$DIMSE1
 70
     0
  9
$DIMSE2
 70
     0
  9
$DIMTAD
 70
     1
  9
$DIMZIN
 70
     8
  9
$DIMBLK
  1

  9
$DIMASO
 70
     1
  9
$DIMSHO
 70
     0
  9
$DIMPOST
  1

  9
$DIMAPOST
  1

  9
$DIMALT
 70
     0
  9
$DIMALTD
 70
     2
  9
$DIMALTF
 40
25.3999999999999986
  9
$DIMLFAC
 40
2.0
  9
$DIMTOFL
 70
     1
  9
$DIMTVP
 40
0.0
  9
$DIMTIX
 70
     0
  9
$DIMSOXD
 70
     0
  9
$DIMSAH
 70
     0
  9
$DIMBLK1
  1

  9
$DIMBLK2
  1

  9
$DIMSTYLE
  2
STANDARD
  9
$DIMCLRD
 70
     0
  9
$DIMCLRE
 70
     0
  9
$DIMCLRT
 70
     1
  9
$DIMTFAC
 40
0.5
  9
$DIMGAP
 40
1.5
  9
$LUNITS
 70
     2
  9
$LUPREC
 70
     2
  9
$SKETCHINC
 40
1.0
  9
$FILLETRAD
 40
15.0
  9
$AUNITS
 70
     0
  9
$AUPREC
 70
     0
  9
$MENU
  1
ACAD
  9
$ELEVATION
 40
0.0
  9
$PELEVATION
 40
0.0
  9
$THICKNESS
 40
0.0
  9
$LIMCHECK
 70
     0
  9
$BLIPMODE
 70
     0
  9
$CHAMFERA
 40
0.0
  9
$CHAMFERB
 40
0.0
  9
$SKPOLY
 70
     0
  9
$TDCREATE
 40
2455397.8646990740671754
  9
$TDUPDATE
 40
2460115.500428241211921
  9
$TDINDWG
 40
0.26968
  9
$TDUSRTIMER
 40
0.26968
  9
$USRTIMER
 70
     1
  9
$ANGBASE
 50
0.0
  9
$ANGDIR
 70
     0
  9
$PDMODE
 70
     0
  9
$PDSIZE
 40
0.0
  9
$PLINEWID
 40
0.0
  9
$COORDS
 70
     1
  9
$SPLFRAME
 70
     0
  9
$SPLINETYPE
 70
     6
  9
$SPLINESEGS
 70
     8
  9
$ATTDIA
 70
     1
  9
$ATTREQ
 70
     1
  9
$HANDLING
 70
     1
  9
$HANDSEED
  5
7292
  9
$SURFTAB1
 70
     6
  9
$SURFTAB2
 70
     6
  9
$SURFTYPE
 70
     6
  9
$SURFU
 70
     6
  9
$SURFV
 70
     6
  9
$UCSNAME
  2

  9
$UCSORG
 10
0.0
 20
0.0
 30
0.0
  9
$UCSXDIR
 10
1.0
 20
0.0
 30
0.0
  9
$UCSYDIR
 10
0.0
 20
1.0
 30
0.0
  9
$PUCSNAME
  2

  9
$PUCSORG
 10
0.0
 20
0.0
 30
0.0
  9
$PUCSXDIR
 10
1.0
 20
0.0
 30
0.0
  9
$PUCSYDIR
 10
0.0
 20
1.0
 30
0.0
  9
$USERI1
 70
     0
  9
$USERI2
 70
     0
  9
$USERI3
 70
     0
  9
$USERI4
 70
     0
  9
$USERI5
 70
     0
  9
$USERR1
 40
0.0
  9
$USERR2
 40
0.0
  9
$USERR3
 40
0.0
  9
$USERR4
 40
0.0
  9
$USERR5
 40
0.0
  9
$WORLDVIEW
 70
     1
  9
$SHADEDGE
 70
     3
  9
$SHADEDIF
 70
    70
  9
$TILEMODE
 70
     1
  9
$MAXACTVP
 70
    16
  9
$PLIMCHECK
 70
     0
  9
$PEXTMIN
 10
1.884792791253062
 20
2.0445568151621951
 30
-0.0000000000112498
  9
$PEXTMAX
 10
211.8912002492864133
 20
299.0536184387652838
 30
0.0000000000118412
  9
$PLIMMIN
 10
1.887995218998582
 20
2.049085610220942
  9
$PLIMMAX
 10
211.8879952189986113
 20
299.0490856102209136
  9
$UNITMODE
 70
     0
  9
$VISRETAIN
 70
     0
  9
$PLINEGEN
 70
     0
  9
$PSLTSCALE
 70
     0
  0
ENDSEC
  0
SECTION
  2
TABLES
  0
TABLE
  2
VPORT
 70
     1
  0
VPORT
  2
*ACTIVE
 70
     0
 10
0.0
 20
0.0
 11
1.0
 21
1.0
 12
0.0
 22
0.0
 13
0.0
 23
0.0
 14
1.0
 24
1.0
 15
10.0
 25
10.0
 16
-0.000000000000199
 26
0.0
 36
865.6137162665592086
 17
96.7067651921036031
 27
393.3208369564371196
 37
23.6830193884860698
 40
363.380281654901296
 41
1.7331786542923431
 42
50.0
 43
0.0
 44
0.0
 50
0.0
 51
0.0
 71
     0
 72
  1500
 73
     1
 74
     0
 75
     0
 76
     0
 77
     0
 78
     0
  0
ENDTAB
  0
TABLE
  2
LTYPE
 70
     6
  0
LTYPE
  2
CONTINUOUS
 70
     0
  3
Solid line
 72
    65
 73
     0
 40
0.0
  0
LTYPE
  2
PHANTOM2
 70
     0
  3
Phantom (.5x) ___ _ _ ___ _ _ ___ _ _ ___ _ _
 72
    65
 73
     6
 40
1.25
 49
0.625
 49
-0.125
 49
0.125
 49
-0.125
 49
0.125
 49
-0.125
  0
LTYPE
  2
VERDECKT
 70
     0
  3
Verdeckt __ __ __ __ __ __ __ __ __ __ __ __ __
 72
    65
 73
     2
 40
0.375
 49
0.25
 49
-0.125
  0
ENDTAB
  0
TABLE
  2
LAYER
 70
    14
  0
LAYER
  2
0
 70
     0
 62
     7
  6
CONTINUOUS
  0
LAYER
  2
VOLL
 70
     0
 62
     1
  6
CONTINUOUS
  0
LAYER
  2
BEM
 70
     0
 62
     7
  6
CONTINUOUS
  0
LAYER
  2
DEFPOINTS
 70
     0
 62
     7
  6
CONTINUOUS
  0
LAYER
  2
ADSK_ASSOC_ENTITY_BACKUPS
 70
     1
 62
    -7
  6
CONTINUOUS
  0
LAYER
  2
BLECH
 70
     0
 62
   254
  6
CONTINUOUS
  0
ENDTAB
  0
TABLE
  2
STYLE
 70
     5
  0
STYLE
  2
STANDARD
 70
     0
 40
0.0
 41
0.8
 50
0.0
 71
     0
 42
3.5
  3
simplex.shx
  4

  0
STYLE
  2
GREEKS
 70
     0
 40
0.0
 41
0.8
 50
0.0
 71
     0
 42
2.5
  3
SIMPLEX.shx
  4

  0
STYLE
  2

 70
     1
 40
0.0
 41
1.0
 50
0.0
 71
     0
 42
3.5
  3
ltypeshp.shx
  4

  0
ENDTAB
  0
TABLE
  2
VIEW
 70
     1
  0
ENDTAB
  0
TABLE
  2
UCS
 70
     0
  0
ENDTAB
  0
TABLE
  2
APPID
 70
    30
  0
APPID
  2
ACAD
 70
     0
  0
APPID
  2
ACAD_NAV_VCDISPLAY
 70
     0
  0
APPID
  2
ACAD_MLEADERVER
 70
     0
  0
APPID
  2
ACAD_EXEMPT_FROM_CAD_STANDARDS
 70
     0
  0
APPID
  2
ACAD_PSEXT
 70
     0
  0
APPID
  2
ACAECLAYERSTANDARD
 70
     0
  0
APPID
  2
ACAUTHENVIRON
 70
     0
  0
APPID
  2
ACCMTRANSPARENCY
 70
     0
  0
APPID
  2
ACAD_STEPID
 70
     0
  0
APPID
  2
ACSYNERGY
 70
     0
  0
APPID
  2
SYNERGY_BODY_TBR_ID
 70
     0
  0
APPID
  2
ACAD_VIEW_EDGE_ID
 70
     0
  0
APPID
  2
ACSYNERGYSKETCH
 70
     0
  0
APPID
  2
ACAD_MODELDOC_XFORM
 70
     0
  0
APPID
  2
ACAD_DSTYLE_DIMJAG
 70
     0
  0
APPID
  2
ACAD_DSTYLE_DIMTALN
 70
     0
  0
APPID
  2
ACADANNOMONITORALERTICONDI
 70
     0
  0
APPID
  2
ACAD_DIMASSOC_CALC_DIMLFAC
 70
     0
  0
APPID
  2
ACAD_DIMASSOC_DIMLFAC
 70
     0
  0
APPID
  2
ACAD_DIMASSOC_OVERRIDDEN_D
 70
     0
  0
APPID
  2
ACAD_DSTYLE_DIMRADIAL_EXTENSION
 70
     0
  0
APPID
  2
ACADANNOAV
 70
     0
  0
APPID
  2
ACDBDYNAMICBLOCKTRUENAME
 70
     0
  0
APPID
  2
ACDBDYNAMICBLOCKGUID
 70
     0
  0
APPID
  2
ACAD_DSTYLE_DIMBREAK
 70
     0
  0
APPID
  2
ACADANNOPO
 70
     0
  0
APPID
  2
GRADIENTCOLOR1ACI
 70
     0
  0
APPID
  2
GRADIENTCOLOR2ACI
 70
     0
  0
APPID
  2
ACAD_TC
 70
     0
  0
APPID
  2
AcDbAttr
 70
     0
  0
ENDTAB
  0
TABLE
  2
DIMSTYLE
 70
     2
  0
DIMSTYLE
  2
STANDARD
 70
     0
  3

  4

  5

  6

  7

 40
1.0
 41
0.18
 42
0.0625
 43
0.38
 44
0.18
 45
0.0
 46
0.0
 47
0.0
 48
0.0
140
0.18
141
0.09
142
0.0
143
25.3999999999999986
144
1.0
145
0.0
146
1.0
147
0.09
 71
     0
 72
     0
 73
     1
 74
     1
 75
     0
 76
     0
 77
     0
 78
     0
170
     0
171
     2
172
     0
173
     0
174
     0
175
     0
176
     0
177
     0
178
     0
  0
ENDTAB
  0
ENDSEC
  0
SECTION
  2
BLOCKS
  0
BLOCK
  8
0
  2
$MODEL_SPACE
 70
     0
 10
0.0
 20
0.0
 30
0.0
  3
$MODEL_SPACE
  1

  0
ENDBLK
  5
36
  8
0
  0
BLOCK
 67
     1
  8
0
  2
$PAPER_SPACE
 70
     0
 10
0.0
 20
0.0
 30
0.0
  3
$PAPER_SPACE
  1

  0
ENDBLK
  5
34
 67
     1
  8
0
  0
BLOCK
  8
0
  2
*S0
 70
     1
 10
0.0
 20
0.0
 30
0.0
  3
*S0
  1

  0
ENDBLK
  5
B3A
  8
0
  0
BLOCK
  8
0
  2
A$C2AAF2F9D
 70
     0
 10
0.0
 20
0.0
 30
0.0
  3
A$C2AAF2F9D
  1

  0
LINE
  5
71BE
  8
0
  6
CONTINUOUS
 62
     3
 10
31.3641175861546593
 20
243.6242887764234979
 30
0.0000000000000071
 11
21.3641175861546593
 21
243.6242887764234979
 31
0.0000000000000048
  0
LINE
  5
71BF
  8
0
  6
CONTINUOUS
 62
     3
 10
31.3641175861546593
 20
243.6242887764234979
 30
0.0000000000000071
 11
31.3641175861546593
 21
245.4347669123415869
 31
0.0000000000000071
  0
LINE
  5
71C0
  8
0
  6
CONTINUOUS
 62
     3
 10
21.3641175861546593
 20
245.4347669123415869
 30
0.0000000000000049
 11
21.3641175861546593
 21
243.6242887764234979
 31
0.0000000000000049
  0
LINE
  5
71C1
  8
0
  6
CONTINUOUS
 62
     3
 10
21.3641175861546699
 20
245.4347669123415869
 30
0.0000000000000049
 11
-42.6358824138454224
 21
245.4347669123415869
 31
-0.0000000000000098
  0
LINE
  5
71C2
  8
0
  6
CONTINUOUS
 62
     3
 10
95.3641175861545918
 20
245.4347669123415869
 30
0.0000000000000218
 11
31.3641175861546593
 21
245.4347669123415869
 31
0.0000000000000071
  0
LINE
  5
71C3
  8
0
  6
CONTINUOUS
 62
     3
 10
-43.8254042779271984
 20
178.4347669123415869
 30
-0.00000000000001
 11
-43.8254042779271913
 21
168.4347669123415869
 31
-0.00000000000001
  0
LINE
  5
71C4
  8
0
  6
CONTINUOUS
 62
     3
 10
-43.8254042779271984
 20
178.4347669123417006
 30
-0.00000000000001
 11
-45.6358824138453087
 21
178.4347669123417006
 31
-0.0000000000000104
  0
LINE
  5
71C5
  8
0
  6
CONTINUOUS
 62
     3
 10
-45.6358824138452874
 20
168.4347669123415869
 30
-0.0000000000000104
 11
-43.8254042779271984
 21
168.4347669123415869
 31
-0.00000000000001
  0
LINE
  5
71C6
  8
0
  6
CONTINUOUS
 62
     3
 10
-45.6358824138452874
 20
104.4347669123417006
 30
-0.0000000000000104
 11
-45.6358824138452874
 21
168.4347669123415869
 31
-0.0000000000000104
  0
LINE
  5
71C7
  8
0
  6
CONTINUOUS
 62
     3
 10
-45.6358824138452874
 20
178.4347669123415869
 30
-0.0000000000000104
 11
-45.6358824138452874
 21
242.4347669123415869
 31
-0.0000000000000104
  0
LINE
  5
71C8
  8
0
  6
CONTINUOUS
 62
     3
 10
21.3641175861546593
 20
103.2452450482597044
 30
0.0000000000000049
 11
31.3641175861546593
 21
103.2452450482597044
 31
0.0000000000000072
  0
LINE
  5
71C9
  8
0
  6
CONTINUOUS
 62
     3
 10
21.3641175861546593
 20
103.2452450482597044
 30
0.0000000000000049
 11
21.3641175861546593
 21
101.4347669123416011
 31
0.0000000000000049
  0
LINE
  5
71CA
  8
0
  6
CONTINUOUS
 62
     3
 10
31.3641175861546593
 20
101.4347669123416011
 30
0.0000000000000071
 11
31.3641175861546593
 21
103.2452450482597044
 31
0.0000000000000071
  0
LINE
  5
71CB
  8
0
  6
CONTINUOUS
 62
     3
 10
31.3641175861546593
 20
101.4347669123416011
 30
0.0000000000000071
 11
95.3641175861547055
 21
101.4347669123416011
 31
0.0000000000000217
  0
LINE
  5
71CC
  8
0
  6
CONTINUOUS
 62
     3
 10
-42.6358824138453372
 20
101.4347669123416011
 30
-0.0000000000000098
 11
21.3641175861546593
 21
101.4347669123416011
 31
0.0000000000000049
  0
LINE
  5
71CD
  8
0
  6
CONTINUOUS
 62
     3
 10
96.5536394502366448
 20
168.4347669123415869
 30
0.000000000000022
 11
96.5536394502366448
 21
178.4347669123415869
 31
0.000000000000022
  0
LINE
  5
71CE
  8
0
  6
CONTINUOUS
 62
     3
 10
96.5536394502366164
 20
168.4347669123415869
 30
0.000000000000022
 11
98.3641175861546913
 21
168.4347669123415869
 31
0.0000000000000224
  0
LINE
  5
71CF
  8
0
  6
CONTINUOUS
 62
     3
 10
98.3641175861546913
 20
178.4347669123415869
 30
0.0000000000000224
 11
96.5536394502366164
 21
178.4347669123415869
 31
0.000000000000022
  0
LINE
  5
71D0
  8
0
  6
CONTINUOUS
 62
     3
 10
98.3641175861546913
 20
242.4347669123415869
 30
0.0000000000000224
 11
98.3641175861546913
 21
178.4347669123415869
 31
0.0000000000000224
  0
LINE
  5
71D1
  8
0
  6
CONTINUOUS
 62
     3
 10
98.3641175861546913
 20
168.4347669123415869
 30
0.0000000000000224
 11
98.3641175861546913
 21
104.4347669123417006
 31
0.0000000000000224
  0
ARC
  5
71D2
  8
0
  6
CONTINUOUS
 62
     3
 10
33.859082205571319
 20
234.4763552382829062
 30
0.0000000000000078
 40
4.0000000000000027
 50
82.9999999999997442
 51
262.9999999999997726
  0
ARC
  5
71D3
  8
0
  6
CONTINUOUS
 62
     3
 10
26.3641175861545598
 20
173.4347669123413027
 30
0.000000000000006
 40
57.5000000000003126
 50
52.0000000000000497
 51
82.9999999999998579
  0
ARC
  5
71D4
  8
0
  6
CONTINUOUS
 62
     3
 10
64.2272983186826849
 20
221.8974282591549922
 30
0.0000000000000147
 40
3.999999999999984
 50
232.000000000000199
 51
52.0000000000002274
  0
ARC
  5
71D5
  8
0
  6
CONTINUOUS
 62
     3
 10
26.3641175861544212
 20
173.4347669123411038
 30
0.000000000000006
 40
65.50000000000054
 50
52.0000000000000711
 51
82.9999999999997442
  0
ARC
  5
71D6
  8
0
  6
CONTINUOUS
 62
     3
 10
-34.6774707397866067
 20
180.9297315317583923
 30
-0.000000000000008
 40
4.0000000000000044
 50
172.999999999999801
 51
352.9999999999997726
  0
ARC
  5
71D7
  8
0
  6
CONTINUOUS
 62
     3
 10
26.3641175861552313
 20
173.434766912341388
 30
0.000000000000006
 40
57.5000000000005471
 50
142.0
 51
172.9999999999996874
  0
ARC
  5
71D8
  8
0
  6
CONTINUOUS
 62
     3
 10
-22.0985437606586501
 20
211.2979476448697085
 30
-0.0000000000000051
 40
3.999999999999984
 50
322.0000000000002842
 51
142.0000000000003126
  0
ARC
  5
71D9
  8
0
  6
CONTINUOUS
 62
     3
 10
26.3641175861550785
 20
173.434766912341388
 30
0.000000000000006
 40
65.5000000000004263
 50
142.0
 51
172.9999999999996874
  0
ARC
  5
71DA
  8
0
  6
CONTINUOUS
 62
     3
 10
18.8691529667379712
 20
112.3931785864002961
 30
0.0000000000000042
 40
4.0000000000000027
 50
262.9999999999997158
 51
82.9999999999997442
  0
ARC
  5
71DB
  8
0
  6
CONTINUOUS
 62
     3
 10
26.3641175861548405
 20
173.4347669123418996
 30
0.000000000000006
 40
57.5000000000003624
 50
231.9999999999998863
 51
262.9999999999997158
  0
ARC
  5
71DC
  8
0
  6
CONTINUOUS
 62
     3
 10
-11.4990631463733806
 20
124.9721055655282953
 30
-0.0000000000000027
 40
3.9999999999999898
 50
52.0000000000004192
 51
232.0000000000003979
  0
ARC
  5
71DD
  8
0
  6
CONTINUOUS
 62
     3
 10
26.3641175861549293
 20
173.4347669123420133
 30
0.000000000000006
 40
65.5000000000005116
 50
231.9999999999998863
 51
262.9999999999997158
  0
ARC
  5
71DE
  8
0
  6
CONTINUOUS
 62
     3
 10
87.4057059120960247
 20
165.9398022929248953
 30
0.00000000000002
 40
4.0000000000000107
 50
352.9999999999997726
 51
172.9999999999996874
  0
ARC
  5
71DF
  8
0
  6
CONTINUOUS
 62
     3
 10
26.3641175861542187
 20
173.4347669123417859
 30
0.000000000000006
 40
57.5000000000004974
 50
322.0
 51
352.9999999999997726
  0
ARC
  5
71E0
  8
0
  6
CONTINUOUS
 62
     3
 10
74.8267789329680113
 20
135.5715861798134938
 30
0.0000000000000171
 40
3.999999999999984
 50
142.000000000000199
 51
322.0000000000002274
  0
ARC
  5
71E1
  8
0
  6
CONTINUOUS
 62
     3
 10
26.3641175861544106
 20
173.4347669123417859
 30
0.000000000000006
 40
65.5000000000003268
 50
321.9999999999998863
 51
352.9999999999997158
  0
ARC
  5
71E2
  8
0
  6
CONTINUOUS
 62
     3
 10
64.2272983186825854
 20
124.9721055655280963
 30
0.0000000000000147
 40
4.0000000000000071
 50
307.9999999999997726
 51
127.999999999999801
  0
ARC
  5
71E3
  8
0
  6
CONTINUOUS
 62
     3
 10
26.3641175861544497
 20
173.4347669123420133
 30
0.000000000000006
 40
57.5000000000004974
 50
277.0
 51
307.9999999999998863
  0
ARC
  5
71E4
  8
0
  6
CONTINUOUS
 62
     3
 10
33.8590822055712195
 20
112.3931785864002961
 30
0.0000000000000078
 40
3.9999999999999809
 50
97.0000000000001705
 51
277.0000000000002274
  0
ARC
  5
71E5
  8
0
  6
CONTINUOUS
 62
     3
 10
26.3641175861545207
 20
173.4347669123420985
 30
0.000000000000006
 40
65.5000000000004974
 50
277.0
 51
307.9999999999997726
  0
ARC
  5
71E6
  8
0
  6
CONTINUOUS
 62
     3
 10
-22.0985437606586892
 20
135.5715861798136928
 30
-0.0000000000000051
 40
4.0000000000000062
 50
218.0000000000005116
 51
38.00000000000054
  0
ARC
  5
71E7
  8
0
  6
CONTINUOUS
 62
     3
 10
26.3641175861551105
 20
173.4347669123417859
 30
0.000000000000006
 40
57.5000000000003908
 50
187.0
 51
217.999999999999801
  0
ARC
  5
71E8
  8
0
  6
CONTINUOUS
 62
     3
 10
-34.6774707397865711
 20
165.9398022929250942
 30
-0.000000000000008
 40
3.9999999999999818
 50
7.0000000000010916
 51
187.0000000000009948
  0
ARC
  5
71E9
  8
0
  6
CONTINUOUS
 62
     3
 10
26.3641175861551211
 20
173.4347669123417006
 30
0.000000000000006
 40
65.5000000000003837
 50
187.0
 51
217.999999999999801
  0
ARC
  5
71EA
  8
0
  6
CONTINUOUS
 62
     3
 10
-11.4990631463732704
 20
221.8974282591549922
 30
-0.0000000000000027
 40
4.0000000000000018
 50
127.999999999999801
 51
307.9999999999997726
  0
ARC
  5
71EB
  8
0
  6
CONTINUOUS
 62
     3
 10
26.3641175861548511
 20
173.4347669123411038
 30
0.000000000000006
 40
57.5000000000005613
 50
97.0000000000000853
 51
127.999999999999801
  0
ARC
  5
71EC
  8
0
  6
CONTINUOUS
 62
     3
 10
18.8691529667381097
 20
234.4763552382829062
 30
0.0000000000000042
 40
3.9999999999999778
 50
277.0000000000006253
 51
97.0000000000006537
  0
ARC
  5
71ED
  8
0
  6
CONTINUOUS
 62
     3
 10
26.3641175861547907
 20
173.4347669123409901
 30
0.000000000000006
 40
65.5000000000005542
 50
97.0000000000000853
 51
127.9999999999997016
  0
ARC
  5
71EE
  8
0
  6
CONTINUOUS
 62
     3
 10
74.8267789329680397
 20
211.2979476448695948
 30
0.0000000000000171
 40
4.0000000000000062
 50
38.0
 51
218.0
  0
ARC
  5
71EF
  8
0
  6
CONTINUOUS
 62
     3
 10
26.3641175861542116
 20
173.4347669123415017
 30
0.000000000000006
 40
57.5000000000004405
 50
7.0000000000000613
 51
37.999999999999801
  0
ARC
  5
71F0
  8
0
  6
CONTINUOUS
 62
     3
 10
87.4057059120959252
 20
180.9297315317581081
 30
0.00000000000002
 40
3.999999999999976
 50
187.0000000000009948
 51
7.0000000000010916
  0
ARC
  5
71F1
  8
0
  6
CONTINUOUS
 62
     3
 10
26.3641175861542685
 20
173.4347669123415869
 30
0.000000000000006
 40
65.5000000000003268
 50
7.0000000000000222
 51
37.9999999999997797
  0
CIRCLE
  5
71F2
  8
0
  6
CONTINUOUS
 62
     3
 10
26.3641175861546913
 20
173.4347669123415869
 30
0.000000000000006
 40
52.0
  0
ARC
  5
71F3
  8
0
  6
CONTINUOUS
 62
     3
 10
-42.6358824138453087
 20
242.4347669123415869
 30
-0.0000000000000098
 40
3.0000000000000142
 50
90.0000000000005542
 51
179.9999999999996874
  0
ARC
  5
71F4
  8
0
  6
CONTINUOUS
 62
     3
 10
-42.6358824138453087
 20
104.4347669123416011
 30
-0.0000000000000098
 40
3.0
 50
180.0
 51
269.9999999999994884
  0
ARC
  5
71F5
  8
0
  6
CONTINUOUS
 62
     3
 10
95.3641175861546344
 20
104.4347669123416011
 30
0.0000000000000218
 40
3.0000000000000142
 50
270.0000000000005116
 51
359.9999999999997158
  0
ARC
  5
71F6
  8
0
  6
CONTINUOUS
 62
     3
 10
95.3641175861547055
 20
242.4347669123415869
 30
0.0000000000000218
 40
3.0000000000000142
 50
0.0000000000000127
 51
90.0000000000000284
  0
LINE
  5
71F7
  8
0
  6
VERDECKT
 62
     1
 10
21.3641175861546593
 20
243.6242887764234979
 30
0.0000000000000049
 11
21.3641175861546593
 21
243.0295278443824998
 31
0.0000000000000049
  0
LINE
  5
71F8
  8
0
  6
VERDECKT
 62
     1
 10
31.3641175861546593
 20
243.6242887764234979
 30
0.0000000000000071
 11
31.3641175861546593
 21
243.0295278443824998
 31
0.0000000000000071
  0
LINE
  5
71F9
  8
0
  6
VERDECKT
 62
     1
 10
21.3641175861546593
 20
243.0295278443824998
 30
0.0000000000000049
 11
31.3641175861546593
 21
243.0295278443824998
 31
0.0000000000000072
  0
LINE
  5
71FA
  8
0
  6
VERDECKT
 62
     1
 10
95.364117586154677
 20
243.9347669123415869
 30
0.0000000000000218
 11
31.3641175861546593
 21
243.9347669123415869
 31
0.0000000000000071
  0
LINE
  5
71FB
  8
0
  6
VERDECKT
 62
     1
 10
21.3641175861546593
 20
243.9347669123415869
 30
0.0000000000000049
 11
-42.6358824138453372
 21
243.9347669123415869
 31
-0.0000000000000098
  0
LINE
  5
71FC
  8
0
  6
VERDECKT
 62
     1
 10
-43.8254042779271984
 20
168.4347669123415869
 30
-0.00000000000001
 11
-43.2306433458862287
 21
168.4347669123415869
 31
-0.0000000000000098
  0
LINE
  5
71FD
  8
0
  6
VERDECKT
 62
     1
 10
-43.8254042779271984
 20
178.4347669123415869
 30
-0.00000000000001
 11
-43.2306433458862287
 21
178.4347669123415869
 31
-0.0000000000000098
  0
LINE
  5
71FE
  8
0
  6
VERDECKT
 62
     1
 10
-43.2306433458862216
 20
168.4347669123415869
 30
-0.0000000000000099
 11
-43.2306433458862287
 21
178.4347669123415869
 31
-0.0000000000000099
  0
LINE
  5
71FF
  8
0
  6
VERDECKT
 62
     1
 10
-44.1358824138453016
 20
178.4347669123415869
 30
-0.00000000000001
 11
-44.1358824138453016
 21
242.4347669123415869
 31
-0.00000000000001
  0
LINE
  5
7200
  8
0
  6
VERDECKT
 62
     1
 10
-44.1358824138453016
 20
104.4347669123417006
 30
-0.00000000000001
 11
-44.1358824138453016
 21
168.4347669123415869
 31
-0.00000000000001
  0
LINE
  5
7201
  8
0
  6
VERDECKT
 62
     1
 10
31.3641175861546593
 20
103.2452450482597044
 30
0.0000000000000071
 11
31.3641175861546593
 21
103.840005980300603
 31
0.0000000000000071
  0
LINE
  5
7202
  8
0
  6
VERDECKT
 62
     1
 10
21.3641175861546593
 20
103.2452450482597044
 30
0.0000000000000049
 11
21.3641175861546593
 21
103.840005980300603
 31
0.0000000000000049
  0
LINE
  5
7203
  8
0
  6
VERDECKT
 62
     1
 10
31.3641175861546593
 20
103.840005980300603
 30
0.0000000000000072
 11
21.3641175861546593
 21
103.840005980300603
 31
0.0000000000000049
  0
LINE
  5
7204
  8
0
  6
VERDECKT
 62
     1
 10
-42.6358824138453372
 20
102.9347669123416011
 30
-0.0000000000000098
 11
21.3641175861546593
 21
102.9347669123416011
 31
0.0000000000000049
  0
LINE
  5
7205
  8
0
  6
VERDECKT
 62
     1
 10
31.3641175861546593
 20
102.9347669123416011
 30
0.0000000000000071
 11
95.3641175861547055
 21
102.9347669123416011
 31
0.0000000000000217
  0
LINE
  5
7206
  8
0
  6
VERDECKT
 62
     1
 10
96.5536394502366164
 20
178.4347669123415869
 30
0.000000000000022
 11
95.9588785181956467
 21
178.4347669123415869
 31
0.0000000000000218
  0
LINE
  5
7207
  8
0
  6
VERDECKT
 62
     1
 10
96.5536394502366164
 20
168.4347669123415869
 30
0.000000000000022
 11
95.9588785181956467
 21
168.4347669123415869
 31
0.0000000000000218
  0
LINE
  5
7208
  8
0
  6
VERDECKT
 62
     1
 10
95.9588785181956752
 20
178.4347669123415869
 30
0.0000000000000219
 11
95.9588785181956752
 21
168.4347669123415869
 31
0.0000000000000219
  0
LINE
  5
7209
  8
0
  6
VERDECKT
 62
     1
 10
96.8641175861546344
 20
104.4347669123416011
 30
0.0000000000000222
 11
96.864117586154677
 21
168.4347669123415869
 31
0.0000000000000222
  0
LINE
  5
720A
  8
0
  6
VERDECKT
 62
     1
 10
96.864117586154677
 20
178.4347669123415869
 30
0.0000000000000222
 11
96.8641175861547055
 21
242.4347669123415869
 31
0.0000000000000222
  0
CIRCLE
  5
720B
  8
0
  6
VERDECKT
 62
     1
 10
26.3641175861546913
 20
173.4347669123415869
 30
0.000000000000006
 40
53.5000000000000071
  0
ARC
  5
720C
  8
0
  6
VERDECKT
 62
     1
 10
-42.6358824138453087
 20
242.4347669123415869
 30
-0.0000000000000098
 40
1.5
 50
90.0000000000010374
 51
180.0
  0
ARC
  5
720D
  8
0
  6
VERDECKT
 62
     1
 10
-42.6358824138453087
 20
104.4347669123416011
 30
-0.0000000000000098
 40
1.5
 50
179.9999999999994031
 51
269.99999999999892
  0
ARC
  5
720E
  8
0
  6
VERDECKT
 62
     1
 10
95.3641175861546344
 20
104.4347669123416011
 30
0.0000000000000218
 40
1.500000000000014
 50
270.0
 51
359.9999999999984084
  0
ARC
  5
720F
  8
0
  6
VERDECKT
 62
     1
 10
95.3641175861547055
 20
242.4347669123415869
 30
0.0000000000000218
 40
1.5
 50
0.0
 51
90.0000000000005542
  0
ENDBLK
  5
7211
  8
0
  0
BLOCK
  8
0
  2
A$C7A37512A
 70
     0
 10
0.0
 20
0.0
 30
0.0
  3
A$C7A37512A
  1

  0
ARC
  5
7215
  8
0
  6
CONTINUOUS
 62
     3
 10
42.6358824138453087
 20
-1.49999999999999
 30
0.0
 40
3.0
210
0.0
220
-0.0000000000000002
230
-1.0
 50
359.9999999999998863
 51
90.0000000000000284
  0
LINE
  5
7216
  8
0
  6
CONTINUOUS
 62
     3
 10
-45.6358824138453087
 20
-6.4999999999999973
 30
0.0000000000000014
 11
-45.6358824138453087
 21
-1.4999999999999949
 31
0.0000000000000003
210
0.0
220
1.0
230
-0.0000000000000002
  0
LINE
  5
7217
  8
0
  6
CONTINUOUS
 62
     3
 10
21.3641175861546593
 20
1.254094721477645
 30
-0.0000000000000003
 11
31.3641175861546593
 21
1.2540947214776439
 31
-0.0000000000000003
210
0.0
220
1.0
230
-0.0000000000000002
  0
LINE
  5
7218
  8
0
  6
CONTINUOUS
 62
     3
 10
31.3641175861546593
 20
-0.1229526392611788
 30
0.0
 11
21.3641175861546593
 21
-0.1229526392611782
 31
0.0
210
0.0
220
1.0
230
-0.0000000000000002
  0
LINE
  5
7219
  8
0
  6
CONTINUOUS
 62
     3
 10
21.3641175861546593
 20
1.254094721477651
 30
-0.0000000000000003
 11
21.3641175861546593
 21
-1.500000000000028
 31
0.0000000000000003
210
0.0
220
1.0
230
-0.0000000000000002
  0
LINE
  5
721A
  8
0
  6
CONTINUOUS
 62
     3
 10
21.3641175861546593
 20
-6.5000000000000009
 30
0.0000000000000014
 11
21.3641175861546593
 21
-1.500000000000028
 31
0.0000000000000003
210
0.0
220
1.0
230
-0.0000000000000002
  0
LINE
  5
721B
  8
0
  6
CONTINUOUS
 62
     3
 10
31.3641175861546593
 20
-1.500000000000028
 30
0.0000000000000003
 11
31.3641175861546593
 21
-6.5000000000000009
 31
0.0000000000000014
210
0.0
220
1.0
230
-0.0000000000000002
  0
LINE
  5
721C
  8
0
  6
CONTINUOUS
 62
     3
 10
31.3641175861546593
 20
-1.500000000000028
 30
0.0000000000000003
 11
31.3641175861546593
 21
1.254094721477647
 31
-0.0000000000000003
210
0.0
220
1.0
230
-0.0000000000000002
  0
LINE
  5
721D
  8
0
  6
CONTINUOUS
 62
     3
 10
95.364117586154677
 20
1.4999999999999949
 30
-0.0000000000000003
 11
-42.635882413845323
 21
1.500000000000004
 31
-0.0000000000000003
210
0.0
220
1.0
230
-0.0000000000000002
  0
LINE
  5
721E
  8
0
  6
CONTINUOUS
 62
     3
 10
21.3641175861546593
 20
-6.5000000000000009
 30
0.0000000000000014
 11
-42.635882413845323
 21
-6.5000000000000009
 31
0.0000000000000014
210
0.0
220
1.0
230
-0.0000000000000002
  0
LINE
  5
721F
  8
0
  6
CONTINUOUS
 62
     3
 10
-42.6358824138453372
 20
-6.4999999999999973
 30
0.0000000000000014
 11
-45.6358824138453087
 21
-6.4999999999999973
 31
0.0000000000000014
210
0.0
220
1.0
230
-0.0000000000000002
  0
LINE
  5
7220
  8
0
  6
CONTINUOUS
 62
     3
 10
95.364117586154677
 20
-6.5000000000000009
 30
0.0000000000000014
 11
31.3641175861546593
 21
-6.5000000000000009
 31
0.0000000000000014
210
0.0
220
1.0
230
-0.0000000000000002
  0
ARC
  5
7221
  8
0
  6
CONTINUOUS
 62
     3
 10
-95.3641175861546628
 20
-1.5
 30
0.0
 40
2.9999999999999951
210
0.0
220
-0.0000000000000002
230
-1.0
 50
89.99999999999973
 51
180.0
  0
LINE
  5
7222
  8
0
  6
CONTINUOUS
 62
     3
 10
98.3641175861546486
 20
-6.5000000000000062
 30
0.0000000000000014
 11
98.3641175861546486
 21
-1.500000000000004
 31
0.0000000000000003
210
0.0
220
1.0
230
-0.0000000000000002
  0
LINE
  5
7223
  8
0
  6
CONTINUOUS
 62
     3
 10
31.3641175861546593
 20
-2.5
 30
0.0000000000000006
 11
21.3641175861546593
 21
-2.5
 31
0.0000000000000006
210
0.0
220
1.0
230
-0.0000000000000002
  0
LINE
  5
7224
  8
0
  6
CONTINUOUS
 62
     3
 10
98.364117586154677
 20
-6.5000000000000062
 30
0.0000000000000014
 11
95.364117586154677
 21
-6.5000000000000062
 31
0.0000000000000014
210
0.0
220
1.0
230
-0.0000000000000002
  0
LINE
  5
7225
  8
0
  6
VERDECKT
 62
     1
 10
-43.8254042779271984
 20
1.2540947214776319
 30
-0.0000000000000003
 11
-43.2306433458862287
 21
-0.1229526392611957
 31
0.0
210
0.0
220
1.0
230
-0.0000000000000002
  0
ARC
  5
7226
  8
0
  6
VERDECKT
 62
     1
 10
42.6358824138452874
 20
-1.5000000000000051
 30
0.0
 40
1.500000000000014
210
0.0
220
-0.0000000000000002
230
-1.0
 50
0.0000000000003817
 51
89.99999999999946
  0
LINE
  5
7227
  8
0
  6
VERDECKT
 62
     1
 10
95.364117586154677
 20
-0.0000000000000044
 30
0.0
 11
-42.635882413845323
 21
0.000000000000004
 31
0.0
210
0.0
220
1.0
230
-0.0000000000000002
  0
LINE
  5
7228
  8
0
  6
VERDECKT
 62
     1
 10
96.5536394502366164
 20
1.254094721477623
 30
-0.0000000000000003
 11
95.9588785181956467
 21
-0.1229526392612046
 31
0.0
210
0.0
220
1.0
230
-0.0000000000000002
  0
ARC
  5
7229
  8
0
  6
VERDECKT
 62
     1
 10
-95.364117586154677
 20
-1.4999999999999909
 30
0.0
 40
1.499999999999986
210
0.0
220
-0.0000000000000002
230
-1.0
 50
90.0
 51
180.0000000000003979
  0
LINE
  5
722A
  8
0
  6
VERDECKT
 62
     1
 10
96.8641175861546344
 20
-6.5000000000000062
 30
0.0000000000000014
 11
96.8641175861546344
 21
-1.500000000000004
 31
0.0000000000000003
210
0.0
220
1.0
230
-0.0000000000000002
  0
LINE
  5
722B
  8
0
  6
VERDECKT
 62
     1
 10
-44.1358824138453016
 20
-6.4999999999999973
 30
0.0000000000000014
 11
-44.1358824138453016
 21
-1.4999999999999949
 31
0.0000000000000003
210
0.0
220
1.0
230
-0.0000000000000002
  0
LINE
  5
722C
  8
0
  6
VERDECKT
 62
     1
 10
21.3641175861546699
 20
-2.5
 30
0.0000000000000006
 11
-27.1358824138453087
 21
-2.4999999999999969
 31
0.0000000000000006
210
0.0
220
1.0
230
-0.0000000000000002
  0
LINE
  5
722D
  8
0
  6
VERDECKT
 62
     1
 10
79.8641175861546913
 20
-2.5000000000000031
 30
0.0000000000000006
 11
31.3641175861546486
 21
-2.5
 31
0.0000000000000006
210
0.0
220
1.0
230
-0.0000000000000002
  0
LINE
  5
722E
  8
0
  6
VERDECKT
 62
     1
 10
22.8691529667379783
 20
1.5
 30
-0.0000000000000003
 11
22.8691529667379783
 21
0.0000000000000004
 31
0.0
210
0.0
220
1.0
230
-0.0000000000000002
  0
LINE
  5
722F
  8
0
  6
VERDECKT
 62
     1
 10
-15.4990631463733699
 20
1.5
 30
-0.0000000000000003
 11
-15.4990631463733699
 21
0.0000000000000013
 31
0.0
210
0.0
220
1.0
230
-0.0000000000000002
  0
LINE
  5
7230
  8
0
  6
VERDECKT
 62
     1
 10
91.4057059120959963
 20
1.5
 30
-0.0000000000000003
 11
91.4057059120959963
 21
-0.0000000000000004
 31
0.0
210
0.0
220
1.0
230
-0.0000000000000002
  0
LINE
  5
7231
  8
0
  6
VERDECKT
 62
     1
 10
70.8267789329680255
 20
1.5
 30
-0.0000000000000003
 11
70.8267789329680255
 21
0.0000000000000013
 31
0.0
210
0.0
220
1.0
230
-0.0000000000000002
  0
LINE
  5
7232
  8
0
  6
VERDECKT
 62
     1
 10
68.2272983186825996
 20
1.4999999999999989
 30
-0.0000000000000003
 11
68.2272983186825996
 21
-0.0000000000000031
 31
0.0
210
0.0
220
1.0
230
-0.0000000000000002
  0
LINE
  5
7233
  8
0
  6
VERDECKT
 62
     1
 10
29.8590822055712302
 20
1.4999999999999989
 30
-0.0000000000000003
 11
29.8590822055712302
 21
-0.0000000000000022
 31
0.0
210
0.0
220
1.0
230
-0.0000000000000002
  0
LINE
  5
7234
  8
0
  6
VERDECKT
 62
     1
 10
-18.0985437606586892
 20
1.4999999999999989
 30
-0.0000000000000003
 11
-18.0985437606586892
 21
-0.0000000000000013
 31
0.0
210
0.0
220
1.0
230
-0.0000000000000002
  0
LINE
  5
7235
  8
0
  6
VERDECKT
 62
     1
 10
-38.6774707397865498
 20
1.5
 30
-0.0000000000000003
 11
-38.6774707397865498
 21
0.0000000000000004
 31
0.0
210
0.0
220
1.0
230
-0.0000000000000002
  0
ARC
  5
7236
  8
0
  6
VERDECKT
 62
     1
 10
28.3858824138453087
 20
-1.249999999999996
 30
0.0
 40
1.2499999999999989
210
0.0
220
-0.0000000000000002
230
-1.0
 50
90.0
 51
180.0
  0
ARC
  5
7237
  8
0
  6
VERDECKT
 62
     1
 10
-81.114117586154677
 20
-1.2499999999999909
 30
0.0
 40
1.2499999999999849
210
0.0
220
-0.0000000000000002
230
-1.0
 50
359.9999999999993747
 51
90.0000000000006679
  0
LINE
  5
7238
  8
0
  6
VERDECKT
 62
     1
 10
-27.1358824138453194
 20
-2.4999999999999969
 30
0.0000000000000006
 11
-27.1358824138453194
 21
-1.249999999999996
 31
0.0000000000000003
210
0.0
220
1.0
230
-0.0000000000000002
  0
LINE
  5
7239
  8
0
  6
VERDECKT
 62
     1
 10
79.8641175861546913
 20
-2.5000000000000031
 30
0.0000000000000006
 11
79.8641175861546913
 21
-1.2500000000000031
 31
0.0000000000000003
210
0.0
220
1.0
230
-0.0000000000000002
  0
ARC
  5
723A
  8
0
  6
VERDECKT
 62
     1
 10
28.3858824138453087
 20
-1.249999999999994
 30
0.0
 40
2.7499999999999969
210
0.0
220
-0.0000000000000002
230
-1.0
 50
89.9999999999999147
 51
180.0
  0
ARC
  5
723B
  8
0
  6
VERDECKT
 62
     1
 10
-81.1141175861546913
 20
-1.2500000000000011
 30
0.0
 40
2.75
210
0.0
220
-0.0000000000000002
230
-1.0
 50
360.0
 51
90.0
  0
LINE
  5
723C
  8
0
  6
VERDECKT
 62
     1
 10
-25.6358824138453087
 20
-2.4999999999999969
 30
0.0000000000000006
 11
-25.6358824138453087
 21
-1.249999999999996
 31
0.0000000000000003
210
0.0
220
1.0
230
-0.0000000000000002
  0
LINE
  5
723D
  8
0
  6
VERDECKT
 62
     1
 10
78.3641175861546913
 20
-2.5000000000000031
 30
0.0000000000000006
 11
78.3641175861546913
 21
-1.2500000000000031
 31
0.0000000000000003
210
0.0
220
1.0
230
-0.0000000000000002
  0
ENDBLK
  5
723F
  8
0
  0
ENDSEC
  0
SECTION
  2
ENTITIES
  0
TEXT
  5
2998
  8
VOLL
 10
78.076754716981128
 20
31.025947764705851
 30
0.0
 40
1.8
  1

  7
GREEKS
  0
INSERT
  5
2999
  8
ADSK_ASSOC_ENTITY_BACKUPS
  2
*S0
 10
0.0
 20
0.0
 30
0.0
  0
INSERT
  5
7212
  8
BEM
  2
A$C2AAF2F9D
 10
-1.2564809908621439
 20
177.0718594500472136
 30
0.0
  0
INSERT
  5
7240
  8
BEM
  2
A$C7A37512A
 10
-1.2564809908621399
 20
480.1361152510398256
 30
0.0000000000000071
  0
VIEWPORT
  5
928
 67
     1
  8
0
 10
234.8831254032083109
 20
154.9729937114508971
 30
0.0
 40
816.4106984598710142
 41
471.0482075451196806
 68
     1
 69
     1
1001
ACAD
1000
MVIEW
1002
{
1070
    16
1010
0.0
1020
0.0
1030
0.0
1010
0.0
1020
0.0
1030
1.0
1040
0.0
1040
471.0482075451196806
1040
234.8831254032083109
1040
154.9729937114508971
1040
50.0
1040
0.0
1040
0.0
1070
     0
1070
  1500
1070
     1
1070
     1
1070
     0
1070
     0
1070
     0
1070
     0
1040
0.0
1040
0.0
1040
0.0
1040
10.0
1040
10.0
1040
10.0
1040
10.0
1070
     0
1002
{
1002
}
1002
}
  0
ENDSEC
  0
EOF
