  0
SECTION
  2
HEADER
  9
$ACADVER
  1
AC1009
  9
$INSBASE
 10
0.0
 20
0.0
 30
0.0
  9
$EXTMIN
 10
-50.9999999999999076
 20
-152.0
 30
-0.0000000000000444
  9
$EXTMAX
 10
51.0000000000001208
 20
200.0000000000003126
 30
0.0000000000000059
  9
$LIMMIN
 10
0.0
 20
0.0
  9
$LIMMAX
 10
210.0
 20
297.0000000000001137
  9
$ORTHOMODE
 70
     1
  9
$REGENMODE
 70
     1
  9
$FILLMODE
 70
     1
  9
$QTEXTMODE
 70
     0
  9
$MIRRTEXT
 70
     1
  9
$DRAGMODE
 70
     2
  9
$LTSCALE
 40
20.0
  9
$OSMODE
 70
  2559
  9
$ATTMODE
 70
     1
  9
$TEXTSIZE
 40
2.5
  9
$TRACEWID
 40
0.5
  9
$TEXTSTYLE
  7
GREEKS
  9
$CLAYER
  8
STEMPEL
  9
$CELTYPE
  6
BYLAYER
  9
$CECOLOR
 62
   256
  9
$DIMSCALE
 40
1.0
  9
$DIMASZ
 40
3.5
  9
$DIMEXO
 40
1.0
  9
$DIMDLI
 40
7.0
  9
$DIMRND
 40
0.0
  9
$DIMDLE
 40
0.0
  9
$DIMEXE
 40
1.0
  9
$DIMTP
 40
0.0
  9
$DIMTM
 40
0.0
  9
$DIMTXT
 40
3.5
  9
$DIMCEN
 40
1.5
  9
$DIMTSZ
 40
0.0
  9
$DIMTOL
 70
     0
  9
$DIMLIM
 70
     0
  9
$DIMTIH
 70
     0
  9
$DIMTOH
 70
     0
  9
$DIMSE1
 70
     0
  9
$DIMSE2
 70
     0
  9
$DIMTAD
 70
     1
  9
$DIMZIN
 70
     8
  9
$DIMBLK
  1

  9
$DIMASO
 70
     1
  9
$DIMSHO
 70
     0
  9
$DIMPOST
  1

  9
$DIMAPOST
  1

  9
$DIMALT
 70
     0
  9
$DIMALTD
 70
     2
  9
$DIMALTF
 40
25.3999999999999986
  9
$DIMLFAC
 40
1.0
  9
$DIMTOFL
 70
     1
  9
$DIMTVP
 40
0.0
  9
$DIMTIX
 70
     0
  9
$DIMSOXD
 70
     0
  9
$DIMSAH
 70
     0
  9
$DIMBLK1
  1

  9
$DIMBLK2
  1

  9
$DIMSTYLE
  2
STANDARD
  9
$DIMCLRD
 70
     0
  9
$DIMCLRE
 70
     0
  9
$DIMCLRT
 70
     1
  9
$DIMTFAC
 40
0.5
  9
$DIMGAP
 40
1.5
  9
$LUNITS
 70
     2
  9
$LUPREC
 70
     2
  9
$SKETCHINC
 40
1.0
  9
$FILLETRAD
 40
0.0
  9
$AUNITS
 70
     0
  9
$AUPREC
 70
     0
  9
$MENU
  1
ACAD
  9
$ELEVATION
 40
0.0
  9
$PELEVATION
 40
0.0
  9
$THICKNESS
 40
0.0
  9
$LIMCHECK
 70
     0
  9
$BLIPMODE
 70
     0
  9
$CHAMFERA
 40
0.0
  9
$CHAMFERB
 40
0.0
  9
$SKPOLY
 70
     0
  9
$TDCREATE
 40
2455397.8646990740671754
  9
$TDUPDATE
 40
2458814.3704050928354263
  9
$TDINDWG
 40
0.718319919
  9
$TDUSRTIMER
 40
0.718319919
  9
$USRTIMER
 70
     1
  9
$ANGBASE
 50
0.0
  9
$ANGDIR
 70
     0
  9
$PDMODE
 70
     0
  9
$PDSIZE
 40
0.0
  9
$PLINEWID
 40
0.0
  9
$COORDS
 70
     1
  9
$SPLFRAME
 70
     0
  9
$SPLINETYPE
 70
     6
  9
$SPLINESEGS
 70
     8
  9
$ATTDIA
 70
     1
  9
$ATTREQ
 70
     1
  9
$HANDLING
 70
     1
  9
$HANDSEED
  5
47D4
  9
$SURFTAB1
 70
     6
  9
$SURFTAB2
 70
     6
  9
$SURFTYPE
 70
     6
  9
$SURFU
 70
     6
  9
$SURFV
 70
     6
  9
$UCSNAME
  2

  9
$UCSORG
 10
0.0
 20
0.0
 30
0.0
  9
$UCSXDIR
 10
1.0
 20
0.0
 30
0.0
  9
$UCSYDIR
 10
0.0
 20
1.0
 30
0.0
  9
$PUCSNAME
  2

  9
$PUCSORG
 10
0.0
 20
0.0
 30
0.0
  9
$PUCSXDIR
 10
1.0
 20
0.0
 30
0.0
  9
$PUCSYDIR
 10
0.0
 20
1.0
 30
0.0
  9
$USERI1
 70
     0
  9
$USERI2
 70
     0
  9
$USERI3
 70
     0
  9
$USERI4
 70
     0
  9
$USERI5
 70
     0
  9
$USERR1
 40
0.0
  9
$USERR2
 40
0.0
  9
$USERR3
 40
0.0
  9
$USERR4
 40
0.0
  9
$USERR5
 40
0.0
  9
$WORLDVIEW
 70
     1
  9
$SHADEDGE
 70
     3
  9
$SHADEDIF
 70
    70
  9
$TILEMODE
 70
     1
  9
$MAXACTVP
 70
    16
  9
$PLIMCHECK
 70
     0
  9
$PEXTMIN
 10
1.0000000000000000E+20
 20
1.0000000000000000E+20
 30
1.0000000000000000E+20
  9
$PEXTMAX
 10
-1.0000000000000000E+20
 20
-1.0000000000000000E+20
 30
-1.0000000000000000E+20
  9
$PLIMMIN
 10
148.2087875959871894
 20
-139.7536104011880127
  9
$PLIMMAX
 10
358.2087875959873031
 20
157.246389598811902
  9
$UNITMODE
 70
     0
  9
$VISRETAIN
 70
     0
  9
$PLINEGEN
 70
     0
  9
$PSLTSCALE
 70
     0
  0
ENDSEC
  0
SECTION
  2
TABLES
  0
TABLE
  2
VPORT
 70
     1
  0
VPORT
  2
*ACTIVE
 70
     0
 10
0.0
 20
0.0
 11
1.0
 21
1.0
 12
0.0000000000001137
 22
-50.502378463744968
 13
0.0
 23
0.0
 14
1.0
 24
1.0
 15
10.0
 25
10.0
 16
-0.0000000000001547
 26
0.0
 36
696.7467445971443567
 17
0.0
 27
74.5023784637451172
 37
-0.0000000000000193
 40
353.7943925233648201
 41
1.868197278911564
 42
50.0
 43
0.0
 44
0.0
 50
0.0
 51
0.0
 71
     0
 72
  1500
 73
     1
 74
     0
 75
     0
 76
     0
 77
     0
 78
     0
  0
ENDTAB
  0
TABLE
  2
LTYPE
 70
     6
  0
LTYPE
  2
CONTINUOUS
 70
     0
  3
Solid line
 72
    65
 73
     0
 40
0.0
  0
LTYPE
  2
AUSGEZOGEN
 70
     0
  3
Ausgezogene Linie
 72
    65
 73
     0
 40
0.0
  0
LTYPE
  2
VERDECKT
 70
     0
  3
Verdeckt __ __ __ __ __ __ __ __ __ __ __ __ __
 72
    65
 73
     2
 40
0.375
 49
0.25
 49
-0.125
  0
ENDTAB
  0
TABLE
  2
LAYER
 70
    17
  0
LAYER
  2
0
 70
     0
 62
     7
  6
CONTINUOUS
  0
LAYER
  2
VOLL
 70
     0
 62
     1
  6
CONTINUOUS
  0
LAYER
  2
STEMPEL
 70
     0
 62
     3
  6
CONTINUOUS
  0
LAYER
  2
DEFPOINTS
 70
     0
 62
     7
  6
CONTINUOUS
  0
LAYER
  2
TEXT35
 70
     0
 62
     1
  6
AUSGEZOGEN
  0
LAYER
  2
ADSK_ASSOC_ENTITY_BACKUPS
 70
     1
 62
    -7
  6
CONTINUOUS
  0
ENDTAB
  0
TABLE
  2
STYLE
 70
     3
  0
STYLE
  2
STANDARD
 70
     0
 40
0.0
 41
0.8
 50
0.0
 71
     0
 42
3.5
  3
simplex.shx
  4

  0
STYLE
  2
GREEKS
 70
     0
 40
0.0
 41
0.8
 50
0.0
 71
     0
 42
2.5
  3
SIMPLEX.shx
  4

  0
ENDTAB
  0
TABLE
  2
VIEW
 70
     1
  0
ENDTAB
  0
TABLE
  2
UCS
 70
     0
  0
ENDTAB
  0
TABLE
  2
APPID
 70
    16
  0
APPID
  2
ACAD
 70
     0
  0
APPID
  2
RAK
 70
     0
  0
APPID
  2
ACAD_NAV_VCDISPLAY
 70
     0
  0
APPID
  2
ACAECLAYERSTANDARD
 70
     0
  0
APPID
  2
ACCMTRANSPARENCY
 70
     0
  0
APPID
  2
ACAD_EXEMPT_FROM_CAD_STANDARDS
 70
     0
  0
APPID
  2
ACAD_PSEXT
 70
     0
  0
APPID
  2
ACSYNERGY
 70
     0
  0
APPID
  2
SYNERGY_BODY_TBR_ID
 70
     0
  0
APPID
  2
ACAD_VIEW_EDGE_ID
 70
     0
  0
APPID
  2
ACSYNERGYSKETCH
 70
     0
  0
APPID
  2
ACAD_STEPID
 70
     0
  0
APPID
  2
ACAD_MODELDOC_XFORM
 70
     0
  0
APPID
  2
ACADANNOMONITORALERTICONDI
 70
     0
  0
APPID
  2
ACAD_MLEADERVER
 70
     0
  0
APPID
  2
ACAD_OBJECT_CHANGE_GUID
 70
     0
  0
ENDTAB
  0
TABLE
  2
DIMSTYLE
 70
     1
  0
DIMSTYLE
  2
STANDARD
 70
     0
  3

  4

  5

  6

  7

 40
1.0
 41
0.18
 42
0.0625
 43
0.38
 44
0.18
 45
0.0
 46
0.0
 47
0.0
 48
0.0
140
0.18
141
0.09
142
0.0
143
25.3999999999999986
144
1.0
145
0.0
146
1.0
147
0.09
 71
     0
 72
     0
 73
     1
 74
     1
 75
     0
 76
     0
 77
     0
 78
     0
170
     0
171
     2
172
     0
173
     0
174
     0
175
     0
176
     0
177
     0
178
     0
  0
ENDTAB
  0
ENDSEC
  0
SECTION
  2
BLOCKS
  0
BLOCK
  8
0
  2
$MODEL_SPACE
 70
     0
 10
0.0
 20
0.0
 30
0.0
  3
$MODEL_SPACE
  1

  0
ENDBLK
  5
36
  8
0
  0
BLOCK
 67
     1
  8
0
  2
$PAPER_SPACE
 70
     0
 10
0.0
 20
0.0
 30
0.0
  3
$PAPER_SPACE
  1

  0
ENDBLK
  5
34
 67
     1
  8
0
  0
BLOCK
  8
0
  2
*S10
 70
     1
 10
0.0
 20
0.0
 30
0.0
  3
*S10
  1

  0
ENDBLK
  5
3378
  8
0
  0
BLOCK
  8
0
  2
A$C08D80D92
 70
     0
 10
0.0
 20
0.0
 30
0.0
  3
A$C08D80D92
  1

  0
LINE
  5
4175
  8
0
  6
CONTINUOUS
 62
     3
 10
29.8792073683406514
 20
192.0000000000001137
 30
-0.0000000000000426
 11
29.8792073683406514
 21
185.0000000000001137
 31
-0.0000000000000411
210
0.0
220
1.0
230
-0.0000000000000002
  0
LINE
  5
4176
  8
0
  6
CONTINUOUS
 62
     3
 10
46.1683901029045387
 20
185.0000000000001137
 30
-0.0000000000000411
 11
46.1683901029045387
 21
192.0000000000001137
 31
-0.0000000000000426
210
0.0
220
1.0
230
-0.0000000000000002
  0
LINE
  5
4177
  8
0
  6
CONTINUOUS
 62
     3
 10
-27.7020243923635405
 20
192.0000000000001137
 30
-0.0000000000000426
 11
-27.7020243923635405
 21
185.0000000000001137
 31
-0.0000000000000411
210
0.0
220
1.0
230
-0.0000000000000002
  0
LINE
  5
4178
  8
0
  6
CONTINUOUS
 62
     3
 10
-1.3455730788813289
 20
185.0000000000001137
 30
-0.0000000000000411
 11
-1.3455730788813289
 21
192.0000000000001137
 31
-0.0000000000000426
210
0.0
220
1.0
230
-0.0000000000000002
  0
LINE
  5
4179
  8
0
  6
CONTINUOUS
 62
     3
 10
26.3862444778540102
 20
185.0000000000001137
 30
-0.0000000000000411
 11
26.3862444778540102
 21
192.0000000000001137
 31
-0.0000000000000426
210
0.0
220
1.0
230
-0.0000000000000002
  0
LINE
  5
417A
  8
0
  6
CONTINUOUS
 62
     3
 10
49.6613529933911835
 20
192.0000000000001137
 30
-0.0000000000000426
 11
49.6613529933911835
 21
185.0000000000001137
 31
-0.0000000000000411
210
0.0
220
1.0
230
-0.0000000000000002
  0
LINE
  5
417B
  8
0
  6
CONTINUOUS
 62
     3
 10
4.306159599368157
 20
192.0000000000001137
 30
-0.0000000000000426
 11
4.306159599368157
 21
185.0000000000001137
 31
-0.0000000000000411
210
0.0
220
1.0
230
-0.0000000000000002
  0
LINE
  5
417C
  8
0
  6
CONTINUOUS
 62
     3
 10
-33.3537570706130282
 20
185.0000000000001137
 30
-0.0000000000000411
 11
-33.3537570706130282
 21
192.0000000000001137
 31
-0.0000000000000426
210
0.0
220
1.0
230
-0.0000000000000002
  0
LINE
  5
417D
  8
0
  6
CONTINUOUS
 62
     3
 10
-46.9999999999999076
 20
192.0000000000001137
 30
-0.0000000000000426
 11
-50.9999999999998295
 21
192.0000000000001137
 31
-0.0000000000000426
210
0.0
220
1.0
230
-0.0000000000000002
  0
LINE
  5
417E
  8
0
  6
CONTINUOUS
 62
     3
 10
4.306159599368157
 20
192.0000000000001137
 30
-0.0000000000000426
 11
-33.3537570706130282
 21
192.0000000000001137
 31
-0.0000000000000426
210
0.0
220
1.0
230
-0.0000000000000002
  0
LINE
  5
417F
  8
0
  6
CONTINUOUS
 62
     3
 10
49.6613529933911835
 20
192.0000000000001137
 30
-0.0000000000000426
 11
26.3862444778540102
 21
192.0000000000001137
 31
-0.0000000000000426
210
0.0
220
1.0
230
-0.0000000000000002
  0
LINE
  5
4180
  8
0
  6
CONTINUOUS
 62
     3
 10
-50.9999999999998295
 20
185.0000000000001137
 30
-0.0000000000000411
 11
-46.9999999999999076
 21
185.0000000000001137
 31
-0.0000000000000411
210
0.0
220
1.0
230
-0.0000000000000002
  0
LINE
  5
4181
  8
0
  6
CONTINUOUS
 62
     3
 10
-33.3537570706130282
 20
185.0000000000001137
 30
-0.0000000000000411
 11
4.306159599368157
 21
185.0000000000001137
 31
-0.0000000000000411
210
0.0
220
1.0
230
-0.0000000000000002
  0
LINE
  5
4182
  8
0
  6
CONTINUOUS
 62
     3
 10
26.3862444778539995
 20
185.0000000000001137
 30
-0.0000000000000411
 11
49.6613529933911835
 21
185.0000000000001137
 31
-0.0000000000000411
210
0.0
220
1.0
230
-0.0000000000000002
  0
LINE
  5
4183
  8
0
  6
CONTINUOUS
 62
     3
 10
-46.9999999999999076
 20
192.0000000000001137
 30
-0.0000000000000426
 11
-46.9999999999999076
 21
185.0000000000001137
 31
-0.0000000000000411
210
0.0
220
1.0
230
-0.0000000000000002
  0
LINE
  5
4184
  8
0
  6
CONTINUOUS
 62
     3
 10
51.0000000000000782
 20
200.0000000000003126
 30
-0.0000000000000444
 11
-50.9999999999999076
 21
200.0000000000003126
 31
-0.0000000000000444
210
0.0
220
1.0
230
-0.0000000000000002
  0
LINE
  5
4185
  8
0
  6
CONTINUOUS
 62
     3
 10
-15.6984597750583799
 20
120.0
 30
-0.0000000000000266
 11
-15.6984597750583799
 21
112.0
 31
-0.0000000000000249
210
0.0
220
1.0
230
-0.0000000000000002
  0
LINE
  5
4186
  8
0
  6
CONTINUOUS
 62
     3
 10
-16.2177940602921318
 20
112.0
 30
-0.0000000000000249
 11
-16.2177940602921318
 21
120.0
 31
-0.0000000000000266
210
0.0
220
1.0
230
-0.0000000000000002
  0
LINE
  5
4187
  8
0
  6
CONTINUOUS
 62
     3
 10
-20.8528165821591891
 20
120.0
 30
-0.0000000000000266
 11
-20.8528165821591891
 21
112.0
 31
-0.0000000000000249
210
0.0
220
1.0
230
-0.0000000000000002
  0
LINE
  5
4188
  8
0
  6
CONTINUOUS
 62
     3
 10
3.8350515463918811
 20
120.0
 30
-0.0000000000000266
 11
3.8350515463918811
 21
112.0
 31
-0.0000000000000249
210
0.0
220
1.0
230
-0.0000000000000002
  0
LINE
  5
4189
  8
0
  6
CONTINUOUS
 62
     3
 10
45.7081300844602296
 20
112.0
 30
-0.0000000000000249
 11
45.7081300844602296
 21
120.0
 31
-0.0000000000000266
210
0.0
220
1.0
230
-0.0000000000000002
  0
LINE
  5
418A
  8
0
  6
CONTINUOUS
 62
     3
 10
39.9531893476063189
 20
112.0
 30
-0.0000000000000249
 11
39.9531893476063189
 21
120.0
 31
-0.0000000000000266
210
0.0
220
1.0
230
-0.0000000000000002
  0
LINE
  5
418B
  8
0
  6
CONTINUOUS
 62
     3
 10
31.4755047824802716
 20
112.0
 30
-0.0000000000000249
 11
31.4755047824802716
 21
120.0
 31
-0.0000000000000266
210
0.0
220
1.0
230
-0.0000000000000002
  0
LINE
  5
418C
  8
0
  6
CONTINUOUS
 62
     3
 10
20.8528165821592211
 20
112.0
 30
-0.0000000000000249
 11
20.8528165821592211
 21
120.0
 31
-0.0000000000000266
210
0.0
220
1.0
230
-0.0000000000000002
  0
LINE
  5
418D
  8
0
  6
CONTINUOUS
 62
     3
 10
8.8090433926728053
 20
112.0
 30
-0.0000000000000249
 11
8.8090433926728053
 21
120.0
 31
-0.0000000000000266
210
0.0
220
1.0
230
-0.0000000000000002
  0
LINE
  5
418E
  8
0
  6
CONTINUOUS
 62
     3
 10
-35.4802390384163573
 20
120.0000000000000995
 30
-0.0000000000000266
 11
-35.4802390384163573
 21
112.0
 31
-0.0000000000000249
210
0.0
220
1.0
230
-0.0000000000000002
  0
LINE
  5
418F
  8
0
  6
CONTINUOUS
 62
     3
 10
-36.8990866917874598
 20
112.0
 30
-0.0000000000000249
 11
-36.8990866917874598
 21
120.0000000000000995
 31
-0.0000000000000266
210
0.0
220
1.0
230
-0.0000000000000002
  0
LINE
  5
4190
  8
0
  6
CONTINUOUS
 62
     3
 10
-42.0505145072458788
 20
120.0
 30
-0.0000000000000266
 11
-42.0505145072458788
 21
112.0
 31
-0.0000000000000249
210
0.0
220
1.0
230
-0.0000000000000002
  0
LINE
  5
4191
  8
0
  6
CONTINUOUS
 62
     3
 10
-43.7882408939981005
 20
112.0
 30
-0.0000000000000249
 11
-43.7882408939981005
 21
120.0
 31
-0.0000000000000266
210
0.0
220
1.0
230
-0.0000000000000002
  0
LINE
  5
4192
  8
0
  6
CONTINUOUS
 62
     3
 10
-45.7551169041675223
 20
120.0000000000000995
 30
-0.0000000000000266
 11
-45.7551169041675223
 21
112.0
 31
-0.0000000000000249
210
0.0
220
1.0
230
-0.0000000000000002
  0
LINE
  5
4193
  8
0
  6
CONTINUOUS
 62
     3
 10
-47.6932988427723501
 20
112.0
 30
-0.0000000000000249
 11
-47.6932988427723501
 21
120.0000000000000995
 31
-0.0000000000000266
210
0.0
220
1.0
230
-0.0000000000000002
  0
LINE
  5
4194
  8
0
  6
CONTINUOUS
 62
     3
 10
48.499999999999801
 20
120.0
 30
-0.0000000000000266
 11
48.3481372923145827
 21
120.0
 31
-0.0000000000000266
210
0.0
220
1.0
230
-0.0000000000000002
  0
LINE
  5
4195
  8
0
  6
CONTINUOUS
 62
     3
 10
47.6932988427723572
 20
120.0
 30
-0.0000000000000266
 11
45.7081300844602225
 21
120.0
 31
-0.0000000000000266
210
0.0
220
1.0
230
-0.0000000000000002
  0
LINE
  5
4196
  8
0
  6
CONTINUOUS
 62
     3
 10
43.7882408939981218
 20
120.0
 30
-0.0000000000000266
 11
39.9531893476063189
 21
120.0
 31
-0.0000000000000266
210
0.0
220
1.0
230
-0.0000000000000002
  0
LINE
  5
4197
  8
0
  6
CONTINUOUS
 62
     3
 10
36.8990866917875024
 20
120.0
 30
-0.0000000000000266
 11
31.4755047824802716
 21
120.0
 31
-0.0000000000000266
210
0.0
220
1.0
230
-0.0000000000000002
  0
LINE
  5
4198
  8
0
  6
CONTINUOUS
 62
     3
 10
27.4953207101554611
 20
120.0
 30
-0.0000000000000266
 11
20.8528165821592211
 21
120.0
 31
-0.0000000000000266
210
0.0
220
1.0
230
-0.0000000000000002
  0
LINE
  5
4199
  8
0
  6
CONTINUOUS
 62
     3
 10
16.2177940602921709
 20
120.0
 30
-0.0000000000000266
 11
8.8090433926728036
 21
120.0
 31
-0.0000000000000266
210
0.0
220
1.0
230
-0.0000000000000002
  0
LINE
  5
419A
  8
0
  6
CONTINUOUS
 62
     3
 10
-31.4755047824802183
 20
120.0
 30
-0.0000000000000266
 11
-36.8990866917874314
 21
120.0
 31
-0.0000000000000266
210
0.0
220
1.0
230
-0.0000000000000002
  0
LINE
  5
419B
  8
0
  6
CONTINUOUS
 62
     3
 10
-39.9531893476062905
 20
120.0
 30
-0.0000000000000266
 11
-43.7882408939981005
 21
120.0
 31
-0.0000000000000266
210
0.0
220
1.0
230
-0.0000000000000002
  0
LINE
  5
419C
  8
0
  6
CONTINUOUS
 62
     3
 10
-45.708130084460187
 20
120.0
 30
-0.0000000000000266
 11
-47.693298842772343
 21
120.0
 31
-0.0000000000000266
210
0.0
220
1.0
230
-0.0000000000000002
  0
LINE
  5
419D
  8
0
  6
CONTINUOUS
 62
     3
 10
-48.3481372923145685
 20
120.0
 30
-0.0000000000000266
 11
-48.4999999999998082
 21
120.0
 31
-0.0000000000000266
210
0.0
220
1.0
230
-0.0000000000000002
  0
LINE
  5
419E
  8
0
  6
CONTINUOUS
 62
     3
 10
-20.8528165821591891
 20
120.0
 30
-0.0000000000000266
 11
-27.4953207101554185
 21
120.0
 31
-0.0000000000000266
210
0.0
220
1.0
230
-0.0000000000000002
  0
LINE
  5
419F
  8
0
  6
CONTINUOUS
 62
     3
 10
3.8350515463918811
 20
120.0
 30
-0.0000000000000266
 11
-3.835051546391758
 21
120.0
 31
-0.0000000000000266
210
0.0
220
1.0
230
-0.0000000000000002
  0
LINE
  5
41A0
  8
0
  6
CONTINUOUS
 62
     3
 10
48.3481372923145898
 20
112.0
 30
-0.0000000000000249
 11
48.3481372923145898
 21
120.0
 31
-0.0000000000000266
210
0.0
220
1.0
230
-0.0000000000000002
  0
LINE
  5
41A1
  8
0
  6
CONTINUOUS
 62
     3
 10
-3.8350515463918651
 20
112.0
 30
-0.0000000000000249
 11
3.8350515463918811
 21
112.0
 31
-0.0000000000000249
210
0.0
220
1.0
230
-0.0000000000000002
  0
LINE
  5
41A2
  8
0
  6
CONTINUOUS
 62
     3
 10
8.8090433926728036
 20
112.0
 30
-0.0000000000000249
 11
16.2177940602921709
 21
112.0
 31
-0.0000000000000249
210
0.0
220
1.0
230
-0.0000000000000002
  0
LINE
  5
41A3
  8
0
  6
CONTINUOUS
 62
     3
 10
20.8528165821592211
 20
112.0
 30
-0.0000000000000249
 11
27.4953207101554611
 21
112.0
 31
-0.0000000000000249
210
0.0
220
1.0
230
-0.0000000000000002
  0
LINE
  5
41A4
  8
0
  6
CONTINUOUS
 62
     3
 10
31.4755047824802716
 20
112.0
 30
-0.0000000000000249
 11
36.8990866917874882
 21
112.0
 31
-0.0000000000000249
210
0.0
220
1.0
230
-0.0000000000000002
  0
LINE
  5
41A5
  8
0
  6
CONTINUOUS
 62
     3
 10
39.9531893476063189
 20
112.0
 30
-0.0000000000000249
 11
43.7882408939981218
 21
112.0
 31
-0.0000000000000249
210
0.0
220
1.0
230
-0.0000000000000002
  0
LINE
  5
41A6
  8
0
  6
CONTINUOUS
 62
     3
 10
45.7081300844602225
 20
112.0
 30
-0.0000000000000249
 11
47.6932988427723714
 21
112.0
 31
-0.0000000000000249
210
0.0
220
1.0
230
-0.0000000000000002
  0
LINE
  5
41A7
  8
0
  6
CONTINUOUS
 62
     3
 10
48.3481372923145827
 20
112.0
 30
-0.0000000000000249
 11
48.4999999999998082
 21
112.0
 31
-0.0000000000000249
210
0.0
220
1.0
230
-0.0000000000000002
  0
LINE
  5
41A8
  8
0
  6
CONTINUOUS
 62
     3
 10
-48.4999999999998082
 20
112.0
 30
-0.0000000000000249
 11
-48.3481372923145685
 21
112.0
 31
-0.0000000000000249
210
0.0
220
1.0
230
-0.0000000000000002
  0
LINE
  5
41A9
  8
0
  6
CONTINUOUS
 62
     3
 10
-47.693298842772343
 20
112.0
 30
-0.0000000000000249
 11
-45.708130084460187
 21
112.0
 31
-0.0000000000000249
210
0.0
220
1.0
230
-0.0000000000000002
  0
LINE
  5
41AA
  8
0
  6
CONTINUOUS
 62
     3
 10
-43.7882408939981005
 20
112.0
 30
-0.0000000000000249
 11
-39.9531893476062976
 21
112.0
 31
-0.0000000000000249
210
0.0
220
1.0
230
-0.0000000000000002
  0
LINE
  5
41AB
  8
0
  6
CONTINUOUS
 62
     3
 10
-36.8990866917874385
 20
112.0
 30
-0.0000000000000249
 11
-31.4755047824802183
 21
112.0
 31
-0.0000000000000249
210
0.0
220
1.0
230
-0.0000000000000002
  0
LINE
  5
41AC
  8
0
  6
CONTINUOUS
 62
     3
 10
-27.4953207101554113
 20
112.0
 30
-0.0000000000000249
 11
-20.8528165821591891
 21
112.0
 31
-0.0000000000000249
210
0.0
220
1.0
230
-0.0000000000000002
  0
LINE
  5
41AD
  8
0
  6
CONTINUOUS
 62
     3
 10
-16.2177940602921389
 20
112.0
 30
-0.0000000000000249
 11
-8.8090433926727663
 21
112.0
 31
-0.0000000000000249
210
0.0
220
1.0
230
-0.0000000000000002
  0
LINE
  5
41AE
  8
0
  6
CONTINUOUS
 62
     3
 10
-8.8090433926727627
 20
120.0
 30
-0.0000000000000266
 11
-8.8090433926727627
 21
112.0
 31
-0.0000000000000249
210
0.0
220
1.0
230
-0.0000000000000002
  0
LINE
  5
41AF
  8
0
  6
CONTINUOUS
 62
     3
 10
-8.8090433926727663
 20
120.0
 30
-0.0000000000000266
 11
-16.2177940602921389
 21
120.0
 31
-0.0000000000000266
210
0.0
220
1.0
230
-0.0000000000000002
  0
LINE
  5
41B0
  8
0
  6
CONTINUOUS
 62
     3
 10
-3.8350515463917532
 20
112.0
 30
-0.0000000000000249
 11
-3.8350515463917532
 21
120.0
 31
-0.0000000000000266
210
0.0
220
1.0
230
-0.0000000000000002
  0
LINE
  5
41B1
  8
0
  6
CONTINUOUS
 62
     3
 10
-26.492043912986091
 20
120.0
 30
-0.0000000000000266
 11
-26.492043912986091
 21
112.0
 31
-0.0000000000000249
210
0.0
220
1.0
230
-0.0000000000000002
  0
LINE
  5
41B2
  8
0
  6
CONTINUOUS
 62
     3
 10
-27.4953207101554113
 20
112.0
 30
-0.0000000000000249
 11
-27.4953207101554113
 21
120.0
 31
-0.0000000000000266
210
0.0
220
1.0
230
-0.0000000000000002
  0
LINE
  5
41B3
  8
0
  6
CONTINUOUS
 62
     3
 10
-31.475504782480229
 20
120.0000000000000995
 30
-0.0000000000000266
 11
-31.475504782480229
 21
112.0
 31
-0.0000000000000249
210
0.0
220
1.0
230
-0.0000000000000002
  0
LINE
  5
41B4
  8
0
  6
CONTINUOUS
 62
     3
 10
-39.9531893476062976
 20
120.0000000000000995
 30
-0.0000000000000266
 11
-39.9531893476062976
 21
112.0
 31
-0.0000000000000249
210
0.0
220
1.0
230
-0.0000000000000002
  0
LINE
  5
41B5
  8
0
  6
CONTINUOUS
 62
     3
 10
-45.7081300844601799
 20
120.0000000000000995
 30
-0.0000000000000266
 11
-45.7081300844601799
 21
112.0
 31
-0.0000000000000249
210
0.0
220
1.0
230
-0.0000000000000002
  0
LINE
  5
41B6
  8
0
  6
CONTINUOUS
 62
     3
 10
-48.3481372923145898
 20
120.0000000000000995
 30
-0.0000000000000266
 11
-48.3481372923145898
 21
112.0
 31
-0.0000000000000249
210
0.0
220
1.0
230
-0.0000000000000002
  0
LINE
  5
41B7
  8
0
  6
CONTINUOUS
 62
     3
 10
45.7551169041675223
 20
112.0
 30
-0.0000000000000249
 11
45.7551169041675223
 21
120.0
 31
-0.0000000000000266
210
0.0
220
1.0
230
-0.0000000000000002
  0
LINE
  5
41B8
  8
0
  6
CONTINUOUS
 62
     3
 10
47.6932988427723785
 20
120.0
 30
-0.0000000000000266
 11
47.6932988427723785
 21
112.0
 31
-0.0000000000000249
210
0.0
220
1.0
230
-0.0000000000000002
  0
LINE
  5
41B9
  8
0
  6
CONTINUOUS
 62
     3
 10
42.0505145072459072
 20
112.0
 30
-0.0000000000000249
 11
42.0505145072459072
 21
120.0
 31
-0.0000000000000266
210
0.0
220
1.0
230
-0.0000000000000002
  0
LINE
  5
41BA
  8
0
  6
CONTINUOUS
 62
     3
 10
43.7882408939981289
 20
120.0
 30
-0.0000000000000266
 11
43.7882408939981289
 21
112.0
 31
-0.0000000000000249
210
0.0
220
1.0
230
-0.0000000000000002
  0
LINE
  5
41BB
  8
0
  6
CONTINUOUS
 62
     3
 10
35.4802390384163928
 20
112.0
 30
-0.0000000000000249
 11
35.4802390384163928
 21
120.0
 31
-0.0000000000000266
210
0.0
220
1.0
230
-0.0000000000000002
  0
LINE
  5
41BC
  8
0
  6
CONTINUOUS
 62
     3
 10
36.8990866917874882
 20
120.0
 30
-0.0000000000000266
 11
36.8990866917874882
 21
112.0
 31
-0.0000000000000249
210
0.0
220
1.0
230
-0.0000000000000002
  0
LINE
  5
41BD
  8
0
  6
CONTINUOUS
 62
     3
 10
26.4920439129861407
 20
112.0
 30
-0.0000000000000249
 11
26.4920439129861407
 21
120.0
 31
-0.0000000000000266
210
0.0
220
1.0
230
-0.0000000000000002
  0
LINE
  5
41BE
  8
0
  6
CONTINUOUS
 62
     3
 10
27.4953207101554611
 20
120.0
 30
-0.0000000000000266
 11
27.4953207101554611
 21
112.0
 31
-0.0000000000000249
210
0.0
220
1.0
230
-0.0000000000000002
  0
LINE
  5
41BF
  8
0
  6
CONTINUOUS
 62
     3
 10
15.6984597750584207
 20
112.0
 30
-0.0000000000000249
 11
15.6984597750584207
 21
120.0
 31
-0.0000000000000266
210
0.0
220
1.0
230
-0.0000000000000002
  0
LINE
  5
41C0
  8
0
  6
CONTINUOUS
 62
     3
 10
16.2177940602921815
 20
120.0
 30
-0.0000000000000266
 11
16.2177940602921815
 21
112.0
 31
-0.0000000000000249
210
0.0
220
1.0
230
-0.0000000000000002
  0
LINE
  5
41C1
  8
0
  6
CONTINUOUS
 62
     3
 10
45.7081300844602296
 20
100.0
 30
-0.0000000000000222
 11
45.7081300844602296
 21
108.0
 31
-0.000000000000024
210
0.0
220
1.0
230
-0.0000000000000002
  0
LINE
  5
41C2
  8
0
  6
CONTINUOUS
 62
     3
 10
39.9531893476063189
 20
100.0
 30
-0.0000000000000222
 11
39.9531893476063189
 21
108.0
 31
-0.000000000000024
210
0.0
220
1.0
230
-0.0000000000000002
  0
LINE
  5
41C3
  8
0
  6
CONTINUOUS
 62
     3
 10
31.4755047824802716
 20
100.0
 30
-0.0000000000000222
 11
31.4755047824802716
 21
108.0
 31
-0.000000000000024
210
0.0
220
1.0
230
-0.0000000000000002
  0
LINE
  5
41C4
  8
0
  6
CONTINUOUS
 62
     3
 10
20.8528165821592211
 20
100.0
 30
-0.0000000000000222
 11
20.8528165821592211
 21
108.0
 31
-0.000000000000024
210
0.0
220
1.0
230
-0.0000000000000002
  0
LINE
  5
41C5
  8
0
  6
CONTINUOUS
 62
     3
 10
8.8090433926728053
 20
100.0
 30
-0.0000000000000222
 11
8.8090433926728053
 21
108.0
 31
-0.000000000000024
210
0.0
220
1.0
230
-0.0000000000000002
  0
LINE
  5
41C6
  8
0
  6
CONTINUOUS
 62
     3
 10
-3.8350515463917532
 20
100.0
 30
-0.0000000000000222
 11
-3.8350515463917532
 21
108.0
 31
-0.000000000000024
210
0.0
220
1.0
230
-0.0000000000000002
  0
LINE
  5
41C7
  8
0
  6
CONTINUOUS
 62
     3
 10
-15.6984597750583799
 20
108.0
 30
-0.000000000000024
 11
-15.6984597750583799
 21
100.0
 31
-0.0000000000000222
210
0.0
220
1.0
230
-0.0000000000000002
  0
LINE
  5
41C8
  8
0
  6
CONTINUOUS
 62
     3
 10
-16.2177940602921318
 20
100.0
 30
-0.0000000000000222
 11
-16.2177940602921318
 21
108.0
 31
-0.000000000000024
210
0.0
220
1.0
230
-0.0000000000000002
  0
LINE
  5
41C9
  8
0
  6
CONTINUOUS
 62
     3
 10
-26.492043912986091
 20
108.0
 30
-0.000000000000024
 11
-26.492043912986091
 21
100.0
 31
-0.0000000000000222
210
0.0
220
1.0
230
-0.0000000000000002
  0
LINE
  5
41CA
  8
0
  6
CONTINUOUS
 62
     3
 10
-27.4953207101554113
 20
100.0
 30
-0.0000000000000222
 11
-27.4953207101554113
 21
108.0
 31
-0.000000000000024
210
0.0
220
1.0
230
-0.0000000000000002
  0
LINE
  5
41CB
  8
0
  6
CONTINUOUS
 62
     3
 10
-35.4802390384163573
 20
108.0000000000000995
 30
-0.000000000000024
 11
-35.4802390384163573
 21
100.0000000000000995
 31
-0.0000000000000222
210
0.0
220
1.0
230
-0.0000000000000002
  0
LINE
  5
41CC
  8
0
  6
CONTINUOUS
 62
     3
 10
-36.8990866917874598
 20
100.0000000000000995
 30
-0.0000000000000222
 11
-36.8990866917874598
 21
108.0000000000000995
 31
-0.000000000000024
210
0.0
220
1.0
230
-0.0000000000000002
  0
LINE
  5
41CD
  8
0
  6
CONTINUOUS
 62
     3
 10
-42.0505145072458788
 20
108.0
 30
-0.000000000000024
 11
-42.0505145072458788
 21
100.0000000000000995
 31
-0.0000000000000222
210
0.0
220
1.0
230
-0.0000000000000002
  0
LINE
  5
41CE
  8
0
  6
CONTINUOUS
 62
     3
 10
-43.7882408939981005
 20
100.0000000000000995
 30
-0.0000000000000222
 11
-43.7882408939981005
 21
108.0
 31
-0.000000000000024
210
0.0
220
1.0
230
-0.0000000000000002
  0
LINE
  5
41CF
  8
0
  6
CONTINUOUS
 62
     3
 10
-45.7551169041675223
 20
108.0000000000000995
 30
-0.000000000000024
 11
-45.7551169041675223
 21
100.0000000000000995
 31
-0.0000000000000222
210
0.0
220
1.0
230
-0.0000000000000002
  0
LINE
  5
41D0
  8
0
  6
CONTINUOUS
 62
     3
 10
-47.6932988427723501
 20
100.0000000000000995
 30
-0.0000000000000222
 11
-47.6932988427723501
 21
108.0000000000000995
 31
-0.000000000000024
210
0.0
220
1.0
230
-0.0000000000000002
  0
LINE
  5
41D1
  8
0
  6
CONTINUOUS
 62
     3
 10
48.499999999999801
 20
108.0
 30
-0.000000000000024
 11
48.3481372923145827
 21
108.0
 31
-0.000000000000024
210
0.0
220
1.0
230
-0.0000000000000002
  0
LINE
  5
41D2
  8
0
  6
CONTINUOUS
 62
     3
 10
47.6932988427723572
 20
108.0
 30
-0.000000000000024
 11
45.7081300844602225
 21
108.0
 31
-0.000000000000024
210
0.0
220
1.0
230
-0.0000000000000002
  0
LINE
  5
41D3
  8
0
  6
CONTINUOUS
 62
     3
 10
43.7882408939981218
 20
108.0
 30
-0.000000000000024
 11
39.9531893476063189
 21
108.0
 31
-0.000000000000024
210
0.0
220
1.0
230
-0.0000000000000002
  0
LINE
  5
41D4
  8
0
  6
CONTINUOUS
 62
     3
 10
36.8990866917875024
 20
108.0
 30
-0.000000000000024
 11
31.4755047824802716
 21
108.0
 31
-0.000000000000024
210
0.0
220
1.0
230
-0.0000000000000002
  0
LINE
  5
41D5
  8
0
  6
CONTINUOUS
 62
     3
 10
27.4953207101554611
 20
108.0
 30
-0.000000000000024
 11
20.8528165821592211
 21
108.0
 31
-0.000000000000024
210
0.0
220
1.0
230
-0.0000000000000002
  0
LINE
  5
41D6
  8
0
  6
CONTINUOUS
 62
     3
 10
16.2177940602921709
 20
108.0
 30
-0.000000000000024
 11
8.8090433926728036
 21
108.0
 31
-0.000000000000024
210
0.0
220
1.0
230
-0.0000000000000002
  0
LINE
  5
41D7
  8
0
  6
CONTINUOUS
 62
     3
 10
3.8350515463918811
 20
108.0
 30
-0.000000000000024
 11
-3.835051546391758
 21
108.0
 31
-0.000000000000024
210
0.0
220
1.0
230
-0.0000000000000002
  0
LINE
  5
41D8
  8
0
  6
CONTINUOUS
 62
     3
 10
-8.8090433926727663
 20
108.0
 30
-0.000000000000024
 11
-16.2177940602921389
 21
108.0
 31
-0.000000000000024
210
0.0
220
1.0
230
-0.0000000000000002
  0
LINE
  5
41D9
  8
0
  6
CONTINUOUS
 62
     3
 10
-20.8528165821592211
 20
108.0
 30
-0.000000000000024
 11
-27.4953207101554007
 21
108.0
 31
-0.000000000000024
210
0.0
220
1.0
230
-0.0000000000000002
  0
LINE
  5
41DA
  8
0
  6
CONTINUOUS
 62
     3
 10
-31.4755047824802183
 20
108.0
 30
-0.000000000000024
 11
-36.8990866917874314
 21
108.0
 31
-0.000000000000024
210
0.0
220
1.0
230
-0.0000000000000002
  0
LINE
  5
41DB
  8
0
  6
CONTINUOUS
 62
     3
 10
-39.9531893476062905
 20
108.0
 30
-0.000000000000024
 11
-43.7882408939981005
 21
108.0
 31
-0.000000000000024
210
0.0
220
1.0
230
-0.0000000000000002
  0
LINE
  5
41DC
  8
0
  6
CONTINUOUS
 62
     3
 10
-45.708130084460187
 20
108.0
 30
-0.000000000000024
 11
-47.693298842772343
 21
108.0
 31
-0.000000000000024
210
0.0
220
1.0
230
-0.0000000000000002
  0
LINE
  5
41DD
  8
0
  6
CONTINUOUS
 62
     3
 10
-48.3481372923145685
 20
108.0
 30
-0.000000000000024
 11
-48.4999999999998082
 21
108.0
 31
-0.000000000000024
210
0.0
220
1.0
230
-0.0000000000000002
  0
LINE
  5
41DE
  8
0
  6
CONTINUOUS
 62
     3
 10
48.3481372923145898
 20
100.0
 30
-0.0000000000000222
 11
48.3481372923145898
 21
108.0
 31
-0.000000000000024
210
0.0
220
1.0
230
-0.0000000000000002
  0
LINE
  5
41DF
  8
0
  6
CONTINUOUS
 62
     3
 10
-48.4999999999998082
 20
100.0
 30
-0.0000000000000222
 11
-48.3481372923145685
 21
100.0
 31
-0.0000000000000222
210
0.0
220
1.0
230
-0.0000000000000002
  0
LINE
  5
41E0
  8
0
  6
CONTINUOUS
 62
     3
 10
-47.693298842772343
 20
100.0
 30
-0.0000000000000222
 11
-45.708130084460187
 21
100.0
 31
-0.0000000000000222
210
0.0
220
1.0
230
-0.0000000000000002
  0
LINE
  5
41E1
  8
0
  6
CONTINUOUS
 62
     3
 10
-43.7882408939981005
 20
100.0
 30
-0.0000000000000222
 11
-39.9531893476062976
 21
100.0
 31
-0.0000000000000222
210
0.0
220
1.0
230
-0.0000000000000002
  0
LINE
  5
41E2
  8
0
  6
CONTINUOUS
 62
     3
 10
-36.8990866917874385
 20
100.0
 30
-0.0000000000000222
 11
-31.4755047824802183
 21
100.0
 31
-0.0000000000000222
210
0.0
220
1.0
230
-0.0000000000000002
  0
LINE
  5
41E3
  8
0
  6
CONTINUOUS
 62
     3
 10
-27.4953207101554113
 20
100.0
 30
-0.0000000000000222
 11
-20.8528165821591891
 21
100.0
 31
-0.0000000000000222
210
0.0
220
1.0
230
-0.0000000000000002
  0
LINE
  5
41E4
  8
0
  6
CONTINUOUS
 62
     3
 10
-16.2177940602921389
 20
100.0
 30
-0.0000000000000222
 11
-8.8090433926727663
 21
100.0
 31
-0.0000000000000222
210
0.0
220
1.0
230
-0.0000000000000002
  0
LINE
  5
41E5
  8
0
  6
CONTINUOUS
 62
     3
 10
-3.835051546391758
 20
100.0
 30
-0.0000000000000222
 11
3.8350515463918811
 21
100.0
 31
-0.0000000000000222
210
0.0
220
1.0
230
-0.0000000000000002
  0
LINE
  5
41E6
  8
0
  6
CONTINUOUS
 62
     3
 10
8.8090433926728036
 20
100.0
 30
-0.0000000000000222
 11
16.2177940602921709
 21
100.0
 31
-0.0000000000000222
210
0.0
220
1.0
230
-0.0000000000000002
  0
LINE
  5
41E7
  8
0
  6
CONTINUOUS
 62
     3
 10
20.8528165821592211
 20
100.0
 30
-0.0000000000000222
 11
27.4953207101554611
 21
100.0
 31
-0.0000000000000222
210
0.0
220
1.0
230
-0.0000000000000002
  0
LINE
  5
41E8
  8
0
  6
CONTINUOUS
 62
     3
 10
31.4755047824802716
 20
100.0
 30
-0.0000000000000222
 11
36.8990866917874882
 21
100.0
 31
-0.0000000000000222
210
0.0
220
1.0
230
-0.0000000000000002
  0
LINE
  5
41E9
  8
0
  6
CONTINUOUS
 62
     3
 10
39.9531893476063189
 20
100.0
 30
-0.0000000000000222
 11
43.7882408939981218
 21
100.0
 31
-0.0000000000000222
210
0.0
220
1.0
230
-0.0000000000000002
  0
LINE
  5
41EA
  8
0
  6
CONTINUOUS
 62
     3
 10
45.7081300844602225
 20
100.0
 30
-0.0000000000000222
 11
47.6932988427723714
 21
100.0
 31
-0.0000000000000222
210
0.0
220
1.0
230
-0.0000000000000002
  0
LINE
  5
41EB
  8
0
  6
CONTINUOUS
 62
     3
 10
48.3481372923145827
 20
100.0
 30
-0.0000000000000222
 11
48.4999999999998082
 21
100.0
 31
-0.0000000000000222
210
0.0
220
1.0
230
-0.0000000000000002
  0
LINE
  5
41EC
  8
0
  6
CONTINUOUS
 62
     3
 10
45.7551169041675223
 20
100.0
 30
-0.0000000000000222
 11
45.7551169041675223
 21
108.0
 31
-0.000000000000024
210
0.0
220
1.0
230
-0.0000000000000002
  0
LINE
  5
41ED
  8
0
  6
CONTINUOUS
 62
     3
 10
47.6932988427723785
 20
108.0
 30
-0.000000000000024
 11
47.6932988427723785
 21
100.0
 31
-0.0000000000000222
210
0.0
220
1.0
230
-0.0000000000000002
  0
LINE
  5
41EE
  8
0
  6
CONTINUOUS
 62
     3
 10
42.0505145072459072
 20
100.0
 30
-0.0000000000000222
 11
42.0505145072459072
 21
108.0
 31
-0.000000000000024
210
0.0
220
1.0
230
-0.0000000000000002
  0
LINE
  5
41EF
  8
0
  6
CONTINUOUS
 62
     3
 10
43.7882408939981289
 20
108.0
 30
-0.000000000000024
 11
43.7882408939981289
 21
100.0
 31
-0.0000000000000222
210
0.0
220
1.0
230
-0.0000000000000002
  0
LINE
  5
41F0
  8
0
  6
CONTINUOUS
 62
     3
 10
35.4802390384163928
 20
100.0
 30
-0.0000000000000222
 11
35.4802390384163928
 21
108.0
 31
-0.000000000000024
210
0.0
220
1.0
230
-0.0000000000000002
  0
LINE
  5
41F1
  8
0
  6
CONTINUOUS
 62
     3
 10
36.8990866917874882
 20
108.0
 30
-0.000000000000024
 11
36.8990866917874882
 21
100.0
 31
-0.0000000000000222
210
0.0
220
1.0
230
-0.0000000000000002
  0
LINE
  5
41F2
  8
0
  6
CONTINUOUS
 62
     3
 10
26.4920439129861407
 20
100.0
 30
-0.0000000000000222
 11
26.4920439129861407
 21
108.0
 31
-0.000000000000024
210
0.0
220
1.0
230
-0.0000000000000002
  0
LINE
  5
41F3
  8
0
  6
CONTINUOUS
 62
     3
 10
27.4953207101554611
 20
108.0
 30
-0.000000000000024
 11
27.4953207101554611
 21
100.0
 31
-0.0000000000000222
210
0.0
220
1.0
230
-0.0000000000000002
  0
LINE
  5
41F4
  8
0
  6
CONTINUOUS
 62
     3
 10
15.6984597750584207
 20
100.0
 30
-0.0000000000000222
 11
15.6984597750584207
 21
108.0
 31
-0.000000000000024
210
0.0
220
1.0
230
-0.0000000000000002
  0
LINE
  5
41F5
  8
0
  6
CONTINUOUS
 62
     3
 10
16.2177940602921815
 20
108.0
 30
-0.000000000000024
 11
16.2177940602921815
 21
100.0
 31
-0.0000000000000222
210
0.0
220
1.0
230
-0.0000000000000002
  0
LINE
  5
41F6
  8
0
  6
CONTINUOUS
 62
     3
 10
3.8350515463918811
 20
108.0
 30
-0.000000000000024
 11
3.8350515463918811
 21
100.0
 31
-0.0000000000000222
210
0.0
220
1.0
230
-0.0000000000000002
  0
LINE
  5
41F7
  8
0
  6
CONTINUOUS
 62
     3
 10
-8.8090433926727627
 20
108.0
 30
-0.000000000000024
 11
-8.8090433926727627
 21
100.0
 31
-0.0000000000000222
210
0.0
220
1.0
230
-0.0000000000000002
  0
LINE
  5
41F8
  8
0
  6
CONTINUOUS
 62
     3
 10
-31.475504782480229
 20
108.0000000000000995
 30
-0.000000000000024
 11
-31.475504782480229
 21
100.0000000000000995
 31
-0.0000000000000222
210
0.0
220
1.0
230
-0.0000000000000002
  0
LINE
  5
41F9
  8
0
  6
CONTINUOUS
 62
     3
 10
-39.9531893476062976
 20
108.0000000000000995
 30
-0.000000000000024
 11
-39.9531893476062976
 21
100.0000000000000995
 31
-0.0000000000000222
210
0.0
220
1.0
230
-0.0000000000000002
  0
LINE
  5
41FA
  8
0
  6
CONTINUOUS
 62
     3
 10
-45.7081300844601799
 20
108.0000000000000995
 30
-0.000000000000024
 11
-45.7081300844601799
 21
100.0000000000000995
 31
-0.0000000000000222
210
0.0
220
1.0
230
-0.0000000000000002
  0
LINE
  5
41FB
  8
0
  6
CONTINUOUS
 62
     3
 10
-48.3481372923145898
 20
108.0000000000000995
 30
-0.000000000000024
 11
-48.3481372923145898
 21
100.0000000000000995
 31
-0.0000000000000222
210
0.0
220
1.0
230
-0.0000000000000002
  0
LINE
  5
41FC
  8
0
  6
CONTINUOUS
 62
     3
 10
-20.8528165821592495
 20
108.0
 30
-0.000000000000024
 11
-20.8528165821592495
 21
100.0
 31
-0.0000000000000222
210
0.0
220
1.0
230
-0.0000000000000002
  0
LINE
  5
41FD
  8
0
  6
CONTINUOUS
 62
     3
 10
-15.6984597750583799
 20
96.0000000000000568
 30
-0.0000000000000213
 11
-15.6984597750583799
 21
88.0000000000000426
 31
-0.0000000000000195
210
0.0
220
1.0
230
-0.0000000000000002
  0
LINE
  5
41FE
  8
0
  6
CONTINUOUS
 62
     3
 10
-16.2177940602921318
 20
88.0000000000000426
 30
-0.0000000000000195
 11
-16.2177940602921318
 21
96.0000000000000568
 31
-0.0000000000000213
210
0.0
220
1.0
230
-0.0000000000000002
  0
LINE
  5
41FF
  8
0
  6
CONTINUOUS
 62
     3
 10
-20.8528165821591891
 20
96.0000000000000568
 30
-0.0000000000000213
 11
-20.8528165821591891
 21
88.0000000000000426
 31
-0.0000000000000195
210
0.0
220
1.0
230
-0.0000000000000002
  0
LINE
  5
4200
  8
0
  6
CONTINUOUS
 62
     3
 10
3.8350515463918811
 20
96.0000000000000568
 30
-0.0000000000000213
 11
3.8350515463918811
 21
88.0000000000000426
 31
-0.0000000000000195
210
0.0
220
1.0
230
-0.0000000000000002
  0
LINE
  5
4201
  8
0
  6
CONTINUOUS
 62
     3
 10
45.7081300844602296
 20
88.0000000000000142
 30
-0.0000000000000195
 11
45.7081300844602296
 21
96.0000000000000284
 31
-0.0000000000000213
210
0.0
220
1.0
230
-0.0000000000000002
  0
LINE
  5
4202
  8
0
  6
CONTINUOUS
 62
     3
 10
39.9531893476063189
 20
88.0000000000000142
 30
-0.0000000000000195
 11
39.9531893476063189
 21
95.9999999999999858
 31
-0.0000000000000213
210
0.0
220
1.0
230
-0.0000000000000002
  0
LINE
  5
4203
  8
0
  6
CONTINUOUS
 62
     3
 10
31.4755047824802716
 20
88.0000000000000142
 30
-0.0000000000000195
 11
31.4755047824802716
 21
96.0000000000000284
 31
-0.0000000000000213
210
0.0
220
1.0
230
-0.0000000000000002
  0
LINE
  5
4204
  8
0
  6
CONTINUOUS
 62
     3
 10
20.8528165821592211
 20
88.0000000000000426
 30
-0.0000000000000195
 11
20.8528165821592211
 21
96.0000000000000568
 31
-0.0000000000000213
210
0.0
220
1.0
230
-0.0000000000000002
  0
LINE
  5
4205
  8
0
  6
CONTINUOUS
 62
     3
 10
8.8090433926728053
 20
88.0000000000000426
 30
-0.0000000000000195
 11
8.8090433926728053
 21
96.0000000000000568
 31
-0.0000000000000213
210
0.0
220
1.0
230
-0.0000000000000002
  0
LINE
  5
4206
  8
0
  6
CONTINUOUS
 62
     3
 10
-35.4802390384163573
 20
96.0000000000000853
 30
-0.0000000000000213
 11
-35.4802390384163573
 21
88.0000000000000426
 31
-0.0000000000000195
210
0.0
220
1.0
230
-0.0000000000000002
  0
LINE
  5
4207
  8
0
  6
CONTINUOUS
 62
     3
 10
-36.8990866917874598
 20
88.0000000000000711
 30
-0.0000000000000195
 11
-36.8990866917874598
 21
96.0000000000000853
 31
-0.0000000000000213
210
0.0
220
1.0
230
-0.0000000000000002
  0
LINE
  5
4208
  8
0
  6
CONTINUOUS
 62
     3
 10
-42.0505145072458788
 20
96.0000000000000568
 30
-0.0000000000000213
 11
-42.0505145072458788
 21
88.0000000000000711
 31
-0.0000000000000195
210
0.0
220
1.0
230
-0.0000000000000002
  0
LINE
  5
4209
  8
0
  6
CONTINUOUS
 62
     3
 10
-43.7882408939981005
 20
88.0000000000000711
 30
-0.0000000000000195
 11
-43.7882408939981005
 21
96.0000000000000568
 31
-0.0000000000000213
210
0.0
220
1.0
230
-0.0000000000000002
  0
LINE
  5
420A
  8
0
  6
CONTINUOUS
 62
     3
 10
-45.7551169041674868
 20
96.0000000000000853
 30
-0.0000000000000213
 11
-45.7551169041674868
 21
88.0000000000000711
 31
-0.0000000000000195
210
0.0
220
1.0
230
-0.0000000000000002
  0
LINE
  5
420B
  8
0
  6
CONTINUOUS
 62
     3
 10
-47.6932988427723501
 20
88.0000000000000711
 30
-0.0000000000000195
 11
-47.6932988427723501
 21
96.0000000000000853
 31
-0.0000000000000213
210
0.0
220
1.0
230
-0.0000000000000002
  0
LINE
  5
420C
  8
0
  6
CONTINUOUS
 62
     3
 10
48.499999999999801
 20
96.0000000000000568
 30
-0.0000000000000213
 11
48.3481372923145827
 21
96.0000000000000568
 31
-0.0000000000000213
210
0.0
220
1.0
230
-0.0000000000000002
  0
LINE
  5
420D
  8
0
  6
CONTINUOUS
 62
     3
 10
47.6932988427723572
 20
96.0000000000000568
 30
-0.0000000000000213
 11
45.7081300844602225
 21
96.0000000000000568
 31
-0.0000000000000213
210
0.0
220
1.0
230
-0.0000000000000002
  0
LINE
  5
420E
  8
0
  6
CONTINUOUS
 62
     3
 10
43.7882408939981218
 20
96.0000000000000568
 30
-0.0000000000000213
 11
39.9531893476063189
 21
96.0000000000000568
 31
-0.0000000000000213
210
0.0
220
1.0
230
-0.0000000000000002
  0
LINE
  5
420F
  8
0
  6
CONTINUOUS
 62
     3
 10
36.8990866917875024
 20
96.0000000000000568
 30
-0.0000000000000213
 11
31.4755047824802716
 21
96.0000000000000568
 31
-0.0000000000000213
210
0.0
220
1.0
230
-0.0000000000000002
  0
LINE
  5
4210
  8
0
  6
CONTINUOUS
 62
     3
 10
27.4953207101554611
 20
96.0000000000000568
 30
-0.0000000000000213
 11
20.8528165821592211
 21
96.0000000000000568
 31
-0.0000000000000213
210
0.0
220
1.0
230
-0.0000000000000002
  0
LINE
  5
4211
  8
0
  6
CONTINUOUS
 62
     3
 10
16.2177940602921709
 20
96.0000000000000568
 30
-0.0000000000000213
 11
8.8090433926728036
 21
96.0000000000000568
 31
-0.0000000000000213
210
0.0
220
1.0
230
-0.0000000000000002
  0
LINE
  5
4212
  8
0
  6
CONTINUOUS
 62
     3
 10
-31.4755047824802183
 20
96.0000000000000568
 30
-0.0000000000000213
 11
-36.8990866917874314
 21
96.0000000000000568
 31
-0.0000000000000213
210
0.0
220
1.0
230
-0.0000000000000002
  0
LINE
  5
4213
  8
0
  6
CONTINUOUS
 62
     3
 10
-39.9531893476062905
 20
96.0000000000000568
 30
-0.0000000000000213
 11
-43.7882408939981005
 21
96.0000000000000568
 31
-0.0000000000000213
210
0.0
220
1.0
230
-0.0000000000000002
  0
LINE
  5
4214
  8
0
  6
CONTINUOUS
 62
     3
 10
-45.708130084460187
 20
96.0000000000000568
 30
-0.0000000000000213
 11
-47.693298842772343
 21
96.0000000000000568
 31
-0.0000000000000213
210
0.0
220
1.0
230
-0.0000000000000002
  0
LINE
  5
4215
  8
0
  6
CONTINUOUS
 62
     3
 10
-48.3481372923145685
 20
96.0000000000000568
 30
-0.0000000000000213
 11
-48.4999999999998082
 21
96.0000000000000568
 31
-0.0000000000000213
210
0.0
220
1.0
230
-0.0000000000000002
  0
LINE
  5
4216
  8
0
  6
CONTINUOUS
 62
     3
 10
-20.8528165821591891
 20
96.0000000000000568
 30
-0.0000000000000213
 11
-27.4953207101554185
 21
96.0000000000000568
 31
-0.0000000000000213
210
0.0
220
1.0
230
-0.0000000000000002
  0
LINE
  5
4217
  8
0
  6
CONTINUOUS
 62
     3
 10
3.8350515463918811
 20
96.0000000000000568
 30
-0.0000000000000213
 11
-3.835051546391758
 21
96.0000000000000568
 31
-0.0000000000000213
210
0.0
220
1.0
230
-0.0000000000000002
  0
LINE
  5
4218
  8
0
  6
CONTINUOUS
 62
     3
 10
48.3481372923145898
 20
88.0000000000000142
 30
-0.0000000000000195
 11
48.3481372923145898
 21
96.0000000000000284
 31
-0.0000000000000213
210
0.0
220
1.0
230
-0.0000000000000002
  0
LINE
  5
4219
  8
0
  6
CONTINUOUS
 62
     3
 10
-3.8350515463918651
 20
88.0000000000000426
 30
-0.0000000000000195
 11
3.8350515463918811
 21
88.0000000000000426
 31
-0.0000000000000195
210
0.0
220
1.0
230
-0.0000000000000002
  0
LINE
  5
421A
  8
0
  6
CONTINUOUS
 62
     3
 10
8.8090433926728036
 20
88.0000000000000426
 30
-0.0000000000000195
 11
16.2177940602921709
 21
88.0000000000000426
 31
-0.0000000000000195
210
0.0
220
1.0
230
-0.0000000000000002
  0
LINE
  5
421B
  8
0
  6
CONTINUOUS
 62
     3
 10
20.8528165821592211
 20
88.0000000000000426
 30
-0.0000000000000195
 11
27.4953207101554611
 21
88.0000000000000426
 31
-0.0000000000000195
210
0.0
220
1.0
230
-0.0000000000000002
  0
LINE
  5
421C
  8
0
  6
CONTINUOUS
 62
     3
 10
31.4755047824802716
 20
88.0000000000000426
 30
-0.0000000000000195
 11
36.8990866917874882
 21
88.0000000000000426
 31
-0.0000000000000195
210
0.0
220
1.0
230
-0.0000000000000002
  0
LINE
  5
421D
  8
0
  6
CONTINUOUS
 62
     3
 10
39.9531893476063189
 20
88.0000000000000426
 30
-0.0000000000000195
 11
43.7882408939981218
 21
88.0000000000000426
 31
-0.0000000000000195
210
0.0
220
1.0
230
-0.0000000000000002
  0
LINE
  5
421E
  8
0
  6
CONTINUOUS
 62
     3
 10
45.7081300844602225
 20
88.0000000000000426
 30
-0.0000000000000195
 11
47.6932988427723714
 21
88.0000000000000426
 31
-0.0000000000000195
210
0.0
220
1.0
230
-0.0000000000000002
  0
LINE
  5
421F
  8
0
  6
CONTINUOUS
 62
     3
 10
48.3481372923145827
 20
88.0000000000000426
 30
-0.0000000000000195
 11
48.4999999999998082
 21
88.0000000000000426
 31
-0.0000000000000195
210
0.0
220
1.0
230
-0.0000000000000002
  0
LINE
  5
4220
  8
0
  6
CONTINUOUS
 62
     3
 10
-48.4999999999998082
 20
88.0000000000000426
 30
-0.0000000000000195
 11
-48.3481372923145685
 21
88.0000000000000426
 31
-0.0000000000000195
210
0.0
220
1.0
230
-0.0000000000000002
  0
LINE
  5
4221
  8
0
  6
CONTINUOUS
 62
     3
 10
-47.693298842772343
 20
88.0000000000000426
 30
-0.0000000000000195
 11
-45.708130084460187
 21
88.0000000000000426
 31
-0.0000000000000195
210
0.0
220
1.0
230
-0.0000000000000002
  0
LINE
  5
4222
  8
0
  6
CONTINUOUS
 62
     3
 10
-43.7882408939981005
 20
88.0000000000000426
 30
-0.0000000000000195
 11
-39.9531893476062976
 21
88.0000000000000426
 31
-0.0000000000000195
210
0.0
220
1.0
230
-0.0000000000000002
  0
LINE
  5
4223
  8
0
  6
CONTINUOUS
 62
     3
 10
-36.8990866917874385
 20
88.0000000000000426
 30
-0.0000000000000195
 11
-31.4755047824802183
 21
88.0000000000000426
 31
-0.0000000000000195
210
0.0
220
1.0
230
-0.0000000000000002
  0
LINE
  5
4224
  8
0
  6
CONTINUOUS
 62
     3
 10
-27.4953207101554113
 20
88.0000000000000426
 30
-0.0000000000000195
 11
-20.8528165821591891
 21
88.0000000000000426
 31
-0.0000000000000195
210
0.0
220
1.0
230
-0.0000000000000002
  0
LINE
  5
4225
  8
0
  6
CONTINUOUS
 62
     3
 10
-16.2177940602921389
 20
88.0000000000000426
 30
-0.0000000000000195
 11
-8.8090433926727663
 21
88.0000000000000426
 31
-0.0000000000000195
210
0.0
220
1.0
230
-0.0000000000000002
  0
LINE
  5
4226
  8
0
  6
CONTINUOUS
 62
     3
 10
-8.8090433926727627
 20
96.0000000000000568
 30
-0.0000000000000213
 11
-8.8090433926727627
 21
88.0000000000000426
 31
-0.0000000000000195
210
0.0
220
1.0
230
-0.0000000000000002
  0
LINE
  5
4227
  8
0
  6
CONTINUOUS
 62
     3
 10
-8.8090433926727663
 20
96.0000000000000568
 30
-0.0000000000000213
 11
-16.2177940602921389
 21
96.0000000000000568
 31
-0.0000000000000213
210
0.0
220
1.0
230
-0.0000000000000002
  0
LINE
  5
4228
  8
0
  6
CONTINUOUS
 62
     3
 10
-3.8350515463917532
 20
88.0000000000000426
 30
-0.0000000000000195
 11
-3.8350515463917532
 21
96.0000000000000568
 31
-0.0000000000000213
210
0.0
220
1.0
230
-0.0000000000000002
  0
LINE
  5
4229
  8
0
  6
CONTINUOUS
 62
     3
 10
-26.492043912986091
 20
96.0000000000000568
 30
-0.0000000000000213
 11
-26.492043912986091
 21
88.0000000000000426
 31
-0.0000000000000195
210
0.0
220
1.0
230
-0.0000000000000002
  0
LINE
  5
422A
  8
0
  6
CONTINUOUS
 62
     3
 10
-27.4953207101554113
 20
88.0000000000000426
 30
-0.0000000000000195
 11
-27.4953207101554113
 21
96.0000000000000568
 31
-0.0000000000000213
210
0.0
220
1.0
230
-0.0000000000000002
  0
LINE
  5
422B
  8
0
  6
CONTINUOUS
 62
     3
 10
-31.475504782480229
 20
96.0000000000000853
 30
-0.0000000000000213
 11
-31.475504782480229
 21
88.0000000000000711
 31
-0.0000000000000195
210
0.0
220
1.0
230
-0.0000000000000002
  0
LINE
  5
422C
  8
0
  6
CONTINUOUS
 62
     3
 10
-39.9531893476062976
 20
96.0000000000000853
 30
-0.0000000000000213
 11
-39.9531893476062976
 21
88.0000000000000711
 31
-0.0000000000000195
210
0.0
220
1.0
230
-0.0000000000000002
  0
LINE
  5
422D
  8
0
  6
CONTINUOUS
 62
     3
 10
-45.7081300844601799
 20
96.0000000000000853
 30
-0.0000000000000213
 11
-45.7081300844601799
 21
88.0000000000000711
 31
-0.0000000000000195
210
0.0
220
1.0
230
-0.0000000000000002
  0
LINE
  5
422E
  8
0
  6
CONTINUOUS
 62
     3
 10
-48.3481372923145898
 20
96.0000000000000853
 30
-0.0000000000000213
 11
-48.3481372923145898
 21
88.0000000000000711
 31
-0.0000000000000195
210
0.0
220
1.0
230
-0.0000000000000002
  0
LINE
  5
422F
  8
0
  6
CONTINUOUS
 62
     3
 10
45.7551169041675223
 20
88.0000000000000142
 30
-0.0000000000000195
 11
45.7551169041675223
 21
96.0000000000000284
 31
-0.0000000000000213
210
0.0
220
1.0
230
-0.0000000000000002
  0
LINE
  5
4230
  8
0
  6
CONTINUOUS
 62
     3
 10
47.6932988427723785
 20
96.0000000000000284
 30
-0.0000000000000213
 11
47.6932988427723785
 21
88.0000000000000142
 31
-0.0000000000000195
210
0.0
220
1.0
230
-0.0000000000000002
  0
LINE
  5
4231
  8
0
  6
CONTINUOUS
 62
     3
 10
42.0505145072459072
 20
88.0000000000000142
 30
-0.0000000000000195
 11
42.0505145072459072
 21
96.0000000000000284
 31
-0.0000000000000213
210
0.0
220
1.0
230
-0.0000000000000002
  0
LINE
  5
4232
  8
0
  6
CONTINUOUS
 62
     3
 10
43.7882408939981289
 20
96.0000000000000284
 30
-0.0000000000000213
 11
43.7882408939981289
 21
88.0000000000000142
 31
-0.0000000000000195
210
0.0
220
1.0
230
-0.0000000000000002
  0
LINE
  5
4233
  8
0
  6
CONTINUOUS
 62
     3
 10
35.4802390384163928
 20
88.0000000000000426
 30
-0.0000000000000195
 11
35.4802390384163928
 21
96.0000000000000284
 31
-0.0000000000000213
210
0.0
220
1.0
230
-0.0000000000000002
  0
LINE
  5
4234
  8
0
  6
CONTINUOUS
 62
     3
 10
36.8990866917874882
 20
96.0000000000000284
 30
-0.0000000000000213
 11
36.8990866917874882
 21
88.0000000000000142
 31
-0.0000000000000195
210
0.0
220
1.0
230
-0.0000000000000002
  0
LINE
  5
4235
  8
0
  6
CONTINUOUS
 62
     3
 10
26.4920439129861407
 20
88.0000000000000426
 30
-0.0000000000000195
 11
26.4920439129861407
 21
96.0000000000000568
 31
-0.0000000000000213
210
0.0
220
1.0
230
-0.0000000000000002
  0
LINE
  5
4236
  8
0
  6
CONTINUOUS
 62
     3
 10
27.4953207101554611
 20
96.0000000000000568
 30
-0.0000000000000213
 11
27.4953207101554611
 21
88.0000000000000426
 31
-0.0000000000000195
210
0.0
220
1.0
230
-0.0000000000000002
  0
LINE
  5
4237
  8
0
  6
CONTINUOUS
 62
     3
 10
15.6984597750584207
 20
88.0000000000000426
 30
-0.0000000000000195
 11
15.6984597750584207
 21
96.0000000000000568
 31
-0.0000000000000213
210
0.0
220
1.0
230
-0.0000000000000002
  0
LINE
  5
4238
  8
0
  6
CONTINUOUS
 62
     3
 10
16.2177940602921815
 20
96.0000000000000568
 30
-0.0000000000000213
 11
16.2177940602921815
 21
88.0000000000000426
 31
-0.0000000000000195
210
0.0
220
1.0
230
-0.0000000000000002
  0
LINE
  5
4239
  8
0
  6
CONTINUOUS
 62
     3
 10
-15.6984597750583799
 20
84.0000000000000142
 30
-0.0000000000000187
 11
-15.6984597750583799
 21
76.0000000000000142
 31
-0.0000000000000169
210
0.0
220
1.0
230
-0.0000000000000002
  0
LINE
  5
423A
  8
0
  6
CONTINUOUS
 62
     3
 10
-16.2177940602921318
 20
76.0000000000000142
 30
-0.0000000000000169
 11
-16.2177940602921318
 21
84.0000000000000142
 31
-0.0000000000000187
210
0.0
220
1.0
230
-0.0000000000000002
  0
LINE
  5
423B
  8
0
  6
CONTINUOUS
 62
     3
 10
-20.8528165821591891
 20
84.0000000000000142
 30
-0.0000000000000187
 11
-20.8528165821591891
 21
76.0000000000000142
 31
-0.0000000000000169
210
0.0
220
1.0
230
-0.0000000000000002
  0
LINE
  5
423C
  8
0
  6
CONTINUOUS
 62
     3
 10
3.8350515463918811
 20
84.0000000000000142
 30
-0.0000000000000187
 11
3.8350515463918811
 21
76.0000000000000142
 31
-0.0000000000000169
210
0.0
220
1.0
230
-0.0000000000000002
  0
LINE
  5
423D
  8
0
  6
CONTINUOUS
 62
     3
 10
45.7081300844602296
 20
75.9999999999999858
 30
-0.0000000000000169
 11
45.7081300844602296
 21
83.9999999999999858
 31
-0.0000000000000187
210
0.0
220
1.0
230
-0.0000000000000002
  0
LINE
  5
423E
  8
0
  6
CONTINUOUS
 62
     3
 10
39.9531893476063189
 20
75.9999999999999858
 30
-0.0000000000000169
 11
39.9531893476063189
 21
83.9999999999999858
 31
-0.0000000000000187
210
0.0
220
1.0
230
-0.0000000000000002
  0
LINE
  5
423F
  8
0
  6
CONTINUOUS
 62
     3
 10
31.4755047824802716
 20
76.0000000000000142
 30
-0.0000000000000169
 11
31.4755047824802716
 21
84.0000000000000142
 31
-0.0000000000000187
210
0.0
220
1.0
230
-0.0000000000000002
  0
LINE
  5
4240
  8
0
  6
CONTINUOUS
 62
     3
 10
20.8528165821592211
 20
76.0000000000000142
 30
-0.0000000000000169
 11
20.8528165821592211
 21
84.0000000000000142
 31
-0.0000000000000187
210
0.0
220
1.0
230
-0.0000000000000002
  0
LINE
  5
4241
  8
0
  6
CONTINUOUS
 62
     3
 10
8.8090433926728053
 20
76.0000000000000142
 30
-0.0000000000000169
 11
8.8090433926728053
 21
84.0000000000000142
 31
-0.0000000000000187
210
0.0
220
1.0
230
-0.0000000000000002
  0
LINE
  5
4242
  8
0
  6
CONTINUOUS
 62
     3
 10
-35.4802390384163573
 20
84.0000000000000142
 30
-0.0000000000000187
 11
-35.4802390384163573
 21
76.0000000000000142
 31
-0.0000000000000169
210
0.0
220
1.0
230
-0.0000000000000002
  0
LINE
  5
4243
  8
0
  6
CONTINUOUS
 62
     3
 10
-36.8990866917874598
 20
76.0000000000000142
 30
-0.0000000000000169
 11
-36.8990866917874598
 21
84.0000000000000142
 31
-0.0000000000000187
210
0.0
220
1.0
230
-0.0000000000000002
  0
LINE
  5
4244
  8
0
  6
CONTINUOUS
 62
     3
 10
-42.0505145072458788
 20
84.0000000000000284
 30
-0.0000000000000187
 11
-42.0505145072458788
 21
76.0000000000000426
 31
-0.0000000000000169
210
0.0
220
1.0
230
-0.0000000000000002
  0
LINE
  5
4245
  8
0
  6
CONTINUOUS
 62
     3
 10
-43.7882408939981005
 20
76.0000000000000426
 30
-0.0000000000000169
 11
-43.7882408939981005
 21
84.0000000000000284
 31
-0.0000000000000187
210
0.0
220
1.0
230
-0.0000000000000002
  0
LINE
  5
4246
  8
0
  6
CONTINUOUS
 62
     3
 10
-45.7551169041674868
 20
84.0000000000000284
 30
-0.0000000000000187
 11
-45.7551169041674868
 21
76.0000000000000426
 31
-0.0000000000000169
210
0.0
220
1.0
230
-0.0000000000000002
  0
LINE
  5
4247
  8
0
  6
CONTINUOUS
 62
     3
 10
-47.6932988427723501
 20
76.0000000000000426
 30
-0.0000000000000169
 11
-47.6932988427723501
 21
84.0000000000000284
 31
-0.0000000000000187
210
0.0
220
1.0
230
-0.0000000000000002
  0
LINE
  5
4248
  8
0
  6
CONTINUOUS
 62
     3
 10
48.499999999999801
 20
84.0000000000000142
 30
-0.0000000000000187
 11
48.3481372923145827
 21
84.0000000000000142
 31
-0.0000000000000187
210
0.0
220
1.0
230
-0.0000000000000002
  0
LINE
  5
4249
  8
0
  6
CONTINUOUS
 62
     3
 10
47.6932988427723572
 20
84.0000000000000142
 30
-0.0000000000000187
 11
45.7081300844602225
 21
84.0000000000000142
 31
-0.0000000000000187
210
0.0
220
1.0
230
-0.0000000000000002
  0
LINE
  5
424A
  8
0
  6
CONTINUOUS
 62
     3
 10
43.7882408939981218
 20
84.0000000000000142
 30
-0.0000000000000187
 11
39.9531893476063189
 21
84.0000000000000142
 31
-0.0000000000000187
210
0.0
220
1.0
230
-0.0000000000000002
  0
LINE
  5
424B
  8
0
  6
CONTINUOUS
 62
     3
 10
36.8990866917875024
 20
84.0000000000000142
 30
-0.0000000000000187
 11
31.4755047824802716
 21
84.0000000000000142
 31
-0.0000000000000187
210
0.0
220
1.0
230
-0.0000000000000002
  0
LINE
  5
424C
  8
0
  6
CONTINUOUS
 62
     3
 10
27.4953207101554611
 20
84.0000000000000142
 30
-0.0000000000000187
 11
20.8528165821592211
 21
84.0000000000000142
 31
-0.0000000000000187
210
0.0
220
1.0
230
-0.0000000000000002
  0
LINE
  5
424D
  8
0
  6
CONTINUOUS
 62
     3
 10
16.2177940602921709
 20
84.0000000000000142
 30
-0.0000000000000187
 11
8.8090433926728036
 21
84.0000000000000142
 31
-0.0000000000000187
210
0.0
220
1.0
230
-0.0000000000000002
  0
LINE
  5
424E
  8
0
  6
CONTINUOUS
 62
     3
 10
-31.4755047824802183
 20
84.0000000000000142
 30
-0.0000000000000187
 11
-36.8990866917874314
 21
84.0000000000000142
 31
-0.0000000000000187
210
0.0
220
1.0
230
-0.0000000000000002
  0
LINE
  5
424F
  8
0
  6
CONTINUOUS
 62
     3
 10
-39.9531893476062905
 20
84.0000000000000142
 30
-0.0000000000000187
 11
-43.7882408939981005
 21
84.0000000000000142
 31
-0.0000000000000187
210
0.0
220
1.0
230
-0.0000000000000002
  0
LINE
  5
4250
  8
0
  6
CONTINUOUS
 62
     3
 10
-45.708130084460187
 20
84.0000000000000142
 30
-0.0000000000000187
 11
-47.693298842772343
 21
84.0000000000000142
 31
-0.0000000000000187
210
0.0
220
1.0
230
-0.0000000000000002
  0
LINE
  5
4251
  8
0
  6
CONTINUOUS
 62
     3
 10
-48.3481372923145685
 20
84.0000000000000142
 30
-0.0000000000000187
 11
-48.4999999999998082
 21
84.0000000000000142
 31
-0.0000000000000187
210
0.0
220
1.0
230
-0.0000000000000002
  0
LINE
  5
4252
  8
0
  6
CONTINUOUS
 62
     3
 10
-20.8528165821591891
 20
84.0000000000000142
 30
-0.0000000000000187
 11
-27.4953207101554185
 21
84.0000000000000142
 31
-0.0000000000000187
210
0.0
220
1.0
230
-0.0000000000000002
  0
LINE
  5
4253
  8
0
  6
CONTINUOUS
 62
     3
 10
3.8350515463918811
 20
84.0000000000000142
 30
-0.0000000000000187
 11
-3.835051546391758
 21
84.0000000000000142
 31
-0.0000000000000187
210
0.0
220
1.0
230
-0.0000000000000002
  0
LINE
  5
4254
  8
0
  6
CONTINUOUS
 62
     3
 10
48.3481372923145898
 20
75.9999999999999858
 30
-0.0000000000000169
 11
48.3481372923145898
 21
83.9999999999999858
 31
-0.0000000000000187
210
0.0
220
1.0
230
-0.0000000000000002
  0
LINE
  5
4255
  8
0
  6
CONTINUOUS
 62
     3
 10
-3.8350515463918651
 20
76.0000000000000142
 30
-0.0000000000000169
 11
3.8350515463918811
 21
76.0000000000000142
 31
-0.0000000000000169
210
0.0
220
1.0
230
-0.0000000000000002
  0
LINE
  5
4256
  8
0
  6
CONTINUOUS
 62
     3
 10
8.8090433926728036
 20
76.0000000000000142
 30
-0.0000000000000169
 11
16.2177940602921709
 21
76.0000000000000142
 31
-0.0000000000000169
210
0.0
220
1.0
230
-0.0000000000000002
  0
LINE
  5
4257
  8
0
  6
CONTINUOUS
 62
     3
 10
20.8528165821592211
 20
76.0000000000000142
 30
-0.0000000000000169
 11
27.4953207101554611
 21
76.0000000000000142
 31
-0.0000000000000169
210
0.0
220
1.0
230
-0.0000000000000002
  0
LINE
  5
4258
  8
0
  6
CONTINUOUS
 62
     3
 10
31.4755047824802716
 20
76.0000000000000142
 30
-0.0000000000000169
 11
36.8990866917874882
 21
76.0000000000000142
 31
-0.0000000000000169
210
0.0
220
1.0
230
-0.0000000000000002
  0
LINE
  5
4259
  8
0
  6
CONTINUOUS
 62
     3
 10
39.9531893476063189
 20
76.0000000000000142
 30
-0.0000000000000169
 11
43.7882408939981218
 21
76.0000000000000142
 31
-0.0000000000000169
210
0.0
220
1.0
230
-0.0000000000000002
  0
LINE
  5
425A
  8
0
  6
CONTINUOUS
 62
     3
 10
45.7081300844602225
 20
76.0000000000000142
 30
-0.0000000000000169
 11
47.6932988427723714
 21
76.0000000000000142
 31
-0.0000000000000169
210
0.0
220
1.0
230
-0.0000000000000002
  0
LINE
  5
425B
  8
0
  6
CONTINUOUS
 62
     3
 10
48.3481372923145827
 20
76.0000000000000142
 30
-0.0000000000000169
 11
48.4999999999998082
 21
76.0000000000000142
 31
-0.0000000000000169
210
0.0
220
1.0
230
-0.0000000000000002
  0
LINE
  5
425C
  8
0
  6
CONTINUOUS
 62
     3
 10
-48.4999999999998082
 20
76.0000000000000142
 30
-0.0000000000000169
 11
-48.3481372923145685
 21
76.0000000000000142
 31
-0.0000000000000169
210
0.0
220
1.0
230
-0.0000000000000002
  0
LINE
  5
425D
  8
0
  6
CONTINUOUS
 62
     3
 10
-47.693298842772343
 20
76.0000000000000142
 30
-0.0000000000000169
 11
-45.708130084460187
 21
76.0000000000000142
 31
-0.0000000000000169
210
0.0
220
1.0
230
-0.0000000000000002
  0
LINE
  5
425E
  8
0
  6
CONTINUOUS
 62
     3
 10
-43.7882408939981005
 20
76.0000000000000142
 30
-0.0000000000000169
 11
-39.9531893476062976
 21
76.0000000000000142
 31
-0.0000000000000169
210
0.0
220
1.0
230
-0.0000000000000002
  0
LINE
  5
425F
  8
0
  6
CONTINUOUS
 62
     3
 10
-36.8990866917874385
 20
76.0000000000000142
 30
-0.0000000000000169
 11
-31.4755047824802183
 21
76.0000000000000142
 31
-0.0000000000000169
210
0.0
220
1.0
230
-0.0000000000000002
  0
LINE
  5
4260
  8
0
  6
CONTINUOUS
 62
     3
 10
-27.4953207101554113
 20
76.0000000000000142
 30
-0.0000000000000169
 11
-20.8528165821591891
 21
76.0000000000000142
 31
-0.0000000000000169
210
0.0
220
1.0
230
-0.0000000000000002
  0
LINE
  5
4261
  8
0
  6
CONTINUOUS
 62
     3
 10
-16.2177940602921389
 20
76.0000000000000142
 30
-0.0000000000000169
 11
-8.8090433926727663
 21
76.0000000000000142
 31
-0.0000000000000169
210
0.0
220
1.0
230
-0.0000000000000002
  0
LINE
  5
4262
  8
0
  6
CONTINUOUS
 62
     3
 10
-8.8090433926727627
 20
84.0000000000000142
 30
-0.0000000000000187
 11
-8.8090433926727627
 21
76.0000000000000142
 31
-0.0000000000000169
210
0.0
220
1.0
230
-0.0000000000000002
  0
LINE
  5
4263
  8
0
  6
CONTINUOUS
 62
     3
 10
-8.8090433926727663
 20
84.0000000000000142
 30
-0.0000000000000187
 11
-16.2177940602921389
 21
84.0000000000000142
 31
-0.0000000000000187
210
0.0
220
1.0
230
-0.0000000000000002
  0
LINE
  5
4264
  8
0
  6
CONTINUOUS
 62
     3
 10
-3.8350515463917532
 20
76.0000000000000142
 30
-0.0000000000000169
 11
-3.8350515463917532
 21
84.0000000000000142
 31
-0.0000000000000187
210
0.0
220
1.0
230
-0.0000000000000002
  0
LINE
  5
4265
  8
0
  6
CONTINUOUS
 62
     3
 10
-26.492043912986091
 20
84.0000000000000142
 30
-0.0000000000000187
 11
-26.492043912986091
 21
76.0000000000000142
 31
-0.0000000000000169
210
0.0
220
1.0
230
-0.0000000000000002
  0
LINE
  5
4266
  8
0
  6
CONTINUOUS
 62
     3
 10
-27.4953207101554113
 20
76.0000000000000142
 30
-0.0000000000000169
 11
-27.4953207101554113
 21
84.0000000000000142
 31
-0.0000000000000187
210
0.0
220
1.0
230
-0.0000000000000002
  0
LINE
  5
4267
  8
0
  6
CONTINUOUS
 62
     3
 10
-31.475504782480229
 20
84.0000000000000142
 30
-0.0000000000000187
 11
-31.475504782480229
 21
76.0000000000000142
 31
-0.0000000000000169
210
0.0
220
1.0
230
-0.0000000000000002
  0
LINE
  5
4268
  8
0
  6
CONTINUOUS
 62
     3
 10
-39.9531893476062976
 20
84.0000000000000284
 30
-0.0000000000000187
 11
-39.9531893476062976
 21
76.0000000000000426
 31
-0.0000000000000169
210
0.0
220
1.0
230
-0.0000000000000002
  0
LINE
  5
4269
  8
0
  6
CONTINUOUS
 62
     3
 10
-45.7081300844601799
 20
84.0000000000000284
 30
-0.0000000000000187
 11
-45.7081300844601799
 21
76.0000000000000426
 31
-0.0000000000000169
210
0.0
220
1.0
230
-0.0000000000000002
  0
LINE
  5
426A
  8
0
  6
CONTINUOUS
 62
     3
 10
-48.3481372923145898
 20
84.0000000000000284
 30
-0.0000000000000187
 11
-48.3481372923145898
 21
76.0000000000000426
 31
-0.0000000000000169
210
0.0
220
1.0
230
-0.0000000000000002
  0
LINE
  5
426B
  8
0
  6
CONTINUOUS
 62
     3
 10
45.7551169041675223
 20
75.9999999999999858
 30
-0.0000000000000169
 11
45.7551169041675223
 21
83.9999999999999858
 31
-0.0000000000000187
210
0.0
220
1.0
230
-0.0000000000000002
  0
LINE
  5
426C
  8
0
  6
CONTINUOUS
 62
     3
 10
47.6932988427723785
 20
83.9999999999999858
 30
-0.0000000000000187
 11
47.6932988427723785
 21
75.9999999999999858
 31
-0.0000000000000169
210
0.0
220
1.0
230
-0.0000000000000002
  0
LINE
  5
426D
  8
0
  6
CONTINUOUS
 62
     3
 10
42.0505145072459072
 20
75.9999999999999858
 30
-0.0000000000000169
 11
42.0505145072459072
 21
83.9999999999999858
 31
-0.0000000000000187
210
0.0
220
1.0
230
-0.0000000000000002
  0
LINE
  5
426E
  8
0
  6
CONTINUOUS
 62
     3
 10
43.7882408939981289
 20
83.9999999999999858
 30
-0.0000000000000187
 11
43.7882408939981289
 21
75.9999999999999858
 31
-0.0000000000000169
210
0.0
220
1.0
230
-0.0000000000000002
  0
LINE
  5
426F
  8
0
  6
CONTINUOUS
 62
     3
 10
35.4802390384163928
 20
76.0000000000000142
 30
-0.0000000000000169
 11
35.4802390384163928
 21
84.0000000000000142
 31
-0.0000000000000187
210
0.0
220
1.0
230
-0.0000000000000002
  0
LINE
  5
4270
  8
0
  6
CONTINUOUS
 62
     3
 10
36.8990866917874882
 20
84.0000000000000142
 30
-0.0000000000000187
 11
36.8990866917874882
 21
76.0000000000000142
 31
-0.0000000000000169
210
0.0
220
1.0
230
-0.0000000000000002
  0
LINE
  5
4271
  8
0
  6
CONTINUOUS
 62
     3
 10
26.4920439129861407
 20
76.0000000000000142
 30
-0.0000000000000169
 11
26.4920439129861407
 21
84.0000000000000142
 31
-0.0000000000000187
210
0.0
220
1.0
230
-0.0000000000000002
  0
LINE
  5
4272
  8
0
  6
CONTINUOUS
 62
     3
 10
27.4953207101554611
 20
84.0000000000000142
 30
-0.0000000000000187
 11
27.4953207101554611
 21
76.0000000000000142
 31
-0.0000000000000169
210
0.0
220
1.0
230
-0.0000000000000002
  0
LINE
  5
4273
  8
0
  6
CONTINUOUS
 62
     3
 10
15.6984597750584207
 20
76.0000000000000142
 30
-0.0000000000000169
 11
15.6984597750584207
 21
84.0000000000000142
 31
-0.0000000000000187
210
0.0
220
1.0
230
-0.0000000000000002
  0
LINE
  5
4274
  8
0
  6
CONTINUOUS
 62
     3
 10
16.2177940602921815
 20
84.0000000000000142
 30
-0.0000000000000187
 11
16.2177940602921815
 21
76.0000000000000142
 31
-0.0000000000000169
210
0.0
220
1.0
230
-0.0000000000000002
  0
LINE
  5
4275
  8
0
  6
CONTINUOUS
 62
     3
 10
-15.6984597750583799
 20
72.0000000000000142
 30
-0.000000000000016
 11
-15.6984597750583799
 21
64.0000000000000284
 31
-0.0000000000000142
210
0.0
220
1.0
230
-0.0000000000000002
  0
LINE
  5
4276
  8
0
  6
CONTINUOUS
 62
     3
 10
-16.2177940602921318
 20
64.0000000000000284
 30
-0.0000000000000142
 11
-16.2177940602921318
 21
72.0000000000000142
 31
-0.000000000000016
210
0.0
220
1.0
230
-0.0000000000000002
  0
LINE
  5
4277
  8
0
  6
CONTINUOUS
 62
     3
 10
-20.8528165821591891
 20
72.0000000000000142
 30
-0.000000000000016
 11
-20.8528165821591891
 21
64.0000000000000426
 31
-0.0000000000000142
210
0.0
220
1.0
230
-0.0000000000000002
  0
LINE
  5
4278
  8
0
  6
CONTINUOUS
 62
     3
 10
3.8350515463918811
 20
72.0000000000000142
 30
-0.000000000000016
 11
3.8350515463918811
 21
64.0000000000000284
 31
-0.0000000000000142
210
0.0
220
1.0
230
-0.0000000000000002
  0
LINE
  5
4279
  8
0
  6
CONTINUOUS
 62
     3
 10
45.7081300844602296
 20
64.0000000000000142
 30
-0.0000000000000142
 11
45.7081300844602296
 21
71.9999999999999858
 31
-0.000000000000016
210
0.0
220
1.0
230
-0.0000000000000002
  0
LINE
  5
427A
  8
0
  6
CONTINUOUS
 62
     3
 10
39.9531893476063189
 20
64.0000000000000142
 30
-0.0000000000000142
 11
39.9531893476063189
 21
72.0000000000000142
 31
-0.000000000000016
210
0.0
220
1.0
230
-0.0000000000000002
  0
LINE
  5
427B
  8
0
  6
CONTINUOUS
 62
     3
 10
31.4755047824802716
 20
64.0000000000000142
 30
-0.0000000000000142
 11
31.4755047824802716
 21
72.0000000000000142
 31
-0.000000000000016
210
0.0
220
1.0
230
-0.0000000000000002
  0
LINE
  5
427C
  8
0
  6
CONTINUOUS
 62
     3
 10
20.8528165821592211
 20
64.0000000000000142
 30
-0.0000000000000142
 11
20.8528165821592211
 21
72.0000000000000142
 31
-0.000000000000016
210
0.0
220
1.0
230
-0.0000000000000002
  0
LINE
  5
427D
  8
0
  6
CONTINUOUS
 62
     3
 10
8.8090433926728053
 20
64.0000000000000284
 30
-0.0000000000000142
 11
8.8090433926728053
 21
72.0000000000000142
 31
-0.000000000000016
210
0.0
220
1.0
230
-0.0000000000000002
  0
LINE
  5
427E
  8
0
  6
CONTINUOUS
 62
     3
 10
-35.4802390384163573
 20
72.0000000000000142
 30
-0.000000000000016
 11
-35.4802390384163573
 21
64.0000000000000426
 31
-0.0000000000000142
210
0.0
220
1.0
230
-0.0000000000000002
  0
LINE
  5
427F
  8
0
  6
CONTINUOUS
 62
     3
 10
-36.8990866917874598
 20
64.0000000000000426
 30
-0.0000000000000142
 11
-36.8990866917874598
 21
72.0000000000000142
 31
-0.000000000000016
210
0.0
220
1.0
230
-0.0000000000000002
  0
LINE
  5
4280
  8
0
  6
CONTINUOUS
 62
     3
 10
-42.0505145072458788
 20
72.0000000000000142
 30
-0.000000000000016
 11
-42.0505145072458788
 21
64.0000000000000426
 31
-0.0000000000000142
210
0.0
220
1.0
230
-0.0000000000000002
  0
LINE
  5
4281
  8
0
  6
CONTINUOUS
 62
     3
 10
-43.7882408939981005
 20
64.0000000000000426
 30
-0.0000000000000142
 11
-43.7882408939981005
 21
72.0000000000000142
 31
-0.000000000000016
210
0.0
220
1.0
230
-0.0000000000000002
  0
LINE
  5
4282
  8
0
  6
CONTINUOUS
 62
     3
 10
-45.7551169041674868
 20
72.0000000000000426
 30
-0.000000000000016
 11
-45.7551169041674868
 21
64.0000000000000426
 31
-0.0000000000000142
210
0.0
220
1.0
230
-0.0000000000000002
  0
LINE
  5
4283
  8
0
  6
CONTINUOUS
 62
     3
 10
-47.6932988427723501
 20
64.0000000000000426
 30
-0.0000000000000142
 11
-47.6932988427723501
 21
72.0000000000000426
 31
-0.000000000000016
210
0.0
220
1.0
230
-0.0000000000000002
  0
LINE
  5
4284
  8
0
  6
CONTINUOUS
 62
     3
 10
48.499999999999801
 20
72.0000000000000142
 30
-0.000000000000016
 11
48.3481372923145827
 21
72.0000000000000142
 31
-0.000000000000016
210
0.0
220
1.0
230
-0.0000000000000002
  0
LINE
  5
4285
  8
0
  6
CONTINUOUS
 62
     3
 10
47.6932988427723572
 20
72.0000000000000142
 30
-0.000000000000016
 11
45.7081300844602225
 21
72.0000000000000142
 31
-0.000000000000016
210
0.0
220
1.0
230
-0.0000000000000002
  0
LINE
  5
4286
  8
0
  6
CONTINUOUS
 62
     3
 10
43.7882408939981218
 20
72.0000000000000142
 30
-0.000000000000016
 11
39.9531893476063189
 21
72.0000000000000142
 31
-0.000000000000016
210
0.0
220
1.0
230
-0.0000000000000002
  0
LINE
  5
4287
  8
0
  6
CONTINUOUS
 62
     3
 10
36.8990866917875024
 20
72.0000000000000142
 30
-0.000000000000016
 11
31.4755047824802716
 21
72.0000000000000142
 31
-0.000000000000016
210
0.0
220
1.0
230
-0.0000000000000002
  0
LINE
  5
4288
  8
0
  6
CONTINUOUS
 62
     3
 10
27.4953207101554611
 20
72.0000000000000142
 30
-0.000000000000016
 11
20.8528165821592211
 21
72.0000000000000142
 31
-0.000000000000016
210
0.0
220
1.0
230
-0.0000000000000002
  0
LINE
  5
4289
  8
0
  6
CONTINUOUS
 62
     3
 10
16.2177940602921709
 20
72.0000000000000142
 30
-0.000000000000016
 11
8.8090433926728036
 21
72.0000000000000142
 31
-0.000000000000016
210
0.0
220
1.0
230
-0.0000000000000002
  0
LINE
  5
428A
  8
0
  6
CONTINUOUS
 62
     3
 10
-31.4755047824802183
 20
72.0000000000000142
 30
-0.000000000000016
 11
-36.8990866917874314
 21
72.0000000000000142
 31
-0.000000000000016
210
0.0
220
1.0
230
-0.0000000000000002
  0
LINE
  5
428B
  8
0
  6
CONTINUOUS
 62
     3
 10
-39.9531893476062905
 20
72.0000000000000142
 30
-0.000000000000016
 11
-43.7882408939981005
 21
72.0000000000000142
 31
-0.000000000000016
210
0.0
220
1.0
230
-0.0000000000000002
  0
LINE
  5
428C
  8
0
  6
CONTINUOUS
 62
     3
 10
-45.708130084460187
 20
72.0000000000000142
 30
-0.000000000000016
 11
-47.693298842772343
 21
72.0000000000000142
 31
-0.000000000000016
210
0.0
220
1.0
230
-0.0000000000000002
  0
LINE
  5
428D
  8
0
  6
CONTINUOUS
 62
     3
 10
-48.3481372923145685
 20
72.0000000000000142
 30
-0.000000000000016
 11
-48.4999999999998082
 21
72.0000000000000142
 31
-0.000000000000016
210
0.0
220
1.0
230
-0.0000000000000002
  0
LINE
  5
428E
  8
0
  6
CONTINUOUS
 62
     3
 10
-20.8528165821591891
 20
72.0000000000000142
 30
-0.000000000000016
 11
-27.4953207101554185
 21
72.0000000000000142
 31
-0.000000000000016
210
0.0
220
1.0
230
-0.0000000000000002
  0
LINE
  5
428F
  8
0
  6
CONTINUOUS
 62
     3
 10
3.8350515463918811
 20
72.0000000000000142
 30
-0.000000000000016
 11
-3.835051546391758
 21
72.0000000000000142
 31
-0.000000000000016
210
0.0
220
1.0
230
-0.0000000000000002
  0
LINE
  5
4290
  8
0
  6
CONTINUOUS
 62
     3
 10
48.3481372923145898
 20
64.0000000000000142
 30
-0.0000000000000142
 11
48.3481372923145898
 21
71.9999999999999858
 31
-0.000000000000016
210
0.0
220
1.0
230
-0.0000000000000002
  0
LINE
  5
4291
  8
0
  6
CONTINUOUS
 62
     3
 10
-3.8350515463918651
 20
64.0000000000000284
 30
-0.0000000000000142
 11
3.8350515463918811
 21
64.0000000000000284
 31
-0.0000000000000142
210
0.0
220
1.0
230
-0.0000000000000002
  0
LINE
  5
4292
  8
0
  6
CONTINUOUS
 62
     3
 10
8.8090433926728036
 20
64.0000000000000284
 30
-0.0000000000000142
 11
16.2177940602921709
 21
64.0000000000000284
 31
-0.0000000000000142
210
0.0
220
1.0
230
-0.0000000000000002
  0
LINE
  5
4293
  8
0
  6
CONTINUOUS
 62
     3
 10
20.8528165821592211
 20
64.0000000000000284
 30
-0.0000000000000142
 11
27.4953207101554611
 21
64.0000000000000284
 31
-0.0000000000000142
210
0.0
220
1.0
230
-0.0000000000000002
  0
LINE
  5
4294
  8
0
  6
CONTINUOUS
 62
     3
 10
31.4755047824802716
 20
64.0000000000000284
 30
-0.0000000000000142
 11
36.8990866917874882
 21
64.0000000000000284
 31
-0.0000000000000142
210
0.0
220
1.0
230
-0.0000000000000002
  0
LINE
  5
4295
  8
0
  6
CONTINUOUS
 62
     3
 10
39.9531893476063189
 20
64.0000000000000284
 30
-0.0000000000000142
 11
43.7882408939981218
 21
64.0000000000000284
 31
-0.0000000000000142
210
0.0
220
1.0
230
-0.0000000000000002
  0
LINE
  5
4296
  8
0
  6
CONTINUOUS
 62
     3
 10
45.7081300844602225
 20
64.0000000000000284
 30
-0.0000000000000142
 11
47.6932988427723714
 21
64.0000000000000284
 31
-0.0000000000000142
210
0.0
220
1.0
230
-0.0000000000000002
  0
LINE
  5
4297
  8
0
  6
CONTINUOUS
 62
     3
 10
48.3481372923145827
 20
64.0000000000000284
 30
-0.0000000000000142
 11
48.4999999999998082
 21
64.0000000000000284
 31
-0.0000000000000142
210
0.0
220
1.0
230
-0.0000000000000002
  0
LINE
  5
4298
  8
0
  6
CONTINUOUS
 62
     3
 10
-48.4999999999998082
 20
64.0000000000000284
 30
-0.0000000000000142
 11
-48.3481372923145685
 21
64.0000000000000284
 31
-0.0000000000000142
210
0.0
220
1.0
230
-0.0000000000000002
  0
LINE
  5
4299
  8
0
  6
CONTINUOUS
 62
     3
 10
-47.693298842772343
 20
64.0000000000000284
 30
-0.0000000000000142
 11
-45.708130084460187
 21
64.0000000000000284
 31
-0.0000000000000142
210
0.0
220
1.0
230
-0.0000000000000002
  0
LINE
  5
429A
  8
0
  6
CONTINUOUS
 62
     3
 10
-43.7882408939981005
 20
64.0000000000000284
 30
-0.0000000000000142
 11
-39.9531893476062976
 21
64.0000000000000284
 31
-0.0000000000000142
210
0.0
220
1.0
230
-0.0000000000000002
  0
LINE
  5
429B
  8
0
  6
CONTINUOUS
 62
     3
 10
-36.8990866917874385
 20
64.0000000000000284
 30
-0.0000000000000142
 11
-31.4755047824802183
 21
64.0000000000000284
 31
-0.0000000000000142
210
0.0
220
1.0
230
-0.0000000000000002
  0
LINE
  5
429C
  8
0
  6
CONTINUOUS
 62
     3
 10
-27.4953207101554113
 20
64.0000000000000284
 30
-0.0000000000000142
 11
-20.8528165821591891
 21
64.0000000000000284
 31
-0.0000000000000142
210
0.0
220
1.0
230
-0.0000000000000002
  0
LINE
  5
429D
  8
0
  6
CONTINUOUS
 62
     3
 10
-16.2177940602921389
 20
64.0000000000000284
 30
-0.0000000000000142
 11
-8.8090433926727663
 21
64.0000000000000284
 31
-0.0000000000000142
210
0.0
220
1.0
230
-0.0000000000000002
  0
LINE
  5
429E
  8
0
  6
CONTINUOUS
 62
     3
 10
-8.8090433926727627
 20
72.0000000000000142
 30
-0.000000000000016
 11
-8.8090433926727627
 21
64.0000000000000284
 31
-0.0000000000000142
210
0.0
220
1.0
230
-0.0000000000000002
  0
LINE
  5
429F
  8
0
  6
CONTINUOUS
 62
     3
 10
-8.8090433926727663
 20
72.0000000000000142
 30
-0.000000000000016
 11
-16.2177940602921389
 21
72.0000000000000142
 31
-0.000000000000016
210
0.0
220
1.0
230
-0.0000000000000002
  0
LINE
  5
42A0
  8
0
  6
CONTINUOUS
 62
     3
 10
-3.8350515463917532
 20
64.0000000000000426
 30
-0.0000000000000142
 11
-3.8350515463917532
 21
72.0000000000000142
 31
-0.000000000000016
210
0.0
220
1.0
230
-0.0000000000000002
  0
LINE
  5
42A1
  8
0
  6
CONTINUOUS
 62
     3
 10
-26.492043912986091
 20
72.0000000000000142
 30
-0.000000000000016
 11
-26.492043912986091
 21
64.0000000000000426
 31
-0.0000000000000142
210
0.0
220
1.0
230
-0.0000000000000002
  0
LINE
  5
42A2
  8
0
  6
CONTINUOUS
 62
     3
 10
-27.4953207101554113
 20
64.0000000000000426
 30
-0.0000000000000142
 11
-27.4953207101554113
 21
72.0000000000000142
 31
-0.000000000000016
210
0.0
220
1.0
230
-0.0000000000000002
  0
LINE
  5
42A3
  8
0
  6
CONTINUOUS
 62
     3
 10
-31.475504782480229
 20
72.0000000000000142
 30
-0.000000000000016
 11
-31.475504782480229
 21
64.0000000000000426
 31
-0.0000000000000142
210
0.0
220
1.0
230
-0.0000000000000002
  0
LINE
  5
42A4
  8
0
  6
CONTINUOUS
 62
     3
 10
-39.9531893476062976
 20
72.0000000000000142
 30
-0.000000000000016
 11
-39.9531893476062976
 21
64.0000000000000426
 31
-0.0000000000000142
210
0.0
220
1.0
230
-0.0000000000000002
  0
LINE
  5
42A5
  8
0
  6
CONTINUOUS
 62
     3
 10
-45.7081300844601799
 20
72.0000000000000426
 30
-0.000000000000016
 11
-45.7081300844601799
 21
64.0000000000000568
 31
-0.0000000000000142
210
0.0
220
1.0
230
-0.0000000000000002
  0
LINE
  5
42A6
  8
0
  6
CONTINUOUS
 62
     3
 10
-48.3481372923145898
 20
72.0000000000000426
 30
-0.000000000000016
 11
-48.3481372923145898
 21
64.0000000000000426
 31
-0.0000000000000142
210
0.0
220
1.0
230
-0.0000000000000002
  0
LINE
  5
42A7
  8
0
  6
CONTINUOUS
 62
     3
 10
45.7551169041675223
 20
64.0000000000000284
 30
-0.0000000000000142
 11
45.7551169041675223
 21
71.9999999999999858
 31
-0.000000000000016
210
0.0
220
1.0
230
-0.0000000000000002
  0
LINE
  5
42A8
  8
0
  6
CONTINUOUS
 62
     3
 10
47.6932988427723785
 20
71.9999999999999858
 30
-0.000000000000016
 11
47.6932988427723785
 21
64.0000000000000284
 31
-0.0000000000000142
210
0.0
220
1.0
230
-0.0000000000000002
  0
LINE
  5
42A9
  8
0
  6
CONTINUOUS
 62
     3
 10
42.0505145072459072
 20
64.0000000000000142
 30
-0.0000000000000142
 11
42.0505145072459072
 21
71.9999999999999858
 31
-0.000000000000016
210
0.0
220
1.0
230
-0.0000000000000002
  0
LINE
  5
42AA
  8
0
  6
CONTINUOUS
 62
     3
 10
43.7882408939981289
 20
72.0000000000000142
 30
-0.000000000000016
 11
43.7882408939981289
 21
64.0000000000000142
 31
-0.0000000000000142
210
0.0
220
1.0
230
-0.0000000000000002
  0
LINE
  5
42AB
  8
0
  6
CONTINUOUS
 62
     3
 10
35.4802390384163928
 20
64.0000000000000142
 30
-0.0000000000000142
 11
35.4802390384163928
 21
72.0000000000000142
 31
-0.000000000000016
210
0.0
220
1.0
230
-0.0000000000000002
  0
LINE
  5
42AC
  8
0
  6
CONTINUOUS
 62
     3
 10
36.8990866917874882
 20
72.0000000000000142
 30
-0.000000000000016
 11
36.8990866917874882
 21
64.0000000000000142
 31
-0.0000000000000142
210
0.0
220
1.0
230
-0.0000000000000002
  0
LINE
  5
42AD
  8
0
  6
CONTINUOUS
 62
     3
 10
26.4920439129861407
 20
64.0000000000000142
 30
-0.0000000000000142
 11
26.4920439129861407
 21
72.0000000000000142
 31
-0.000000000000016
210
0.0
220
1.0
230
-0.0000000000000002
  0
LINE
  5
42AE
  8
0
  6
CONTINUOUS
 62
     3
 10
27.4953207101554611
 20
72.0000000000000142
 30
-0.000000000000016
 11
27.4953207101554611
 21
64.0000000000000142
 31
-0.0000000000000142
210
0.0
220
1.0
230
-0.0000000000000002
  0
LINE
  5
42AF
  8
0
  6
CONTINUOUS
 62
     3
 10
15.6984597750584207
 20
64.0000000000000284
 30
-0.0000000000000142
 11
15.6984597750584207
 21
72.0000000000000142
 31
-0.000000000000016
210
0.0
220
1.0
230
-0.0000000000000002
  0
LINE
  5
42B0
  8
0
  6
CONTINUOUS
 62
     3
 10
16.2177940602921815
 20
72.0000000000000142
 30
-0.000000000000016
 11
16.2177940602921815
 21
64.0000000000000284
 31
-0.0000000000000142
210
0.0
220
1.0
230
-0.0000000000000002
  0
LINE
  5
42B1
  8
0
  6
CONTINUOUS
 62
     3
 10
-15.6984597750583799
 20
60.0000000000000071
 30
-0.0000000000000133
 11
-15.6984597750583799
 21
52.0000000000000071
 31
-0.0000000000000115
210
0.0
220
1.0
230
-0.0000000000000002
  0
LINE
  5
42B2
  8
0
  6
CONTINUOUS
 62
     3
 10
-16.2177940602921318
 20
52.0000000000000071
 30
-0.0000000000000115
 11
-16.2177940602921318
 21
60.0000000000000071
 31
-0.0000000000000133
210
0.0
220
1.0
230
-0.0000000000000002
  0
LINE
  5
42B3
  8
0
  6
CONTINUOUS
 62
     3
 10
-20.8528165821591891
 20
60.0000000000000284
 30
-0.0000000000000133
 11
-20.8528165821591891
 21
52.0000000000000071
 31
-0.0000000000000115
210
0.0
220
1.0
230
-0.0000000000000002
  0
LINE
  5
42B4
  8
0
  6
CONTINUOUS
 62
     3
 10
3.8350515463918811
 20
60.0000000000000071
 30
-0.0000000000000133
 11
3.8350515463918811
 21
52.0000000000000071
 31
-0.0000000000000115
210
0.0
220
1.0
230
-0.0000000000000002
  0
LINE
  5
42B5
  8
0
  6
CONTINUOUS
 62
     3
 10
45.7081300844602296
 20
51.9999999999999929
 30
-0.0000000000000115
 11
45.7081300844602296
 21
60.0
 31
-0.0000000000000133
210
0.0
220
1.0
230
-0.0000000000000002
  0
LINE
  5
42B6
  8
0
  6
CONTINUOUS
 62
     3
 10
39.9531893476063189
 20
51.9999999999999929
 30
-0.0000000000000115
 11
39.9531893476063189
 21
59.9999999999999929
 31
-0.0000000000000133
210
0.0
220
1.0
230
-0.0000000000000002
  0
LINE
  5
42B7
  8
0
  6
CONTINUOUS
 62
     3
 10
31.4755047824802716
 20
52.0
 30
-0.0000000000000115
 11
31.4755047824802716
 21
60.0
 31
-0.0000000000000133
210
0.0
220
1.0
230
-0.0000000000000002
  0
LINE
  5
42B8
  8
0
  6
CONTINUOUS
 62
     3
 10
20.8528165821592211
 20
52.0000000000000071
 30
-0.0000000000000115
 11
20.8528165821592211
 21
60.0
 31
-0.0000000000000133
210
0.0
220
1.0
230
-0.0000000000000002
  0
LINE
  5
42B9
  8
0
  6
CONTINUOUS
 62
     3
 10
8.8090433926728053
 20
52.0000000000000071
 30
-0.0000000000000115
 11
8.8090433926728053
 21
60.0000000000000071
 31
-0.0000000000000133
210
0.0
220
1.0
230
-0.0000000000000002
  0
LINE
  5
42BA
  8
0
  6
CONTINUOUS
 62
     3
 10
-35.4802390384163573
 20
60.0000000000000284
 30
-0.0000000000000133
 11
-35.4802390384163573
 21
52.0000000000000213
 31
-0.0000000000000115
210
0.0
220
1.0
230
-0.0000000000000002
  0
LINE
  5
42BB
  8
0
  6
CONTINUOUS
 62
     3
 10
-36.8990866917874598
 20
52.0000000000000213
 30
-0.0000000000000115
 11
-36.8990866917874598
 21
60.0000000000000284
 31
-0.0000000000000133
210
0.0
220
1.0
230
-0.0000000000000002
  0
LINE
  5
42BC
  8
0
  6
CONTINUOUS
 62
     3
 10
-42.0505145072458788
 20
60.0000000000000071
 30
-0.0000000000000133
 11
-42.0505145072458788
 21
52.0000000000000426
 31
-0.0000000000000115
210
0.0
220
1.0
230
-0.0000000000000002
  0
LINE
  5
42BD
  8
0
  6
CONTINUOUS
 62
     3
 10
-43.7882408939981005
 20
52.0000000000000426
 30
-0.0000000000000115
 11
-43.7882408939981005
 21
60.0000000000000071
 31
-0.0000000000000133
210
0.0
220
1.0
230
-0.0000000000000002
  0
LINE
  5
42BE
  8
0
  6
CONTINUOUS
 62
     3
 10
-45.7551169041674868
 20
60.0000000000000284
 30
-0.0000000000000133
 11
-45.7551169041674868
 21
52.0000000000000213
 31
-0.0000000000000115
210
0.0
220
1.0
230
-0.0000000000000002
  0
LINE
  5
42BF
  8
0
  6
CONTINUOUS
 62
     3
 10
-47.6932988427723501
 20
52.0000000000000426
 30
-0.0000000000000115
 11
-47.6932988427723501
 21
60.0000000000000284
 31
-0.0000000000000133
210
0.0
220
1.0
230
-0.0000000000000002
  0
LINE
  5
42C0
  8
0
  6
CONTINUOUS
 62
     3
 10
48.499999999999801
 20
60.0000000000000071
 30
-0.0000000000000133
 11
48.3481372923145827
 21
60.0000000000000071
 31
-0.0000000000000133
210
0.0
220
1.0
230
-0.0000000000000002
  0
LINE
  5
42C1
  8
0
  6
CONTINUOUS
 62
     3
 10
47.6932988427723572
 20
60.0000000000000071
 30
-0.0000000000000133
 11
45.7081300844602225
 21
60.0000000000000071
 31
-0.0000000000000133
210
0.0
220
1.0
230
-0.0000000000000002
  0
LINE
  5
42C2
  8
0
  6
CONTINUOUS
 62
     3
 10
43.7882408939981218
 20
60.0000000000000071
 30
-0.0000000000000133
 11
39.9531893476063189
 21
60.0000000000000071
 31
-0.0000000000000133
210
0.0
220
1.0
230
-0.0000000000000002
  0
LINE
  5
42C3
  8
0
  6
CONTINUOUS
 62
     3
 10
36.8990866917875024
 20
60.0000000000000071
 30
-0.0000000000000133
 11
31.4755047824802716
 21
60.0000000000000071
 31
-0.0000000000000133
210
0.0
220
1.0
230
-0.0000000000000002
  0
LINE
  5
42C4
  8
0
  6
CONTINUOUS
 62
     3
 10
27.4953207101554611
 20
60.0000000000000071
 30
-0.0000000000000133
 11
20.8528165821592211
 21
60.0000000000000071
 31
-0.0000000000000133
210
0.0
220
1.0
230
-0.0000000000000002
  0
LINE
  5
42C5
  8
0
  6
CONTINUOUS
 62
     3
 10
16.2177940602921709
 20
60.0000000000000071
 30
-0.0000000000000133
 11
8.8090433926728036
 21
60.0000000000000071
 31
-0.0000000000000133
210
0.0
220
1.0
230
-0.0000000000000002
  0
LINE
  5
42C6
  8
0
  6
CONTINUOUS
 62
     3
 10
-31.4755047824802183
 20
60.0000000000000071
 30
-0.0000000000000133
 11
-36.8990866917874314
 21
60.0000000000000071
 31
-0.0000000000000133
210
0.0
220
1.0
230
-0.0000000000000002
  0
LINE
  5
42C7
  8
0
  6
CONTINUOUS
 62
     3
 10
-39.9531893476062905
 20
60.0000000000000071
 30
-0.0000000000000133
 11
-43.7882408939981005
 21
60.0000000000000071
 31
-0.0000000000000133
210
0.0
220
1.0
230
-0.0000000000000002
  0
LINE
  5
42C8
  8
0
  6
CONTINUOUS
 62
     3
 10
-45.708130084460187
 20
60.0000000000000071
 30
-0.0000000000000133
 11
-47.693298842772343
 21
60.0000000000000071
 31
-0.0000000000000133
210
0.0
220
1.0
230
-0.0000000000000002
  0
LINE
  5
42C9
  8
0
  6
CONTINUOUS
 62
     3
 10
-48.3481372923145685
 20
60.0000000000000071
 30
-0.0000000000000133
 11
-48.4999999999998082
 21
60.0000000000000071
 31
-0.0000000000000133
210
0.0
220
1.0
230
-0.0000000000000002
  0
LINE
  5
42CA
  8
0
  6
CONTINUOUS
 62
     3
 10
-20.8528165821591891
 20
60.0000000000000071
 30
-0.0000000000000133
 11
-27.4953207101554185
 21
60.0000000000000071
 31
-0.0000000000000133
210
0.0
220
1.0
230
-0.0000000000000002
  0
LINE
  5
42CB
  8
0
  6
CONTINUOUS
 62
     3
 10
3.8350515463918811
 20
60.0000000000000071
 30
-0.0000000000000133
 11
-3.835051546391758
 21
60.0000000000000071
 31
-0.0000000000000133
210
0.0
220
1.0
230
-0.0000000000000002
  0
LINE
  5
42CC
  8
0
  6
CONTINUOUS
 62
     3
 10
48.3481372923145898
 20
51.9999999999999929
 30
-0.0000000000000115
 11
48.3481372923145898
 21
59.9999999999999929
 31
-0.0000000000000133
210
0.0
220
1.0
230
-0.0000000000000002
  0
LINE
  5
42CD
  8
0
  6
CONTINUOUS
 62
     3
 10
-3.8350515463918651
 20
52.0000000000000071
 30
-0.0000000000000115
 11
3.8350515463918811
 21
52.0000000000000071
 31
-0.0000000000000115
210
0.0
220
1.0
230
-0.0000000000000002
  0
LINE
  5
42CE
  8
0
  6
CONTINUOUS
 62
     3
 10
8.8090433926728036
 20
52.0000000000000071
 30
-0.0000000000000115
 11
16.2177940602921709
 21
52.0000000000000071
 31
-0.0000000000000115
210
0.0
220
1.0
230
-0.0000000000000002
  0
LINE
  5
42CF
  8
0
  6
CONTINUOUS
 62
     3
 10
20.8528165821592211
 20
52.0000000000000071
 30
-0.0000000000000115
 11
27.4953207101554611
 21
52.0000000000000071
 31
-0.0000000000000115
210
0.0
220
1.0
230
-0.0000000000000002
  0
LINE
  5
42D0
  8
0
  6
CONTINUOUS
 62
     3
 10
31.4755047824802716
 20
52.0000000000000071
 30
-0.0000000000000115
 11
36.8990866917874882
 21
52.0000000000000071
 31
-0.0000000000000115
210
0.0
220
1.0
230
-0.0000000000000002
  0
LINE
  5
42D1
  8
0
  6
CONTINUOUS
 62
     3
 10
39.9531893476063189
 20
52.0000000000000071
 30
-0.0000000000000115
 11
43.7882408939981218
 21
52.0000000000000071
 31
-0.0000000000000115
210
0.0
220
1.0
230
-0.0000000000000002
  0
LINE
  5
42D2
  8
0
  6
CONTINUOUS
 62
     3
 10
45.7081300844602225
 20
52.0000000000000071
 30
-0.0000000000000115
 11
47.6932988427723714
 21
52.0000000000000071
 31
-0.0000000000000115
210
0.0
220
1.0
230
-0.0000000000000002
  0
LINE
  5
42D3
  8
0
  6
CONTINUOUS
 62
     3
 10
48.3481372923145827
 20
52.0000000000000071
 30
-0.0000000000000115
 11
48.4999999999998082
 21
52.0000000000000071
 31
-0.0000000000000115
210
0.0
220
1.0
230
-0.0000000000000002
  0
LINE
  5
42D4
  8
0
  6
CONTINUOUS
 62
     3
 10
-48.4999999999998082
 20
52.0000000000000071
 30
-0.0000000000000115
 11
-48.3481372923145685
 21
52.0000000000000071
 31
-0.0000000000000115
210
0.0
220
1.0
230
-0.0000000000000002
  0
LINE
  5
42D5
  8
0
  6
CONTINUOUS
 62
     3
 10
-47.693298842772343
 20
52.0000000000000071
 30
-0.0000000000000115
 11
-45.708130084460187
 21
52.0000000000000071
 31
-0.0000000000000115
210
0.0
220
1.0
230
-0.0000000000000002
  0
LINE
  5
42D6
  8
0
  6
CONTINUOUS
 62
     3
 10
-43.7882408939981005
 20
52.0000000000000071
 30
-0.0000000000000115
 11
-39.9531893476062976
 21
52.0000000000000071
 31
-0.0000000000000115
210
0.0
220
1.0
230
-0.0000000000000002
  0
LINE
  5
42D7
  8
0
  6
CONTINUOUS
 62
     3
 10
-36.8990866917874385
 20
52.0000000000000071
 30
-0.0000000000000115
 11
-31.4755047824802183
 21
52.0000000000000071
 31
-0.0000000000000115
210
0.0
220
1.0
230
-0.0000000000000002
  0
LINE
  5
42D8
  8
0
  6
CONTINUOUS
 62
     3
 10
-27.4953207101554113
 20
52.0000000000000071
 30
-0.0000000000000115
 11
-20.8528165821591891
 21
52.0000000000000071
 31
-0.0000000000000115
210
0.0
220
1.0
230
-0.0000000000000002
  0
LINE
  5
42D9
  8
0
  6
CONTINUOUS
 62
     3
 10
-16.2177940602921389
 20
52.0000000000000071
 30
-0.0000000000000115
 11
-8.8090433926727663
 21
52.0000000000000071
 31
-0.0000000000000115
210
0.0
220
1.0
230
-0.0000000000000002
  0
LINE
  5
42DA
  8
0
  6
CONTINUOUS
 62
     3
 10
-8.8090433926727627
 20
60.0000000000000071
 30
-0.0000000000000133
 11
-8.8090433926727627
 21
52.0000000000000071
 31
-0.0000000000000115
210
0.0
220
1.0
230
-0.0000000000000002
  0
LINE
  5
42DB
  8
0
  6
CONTINUOUS
 62
     3
 10
-8.8090433926727663
 20
60.0000000000000071
 30
-0.0000000000000133
 11
-16.2177940602921389
 21
60.0000000000000071
 31
-0.0000000000000133
210
0.0
220
1.0
230
-0.0000000000000002
  0
LINE
  5
42DC
  8
0
  6
CONTINUOUS
 62
     3
 10
-3.8350515463917532
 20
52.0000000000000071
 30
-0.0000000000000115
 11
-3.8350515463917532
 21
60.0000000000000071
 31
-0.0000000000000133
210
0.0
220
1.0
230
-0.0000000000000002
  0
LINE
  5
42DD
  8
0
  6
CONTINUOUS
 62
     3
 10
-26.492043912986091
 20
60.0000000000000284
 30
-0.0000000000000133
 11
-26.492043912986091
 21
52.0000000000000071
 31
-0.0000000000000115
210
0.0
220
1.0
230
-0.0000000000000002
  0
LINE
  5
42DE
  8
0
  6
CONTINUOUS
 62
     3
 10
-27.4953207101554113
 20
52.0000000000000071
 30
-0.0000000000000115
 11
-27.4953207101554113
 21
60.0000000000000284
 31
-0.0000000000000133
210
0.0
220
1.0
230
-0.0000000000000002
  0
LINE
  5
42DF
  8
0
  6
CONTINUOUS
 62
     3
 10
-31.475504782480229
 20
60.0000000000000284
 30
-0.0000000000000133
 11
-31.475504782480229
 21
52.0000000000000213
 31
-0.0000000000000115
210
0.0
220
1.0
230
-0.0000000000000002
  0
LINE
  5
42E0
  8
0
  6
CONTINUOUS
 62
     3
 10
-39.9531893476062976
 20
60.0000000000000284
 30
-0.0000000000000133
 11
-39.9531893476062976
 21
52.0000000000000426
 31
-0.0000000000000115
210
0.0
220
1.0
230
-0.0000000000000002
  0
LINE
  5
42E1
  8
0
  6
CONTINUOUS
 62
     3
 10
-45.7081300844601799
 20
60.0000000000000284
 30
-0.0000000000000133
 11
-45.7081300844601799
 21
52.0000000000000426
 31
-0.0000000000000115
210
0.0
220
1.0
230
-0.0000000000000002
  0
LINE
  5
42E2
  8
0
  6
CONTINUOUS
 62
     3
 10
-48.3481372923145898
 20
60.0000000000000426
 30
-0.0000000000000133
 11
-48.3481372923145898
 21
52.0000000000000426
 31
-0.0000000000000115
210
0.0
220
1.0
230
-0.0000000000000002
  0
LINE
  5
42E3
  8
0
  6
CONTINUOUS
 62
     3
 10
45.7551169041675223
 20
52.0
 30
-0.0000000000000115
 11
45.7551169041675223
 21
59.9999999999999929
 31
-0.0000000000000133
210
0.0
220
1.0
230
-0.0000000000000002
  0
LINE
  5
42E4
  8
0
  6
CONTINUOUS
 62
     3
 10
47.6932988427723501
 20
60.0
 30
-0.0000000000000133
 11
47.6932988427723501
 21
51.9999999999999929
 31
-0.0000000000000115
210
0.0
220
1.0
230
-0.0000000000000002
  0
LINE
  5
42E5
  8
0
  6
CONTINUOUS
 62
     3
 10
42.0505145072459072
 20
51.9999999999999929
 30
-0.0000000000000115
 11
42.0505145072459072
 21
59.9999999999999929
 31
-0.0000000000000133
210
0.0
220
1.0
230
-0.0000000000000002
  0
LINE
  5
42E6
  8
0
  6
CONTINUOUS
 62
     3
 10
43.7882408939981289
 20
60.0
 30
-0.0000000000000133
 11
43.7882408939981289
 21
51.9999999999999929
 31
-0.0000000000000115
210
0.0
220
1.0
230
-0.0000000000000002
  0
LINE
  5
42E7
  8
0
  6
CONTINUOUS
 62
     3
 10
35.4802390384163928
 20
52.0
 30
-0.0000000000000115
 11
35.4802390384163928
 21
60.0
 31
-0.0000000000000133
210
0.0
220
1.0
230
-0.0000000000000002
  0
LINE
  5
42E8
  8
0
  6
CONTINUOUS
 62
     3
 10
36.8990866917874882
 20
60.0
 30
-0.0000000000000133
 11
36.8990866917874882
 21
52.0
 31
-0.0000000000000115
210
0.0
220
1.0
230
-0.0000000000000002
  0
LINE
  5
42E9
  8
0
  6
CONTINUOUS
 62
     3
 10
26.4920439129861407
 20
52.0000000000000071
 30
-0.0000000000000115
 11
26.4920439129861407
 21
60.0
 31
-0.0000000000000133
210
0.0
220
1.0
230
-0.0000000000000002
  0
LINE
  5
42EA
  8
0
  6
CONTINUOUS
 62
     3
 10
27.4953207101554611
 20
60.0
 30
-0.0000000000000133
 11
27.4953207101554611
 21
52.0000000000000071
 31
-0.0000000000000115
210
0.0
220
1.0
230
-0.0000000000000002
  0
LINE
  5
42EB
  8
0
  6
CONTINUOUS
 62
     3
 10
15.6984597750584207
 20
52.0000000000000071
 30
-0.0000000000000115
 11
15.6984597750584207
 21
60.0000000000000071
 31
-0.0000000000000133
210
0.0
220
1.0
230
-0.0000000000000002
  0
LINE
  5
42EC
  8
0
  6
CONTINUOUS
 62
     3
 10
16.2177940602921815
 20
60.0000000000000071
 30
-0.0000000000000133
 11
16.2177940602921815
 21
52.0000000000000071
 31
-0.0000000000000115
210
0.0
220
1.0
230
-0.0000000000000002
  0
LINE
  5
42ED
  8
0
  6
CONTINUOUS
 62
     3
 10
-15.6984597750583799
 20
48.0000000000000071
 30
-0.0000000000000107
 11
-15.6984597750583799
 21
40.0
 31
-0.0000000000000089
210
0.0
220
1.0
230
-0.0000000000000002
  0
LINE
  5
42EE
  8
0
  6
CONTINUOUS
 62
     3
 10
-16.2177940602921318
 20
40.0
 30
-0.0000000000000089
 11
-16.2177940602921318
 21
48.0000000000000071
 31
-0.0000000000000107
210
0.0
220
1.0
230
-0.0000000000000002
  0
LINE
  5
42EF
  8
0
  6
CONTINUOUS
 62
     3
 10
-20.8528165821591891
 20
48.0000000000000071
 30
-0.0000000000000107
 11
-20.8528165821591891
 21
40.0
 31
-0.0000000000000089
210
0.0
220
1.0
230
-0.0000000000000002
  0
LINE
  5
42F0
  8
0
  6
CONTINUOUS
 62
     3
 10
3.8350515463918811
 20
48.0000000000000071
 30
-0.0000000000000107
 11
3.8350515463918811
 21
40.0
 31
-0.0000000000000089
210
0.0
220
1.0
230
-0.0000000000000002
  0
LINE
  5
42F1
  8
0
  6
CONTINUOUS
 62
     3
 10
45.7081300844602296
 20
39.9999999999999787
 30
-0.0000000000000089
 11
45.7081300844602296
 21
47.9999999999999787
 31
-0.0000000000000107
210
0.0
220
1.0
230
-0.0000000000000002
  0
LINE
  5
42F2
  8
0
  6
CONTINUOUS
 62
     3
 10
39.9531893476063189
 20
39.9999999999999787
 30
-0.0000000000000089
 11
39.9531893476063189
 21
47.9999999999999787
 31
-0.0000000000000107
210
0.0
220
1.0
230
-0.0000000000000002
  0
LINE
  5
42F3
  8
0
  6
CONTINUOUS
 62
     3
 10
31.4755047824802716
 20
40.0
 30
-0.0000000000000089
 11
31.4755047824802716
 21
47.9999999999999929
 31
-0.0000000000000107
210
0.0
220
1.0
230
-0.0000000000000002
  0
LINE
  5
42F4
  8
0
  6
CONTINUOUS
 62
     3
 10
20.8528165821592211
 20
40.0
 30
-0.0000000000000089
 11
20.8528165821592211
 21
48.0000000000000071
 31
-0.0000000000000107
210
0.0
220
1.0
230
-0.0000000000000002
  0
LINE
  5
42F5
  8
0
  6
CONTINUOUS
 62
     3
 10
8.8090433926728053
 20
40.0
 30
-0.0000000000000089
 11
8.8090433926728053
 21
48.0000000000000071
 31
-0.0000000000000107
210
0.0
220
1.0
230
-0.0000000000000002
  0
LINE
  5
42F6
  8
0
  6
CONTINUOUS
 62
     3
 10
-35.4802390384163573
 20
48.0000000000000284
 30
-0.0000000000000107
 11
-35.4802390384163573
 21
40.0000000000000213
 31
-0.0000000000000089
210
0.0
220
1.0
230
-0.0000000000000002
  0
LINE
  5
42F7
  8
0
  6
CONTINUOUS
 62
     3
 10
-36.8990866917874598
 20
40.0000000000000213
 30
-0.0000000000000089
 11
-36.8990866917874598
 21
48.0000000000000284
 31
-0.0000000000000107
210
0.0
220
1.0
230
-0.0000000000000002
  0
LINE
  5
42F8
  8
0
  6
CONTINUOUS
 62
     3
 10
-42.0505145072458788
 20
48.0000000000000071
 30
-0.0000000000000107
 11
-42.0505145072458788
 21
40.0000000000000284
 31
-0.0000000000000089
210
0.0
220
1.0
230
-0.0000000000000002
  0
LINE
  5
42F9
  8
0
  6
CONTINUOUS
 62
     3
 10
-43.7882408939981005
 20
40.0000000000000284
 30
-0.0000000000000089
 11
-43.7882408939981005
 21
48.0000000000000071
 31
-0.0000000000000107
210
0.0
220
1.0
230
-0.0000000000000002
  0
LINE
  5
42FA
  8
0
  6
CONTINUOUS
 62
     3
 10
-45.7551169041674868
 20
48.0000000000000284
 30
-0.0000000000000107
 11
-45.7551169041674868
 21
40.0000000000000213
 31
-0.0000000000000089
210
0.0
220
1.0
230
-0.0000000000000002
  0
LINE
  5
42FB
  8
0
  6
CONTINUOUS
 62
     3
 10
-47.6932988427723501
 20
40.0000000000000284
 30
-0.0000000000000089
 11
-47.6932988427723501
 21
48.0000000000000426
 31
-0.0000000000000107
210
0.0
220
1.0
230
-0.0000000000000002
  0
LINE
  5
42FC
  8
0
  6
CONTINUOUS
 62
     3
 10
48.499999999999801
 20
48.0000000000000071
 30
-0.0000000000000107
 11
48.3481372923145827
 21
48.0000000000000071
 31
-0.0000000000000107
210
0.0
220
1.0
230
-0.0000000000000002
  0
LINE
  5
42FD
  8
0
  6
CONTINUOUS
 62
     3
 10
47.6932988427723572
 20
48.0000000000000071
 30
-0.0000000000000107
 11
45.7081300844602225
 21
48.0000000000000071
 31
-0.0000000000000107
210
0.0
220
1.0
230
-0.0000000000000002
  0
LINE
  5
42FE
  8
0
  6
CONTINUOUS
 62
     3
 10
43.7882408939981218
 20
48.0000000000000071
 30
-0.0000000000000107
 11
39.9531893476063189
 21
48.0000000000000071
 31
-0.0000000000000107
210
0.0
220
1.0
230
-0.0000000000000002
  0
LINE
  5
42FF
  8
0
  6
CONTINUOUS
 62
     3
 10
36.8990866917875024
 20
48.0000000000000071
 30
-0.0000000000000107
 11
31.4755047824802716
 21
48.0000000000000071
 31
-0.0000000000000107
210
0.0
220
1.0
230
-0.0000000000000002
  0
LINE
  5
4300
  8
0
  6
CONTINUOUS
 62
     3
 10
27.4953207101554611
 20
48.0000000000000071
 30
-0.0000000000000107
 11
20.8528165821592211
 21
48.0000000000000071
 31
-0.0000000000000107
210
0.0
220
1.0
230
-0.0000000000000002
  0
LINE
  5
4301
  8
0
  6
CONTINUOUS
 62
     3
 10
16.2177940602921709
 20
48.0000000000000071
 30
-0.0000000000000107
 11
8.8090433926728036
 21
48.0000000000000071
 31
-0.0000000000000107
210
0.0
220
1.0
230
-0.0000000000000002
  0
LINE
  5
4302
  8
0
  6
CONTINUOUS
 62
     3
 10
-31.4755047824802183
 20
48.0000000000000071
 30
-0.0000000000000107
 11
-36.8990866917874314
 21
48.0000000000000071
 31
-0.0000000000000107
210
0.0
220
1.0
230
-0.0000000000000002
  0
LINE
  5
4303
  8
0
  6
CONTINUOUS
 62
     3
 10
-39.9531893476062905
 20
48.0000000000000071
 30
-0.0000000000000107
 11
-43.7882408939981005
 21
48.0000000000000071
 31
-0.0000000000000107
210
0.0
220
1.0
230
-0.0000000000000002
  0
LINE
  5
4304
  8
0
  6
CONTINUOUS
 62
     3
 10
-45.708130084460187
 20
48.0000000000000071
 30
-0.0000000000000107
 11
-47.693298842772343
 21
48.0000000000000071
 31
-0.0000000000000107
210
0.0
220
1.0
230
-0.0000000000000002
  0
LINE
  5
4305
  8
0
  6
CONTINUOUS
 62
     3
 10
-48.3481372923145685
 20
48.0000000000000071
 30
-0.0000000000000107
 11
-48.4999999999998082
 21
48.0000000000000071
 31
-0.0000000000000107
210
0.0
220
1.0
230
-0.0000000000000002
  0
LINE
  5
4306
  8
0
  6
CONTINUOUS
 62
     3
 10
-20.8528165821591891
 20
48.0000000000000071
 30
-0.0000000000000107
 11
-27.4953207101554185
 21
48.0000000000000071
 31
-0.0000000000000107
210
0.0
220
1.0
230
-0.0000000000000002
  0
LINE
  5
4307
  8
0
  6
CONTINUOUS
 62
     3
 10
3.8350515463918811
 20
48.0000000000000071
 30
-0.0000000000000107
 11
-3.835051546391758
 21
48.0000000000000071
 31
-0.0000000000000107
210
0.0
220
1.0
230
-0.0000000000000002
  0
LINE
  5
4308
  8
0
  6
CONTINUOUS
 62
     3
 10
48.3481372923145898
 20
39.9999999999999787
 30
-0.0000000000000089
 11
48.3481372923145898
 21
47.9999999999999787
 31
-0.0000000000000107
210
0.0
220
1.0
230
-0.0000000000000002
  0
LINE
  5
4309
  8
0
  6
CONTINUOUS
 62
     3
 10
-3.8350515463918651
 20
40.0
 30
-0.0000000000000089
 11
3.8350515463918811
 21
40.0
 31
-0.0000000000000089
210
0.0
220
1.0
230
-0.0000000000000002
  0
LINE
  5
430A
  8
0
  6
CONTINUOUS
 62
     3
 10
8.8090433926728036
 20
40.0
 30
-0.0000000000000089
 11
16.2177940602921709
 21
40.0
 31
-0.0000000000000089
210
0.0
220
1.0
230
-0.0000000000000002
  0
LINE
  5
430B
  8
0
  6
CONTINUOUS
 62
     3
 10
20.8528165821592211
 20
40.0
 30
-0.0000000000000089
 11
27.4953207101554611
 21
40.0
 31
-0.0000000000000089
210
0.0
220
1.0
230
-0.0000000000000002
  0
LINE
  5
430C
  8
0
  6
CONTINUOUS
 62
     3
 10
31.4755047824802716
 20
40.0
 30
-0.0000000000000089
 11
36.8990866917874882
 21
40.0
 31
-0.0000000000000089
210
0.0
220
1.0
230
-0.0000000000000002
  0
LINE
  5
430D
  8
0
  6
CONTINUOUS
 62
     3
 10
39.9531893476063189
 20
40.0
 30
-0.0000000000000089
 11
43.7882408939981218
 21
40.0
 31
-0.0000000000000089
210
0.0
220
1.0
230
-0.0000000000000002
  0
LINE
  5
430E
  8
0
  6
CONTINUOUS
 62
     3
 10
45.7081300844602225
 20
40.0
 30
-0.0000000000000089
 11
47.6932988427723714
 21
40.0
 31
-0.0000000000000089
210
0.0
220
1.0
230
-0.0000000000000002
  0
LINE
  5
430F
  8
0
  6
CONTINUOUS
 62
     3
 10
48.3481372923145827
 20
40.0
 30
-0.0000000000000089
 11
48.4999999999998082
 21
40.0
 31
-0.0000000000000089
210
0.0
220
1.0
230
-0.0000000000000002
  0
LINE
  5
4310
  8
0
  6
CONTINUOUS
 62
     3
 10
-48.4999999999998082
 20
40.0
 30
-0.0000000000000089
 11
-48.3481372923145685
 21
40.0
 31
-0.0000000000000089
210
0.0
220
1.0
230
-0.0000000000000002
  0
LINE
  5
4311
  8
0
  6
CONTINUOUS
 62
     3
 10
-47.693298842772343
 20
40.0
 30
-0.0000000000000089
 11
-45.708130084460187
 21
40.0
 31
-0.0000000000000089
210
0.0
220
1.0
230
-0.0000000000000002
  0
LINE
  5
4312
  8
0
  6
CONTINUOUS
 62
     3
 10
-43.7882408939981005
 20
40.0
 30
-0.0000000000000089
 11
-39.9531893476062976
 21
40.0
 31
-0.0000000000000089
210
0.0
220
1.0
230
-0.0000000000000002
  0
LINE
  5
4313
  8
0
  6
CONTINUOUS
 62
     3
 10
-36.8990866917874385
 20
40.0
 30
-0.0000000000000089
 11
-31.4755047824802183
 21
40.0
 31
-0.0000000000000089
210
0.0
220
1.0
230
-0.0000000000000002
  0
LINE
  5
4314
  8
0
  6
CONTINUOUS
 62
     3
 10
-27.4953207101554113
 20
40.0
 30
-0.0000000000000089
 11
-20.8528165821591891
 21
40.0
 31
-0.0000000000000089
210
0.0
220
1.0
230
-0.0000000000000002
  0
LINE
  5
4315
  8
0
  6
CONTINUOUS
 62
     3
 10
-16.2177940602921389
 20
40.0
 30
-0.0000000000000089
 11
-8.8090433926727663
 21
40.0
 31
-0.0000000000000089
210
0.0
220
1.0
230
-0.0000000000000002
  0
LINE
  5
4316
  8
0
  6
CONTINUOUS
 62
     3
 10
-8.8090433926727627
 20
48.0000000000000071
 30
-0.0000000000000107
 11
-8.8090433926727627
 21
40.0
 31
-0.0000000000000089
210
0.0
220
1.0
230
-0.0000000000000002
  0
LINE
  5
4317
  8
0
  6
CONTINUOUS
 62
     3
 10
-8.8090433926727663
 20
48.0000000000000071
 30
-0.0000000000000107
 11
-16.2177940602921389
 21
48.0000000000000071
 31
-0.0000000000000107
210
0.0
220
1.0
230
-0.0000000000000002
  0
LINE
  5
4318
  8
0
  6
CONTINUOUS
 62
     3
 10
-3.8350515463917532
 20
40.0
 30
-0.0000000000000089
 11
-3.8350515463917532
 21
48.0000000000000071
 31
-0.0000000000000107
210
0.0
220
1.0
230
-0.0000000000000002
  0
LINE
  5
4319
  8
0
  6
CONTINUOUS
 62
     3
 10
-26.492043912986091
 20
48.0000000000000071
 30
-0.0000000000000107
 11
-26.492043912986091
 21
40.0
 31
-0.0000000000000089
210
0.0
220
1.0
230
-0.0000000000000002
  0
LINE
  5
431A
  8
0
  6
CONTINUOUS
 62
     3
 10
-27.4953207101554113
 20
40.0
 30
-0.0000000000000089
 11
-27.4953207101554113
 21
48.0000000000000071
 31
-0.0000000000000107
210
0.0
220
1.0
230
-0.0000000000000002
  0
LINE
  5
431B
  8
0
  6
CONTINUOUS
 62
     3
 10
-31.475504782480229
 20
48.0000000000000284
 30
-0.0000000000000107
 11
-31.475504782480229
 21
40.0000000000000213
 31
-0.0000000000000089
210
0.0
220
1.0
230
-0.0000000000000002
  0
LINE
  5
431C
  8
0
  6
CONTINUOUS
 62
     3
 10
-39.9531893476062976
 20
48.0000000000000426
 30
-0.0000000000000107
 11
-39.9531893476062976
 21
40.0000000000000284
 31
-0.0000000000000089
210
0.0
220
1.0
230
-0.0000000000000002
  0
LINE
  5
431D
  8
0
  6
CONTINUOUS
 62
     3
 10
-45.7081300844601799
 20
48.0000000000000426
 30
-0.0000000000000107
 11
-45.7081300844601799
 21
40.0000000000000284
 31
-0.0000000000000089
210
0.0
220
1.0
230
-0.0000000000000002
  0
LINE
  5
431E
  8
0
  6
CONTINUOUS
 62
     3
 10
-48.3481372923145898
 20
48.0000000000000426
 30
-0.0000000000000107
 11
-48.3481372923145898
 21
40.0000000000000284
 31
-0.0000000000000089
210
0.0
220
1.0
230
-0.0000000000000002
  0
LINE
  5
431F
  8
0
  6
CONTINUOUS
 62
     3
 10
45.7551169041675223
 20
40.0
 30
-0.0000000000000089
 11
45.7551169041675223
 21
47.9999999999999929
 31
-0.0000000000000107
210
0.0
220
1.0
230
-0.0000000000000002
  0
LINE
  5
4320
  8
0
  6
CONTINUOUS
 62
     3
 10
47.6932988427723501
 20
47.9999999999999787
 30
-0.0000000000000107
 11
47.6932988427723501
 21
39.9999999999999787
 31
-0.0000000000000089
210
0.0
220
1.0
230
-0.0000000000000002
  0
LINE
  5
4321
  8
0
  6
CONTINUOUS
 62
     3
 10
42.0505145072459072
 20
39.9999999999999787
 30
-0.0000000000000089
 11
42.0505145072459072
 21
47.9999999999999787
 31
-0.0000000000000107
210
0.0
220
1.0
230
-0.0000000000000002
  0
LINE
  5
4322
  8
0
  6
CONTINUOUS
 62
     3
 10
43.7882408939981289
 20
47.9999999999999787
 30
-0.0000000000000107
 11
43.7882408939981289
 21
39.9999999999999787
 31
-0.0000000000000089
210
0.0
220
1.0
230
-0.0000000000000002
  0
LINE
  5
4323
  8
0
  6
CONTINUOUS
 62
     3
 10
35.4802390384163928
 20
40.0
 30
-0.0000000000000089
 11
35.4802390384163928
 21
48.0000000000000071
 31
-0.0000000000000107
210
0.0
220
1.0
230
-0.0000000000000002
  0
LINE
  5
4324
  8
0
  6
CONTINUOUS
 62
     3
 10
36.8990866917874882
 20
47.9999999999999929
 30
-0.0000000000000107
 11
36.8990866917874882
 21
40.0
 31
-0.0000000000000089
210
0.0
220
1.0
230
-0.0000000000000002
  0
LINE
  5
4325
  8
0
  6
CONTINUOUS
 62
     3
 10
26.4920439129861407
 20
40.0
 30
-0.0000000000000089
 11
26.4920439129861407
 21
48.0000000000000071
 31
-0.0000000000000107
210
0.0
220
1.0
230
-0.0000000000000002
  0
LINE
  5
4326
  8
0
  6
CONTINUOUS
 62
     3
 10
27.4953207101554611
 20
48.0000000000000071
 30
-0.0000000000000107
 11
27.4953207101554611
 21
40.0
 31
-0.0000000000000089
210
0.0
220
1.0
230
-0.0000000000000002
  0
LINE
  5
4327
  8
0
  6
CONTINUOUS
 62
     3
 10
15.6984597750584207
 20
40.0
 30
-0.0000000000000089
 11
15.6984597750584207
 21
48.0000000000000071
 31
-0.0000000000000107
210
0.0
220
1.0
230
-0.0000000000000002
  0
LINE
  5
4328
  8
0
  6
CONTINUOUS
 62
     3
 10
16.2177940602921815
 20
48.0000000000000071
 30
-0.0000000000000107
 11
16.2177940602921815
 21
40.0
 31
-0.0000000000000089
210
0.0
220
1.0
230
-0.0000000000000002
  0
LINE
  5
4329
  8
0
  6
CONTINUOUS
 62
     3
 10
-15.6984597750584705
 20
35.9999999999999787
 30
-0.000000000000008
 11
-15.6984597750584705
 21
27.9999999999999787
 31
-0.0000000000000062
210
0.0
220
1.0
230
-0.0000000000000002
  0
LINE
  5
432A
  8
0
  6
CONTINUOUS
 62
     3
 10
-16.2177940602922313
 20
27.9999999999999787
 30
-0.0000000000000062
 11
-16.2177940602922313
 21
35.9999999999999787
 31
-0.000000000000008
210
0.0
220
1.0
230
-0.0000000000000002
  0
LINE
  5
432B
  8
0
  6
CONTINUOUS
 62
     3
 10
-20.8528165821592602
 20
35.9999999999999787
 30
-0.000000000000008
 11
-20.8528165821592602
 21
27.9999999999999787
 31
-0.0000000000000062
210
0.0
220
1.0
230
-0.0000000000000002
  0
LINE
  5
432C
  8
0
  6
CONTINUOUS
 62
     3
 10
3.8350515463917811
 20
35.9999999999999787
 30
-0.000000000000008
 11
3.8350515463917811
 21
27.9999999999999787
 31
-0.0000000000000062
210
0.0
220
1.0
230
-0.0000000000000002
  0
LINE
  5
432D
  8
0
  6
CONTINUOUS
 62
     3
 10
45.7081300844602083
 20
27.9999999999999503
 30
-0.0000000000000062
 11
45.7081300844602083
 21
35.9999999999999503
 31
-0.000000000000008
210
0.0
220
1.0
230
-0.0000000000000002
  0
LINE
  5
432E
  8
0
  6
CONTINUOUS
 62
     3
 10
39.9531893476062976
 20
27.9999999999999503
 30
-0.0000000000000062
 11
39.9531893476062976
 21
35.9999999999999503
 31
-0.000000000000008
210
0.0
220
1.0
230
-0.0000000000000002
  0
LINE
  5
432F
  8
0
  6
CONTINUOUS
 62
     3
 10
31.4755047824802112
 20
27.9999999999999503
 30
-0.0000000000000062
 11
31.4755047824802112
 21
35.9999999999999574
 31
-0.000000000000008
210
0.0
220
1.0
230
-0.0000000000000002
  0
LINE
  5
4330
  8
0
  6
CONTINUOUS
 62
     3
 10
20.8528165821591713
 20
27.9999999999999787
 30
-0.0000000000000062
 11
20.8528165821591713
 21
35.9999999999999787
 31
-0.000000000000008
210
0.0
220
1.0
230
-0.0000000000000002
  0
LINE
  5
4331
  8
0
  6
CONTINUOUS
 62
     3
 10
8.8090433926727059
 20
27.9999999999999787
 30
-0.0000000000000062
 11
8.8090433926727059
 21
35.9999999999999787
 31
-0.000000000000008
210
0.0
220
1.0
230
-0.0000000000000002
  0
LINE
  5
4332
  8
0
  6
CONTINUOUS
 62
     3
 10
-35.4802390384163928
 20
36.0
 30
-0.000000000000008
 11
-35.4802390384163928
 21
27.9999999999999893
 31
-0.0000000000000062
210
0.0
220
1.0
230
-0.0000000000000002
  0
LINE
  5
4333
  8
0
  6
CONTINUOUS
 62
     3
 10
-36.8990866917874882
 20
28.0
 30
-0.0000000000000062
 11
-36.8990866917874882
 21
36.0000000000000071
 31
-0.000000000000008
210
0.0
220
1.0
230
-0.0000000000000002
  0
LINE
  5
4334
  8
0
  6
CONTINUOUS
 62
     3
 10
-42.0505145072459072
 20
35.9999999999999787
 30
-0.000000000000008
 11
-42.0505145072459072
 21
28.0000000000000107
 31
-0.0000000000000062
210
0.0
220
1.0
230
-0.0000000000000002
  0
LINE
  5
4335
  8
0
  6
CONTINUOUS
 62
     3
 10
-43.7882408939981289
 20
28.0000000000000107
 30
-0.0000000000000062
 11
-43.7882408939981289
 21
35.9999999999999787
 31
-0.000000000000008
210
0.0
220
1.0
230
-0.0000000000000002
  0
LINE
  5
4336
  8
0
  6
CONTINUOUS
 62
     3
 10
-45.7551169041675223
 20
36.0
 30
-0.000000000000008
 11
-45.7551169041675223
 21
27.9999999999999893
 31
-0.0000000000000062
210
0.0
220
1.0
230
-0.0000000000000002
  0
LINE
  5
4337
  8
0
  6
CONTINUOUS
 62
     3
 10
-47.6932988427723501
 20
28.0000000000000107
 30
-0.0000000000000062
 11
-47.6932988427723501
 21
36.0000000000000071
 31
-0.000000000000008
210
0.0
220
1.0
230
-0.0000000000000002
  0
LINE
  5
4338
  8
0
  6
CONTINUOUS
 62
     3
 10
48.499999999999801
 20
35.9999999999999787
 30
-0.000000000000008
 11
48.3481372923145827
 21
35.9999999999999787
 31
-0.000000000000008
210
0.0
220
1.0
230
-0.0000000000000002
  0
LINE
  5
4339
  8
0
  6
CONTINUOUS
 62
     3
 10
47.6932988427723572
 20
35.9999999999999787
 30
-0.000000000000008
 11
45.7081300844602225
 21
35.9999999999999787
 31
-0.000000000000008
210
0.0
220
1.0
230
-0.0000000000000002
  0
LINE
  5
433A
  8
0
  6
CONTINUOUS
 62
     3
 10
43.7882408939981076
 20
35.9999999999999787
 30
-0.000000000000008
 11
39.9531893476062905
 21
35.9999999999999787
 31
-0.000000000000008
210
0.0
220
1.0
230
-0.0000000000000002
  0
LINE
  5
433B
  8
0
  6
CONTINUOUS
 62
     3
 10
36.8990866917874385
 20
35.9999999999999787
 30
-0.000000000000008
 11
31.4755047824802183
 21
35.9999999999999787
 31
-0.000000000000008
210
0.0
220
1.0
230
-0.0000000000000002
  0
LINE
  5
433C
  8
0
  6
CONTINUOUS
 62
     3
 10
27.4953207101553616
 20
35.9999999999999787
 30
-0.000000000000008
 11
20.8528165821591713
 21
35.9999999999999787
 31
-0.000000000000008
210
0.0
220
1.0
230
-0.0000000000000002
  0
LINE
  5
433D
  8
0
  6
CONTINUOUS
 62
     3
 10
16.2177940602920785
 20
35.9999999999999787
 30
-0.000000000000008
 11
8.8090433926727076
 21
35.9999999999999787
 31
-0.000000000000008
210
0.0
220
1.0
230
-0.0000000000000002
  0
LINE
  5
433E
  8
0
  6
CONTINUOUS
 62
     3
 10
-31.4755047824802787
 20
35.9999999999999787
 30
-0.000000000000008
 11
-36.8990866917874669
 21
35.9999999999999787
 31
-0.000000000000008
210
0.0
220
1.0
230
-0.0000000000000002
  0
LINE
  5
433F
  8
0
  6
CONTINUOUS
 62
     3
 10
-39.9531893476063189
 20
35.9999999999999787
 30
-0.000000000000008
 11
-43.7882408939981218
 21
35.9999999999999787
 31
-0.000000000000008
210
0.0
220
1.0
230
-0.0000000000000002
  0
LINE
  5
4340
  8
0
  6
CONTINUOUS
 62
     3
 10
-45.708130084460187
 20
35.9999999999999787
 30
-0.000000000000008
 11
-47.6932988427723501
 21
35.9999999999999787
 31
-0.000000000000008
210
0.0
220
1.0
230
-0.0000000000000002
  0
LINE
  5
4341
  8
0
  6
CONTINUOUS
 62
     3
 10
-48.3481372923145685
 20
35.9999999999999787
 30
-0.000000000000008
 11
-48.4999999999998082
 21
35.9999999999999787
 31
-0.000000000000008
210
0.0
220
1.0
230
-0.0000000000000002
  0
LINE
  5
4342
  8
0
  6
CONTINUOUS
 62
     3
 10
-20.8528165821592708
 20
35.9999999999999787
 30
-0.000000000000008
 11
-27.4953207101554788
 21
35.9999999999999787
 31
-0.000000000000008
210
0.0
220
1.0
230
-0.0000000000000002
  0
LINE
  5
4343
  8
0
  6
CONTINUOUS
 62
     3
 10
3.8350515463917851
 20
35.9999999999999787
 30
-0.000000000000008
 11
-3.835051546391854
 21
35.9999999999999787
 31
-0.000000000000008
210
0.0
220
1.0
230
-0.0000000000000002
  0
LINE
  5
4344
  8
0
  6
CONTINUOUS
 62
     3
 10
48.3481372923145898
 20
27.9999999999999503
 30
-0.0000000000000062
 11
48.3481372923145898
 21
35.9999999999999503
 31
-0.000000000000008
210
0.0
220
1.0
230
-0.0000000000000002
  0
LINE
  5
4345
  8
0
  6
CONTINUOUS
 62
     3
 10
-3.8350515463919592
 20
27.9999999999999787
 30
-0.0000000000000062
 11
3.8350515463917838
 21
27.9999999999999787
 31
-0.0000000000000062
210
0.0
220
1.0
230
-0.0000000000000002
  0
LINE
  5
4346
  8
0
  6
CONTINUOUS
 62
     3
 10
8.8090433926727147
 20
27.9999999999999787
 30
-0.0000000000000062
 11
16.2177940602920785
 21
27.9999999999999787
 31
-0.0000000000000062
210
0.0
220
1.0
230
-0.0000000000000002
  0
LINE
  5
4347
  8
0
  6
CONTINUOUS
 62
     3
 10
20.8528165821591713
 20
27.9999999999999787
 30
-0.0000000000000062
 11
27.4953207101553616
 21
27.9999999999999787
 31
-0.0000000000000062
210
0.0
220
1.0
230
-0.0000000000000002
  0
LINE
  5
4348
  8
0
  6
CONTINUOUS
 62
     3
 10
31.4755047824802112
 20
27.9999999999999787
 30
-0.0000000000000062
 11
36.8990866917874385
 21
27.9999999999999787
 31
-0.0000000000000062
210
0.0
220
1.0
230
-0.0000000000000002
  0
LINE
  5
4349
  8
0
  6
CONTINUOUS
 62
     3
 10
39.9531893476062976
 20
27.9999999999999787
 30
-0.0000000000000062
 11
43.7882408939981076
 21
27.9999999999999787
 31
-0.0000000000000062
210
0.0
220
1.0
230
-0.0000000000000002
  0
LINE
  5
434A
  8
0
  6
CONTINUOUS
 62
     3
 10
45.7081300844602083
 20
27.9999999999999787
 30
-0.0000000000000062
 11
47.6932988427723572
 21
27.9999999999999787
 31
-0.0000000000000062
210
0.0
220
1.0
230
-0.0000000000000002
  0
LINE
  5
434B
  8
0
  6
CONTINUOUS
 62
     3
 10
48.3481372923145827
 20
27.9999999999999787
 30
-0.0000000000000062
 11
48.4999999999998082
 21
27.9999999999999787
 31
-0.0000000000000062
210
0.0
220
1.0
230
-0.0000000000000002
  0
LINE
  5
434C
  8
0
  6
CONTINUOUS
 62
     3
 10
-48.4999999999998082
 20
27.9999999999999787
 30
-0.0000000000000062
 11
-48.3481372923145685
 21
27.9999999999999787
 31
-0.0000000000000062
210
0.0
220
1.0
230
-0.0000000000000002
  0
LINE
  5
434D
  8
0
  6
CONTINUOUS
 62
     3
 10
-47.6932988427723501
 20
27.9999999999999787
 30
-0.0000000000000062
 11
-45.708130084460187
 21
27.9999999999999787
 31
-0.0000000000000062
210
0.0
220
1.0
230
-0.0000000000000002
  0
LINE
  5
434E
  8
0
  6
CONTINUOUS
 62
     3
 10
-43.7882408939981218
 20
27.9999999999999787
 30
-0.0000000000000062
 11
-39.9531893476063189
 21
27.9999999999999787
 31
-0.0000000000000062
210
0.0
220
1.0
230
-0.0000000000000002
  0
LINE
  5
434F
  8
0
  6
CONTINUOUS
 62
     3
 10
-36.8990866917874669
 20
27.9999999999999787
 30
-0.0000000000000062
 11
-31.4755047824802787
 21
27.9999999999999787
 31
-0.0000000000000062
210
0.0
220
1.0
230
-0.0000000000000002
  0
LINE
  5
4350
  8
0
  6
CONTINUOUS
 62
     3
 10
-27.4953207101554717
 20
27.9999999999999787
 30
-0.0000000000000062
 11
-20.8528165821592602
 21
27.9999999999999787
 31
-0.0000000000000062
210
0.0
220
1.0
230
-0.0000000000000002
  0
LINE
  5
4351
  8
0
  6
CONTINUOUS
 62
     3
 10
-16.2177940602922313
 20
27.9999999999999787
 30
-0.0000000000000062
 11
-8.8090433926728604
 21
27.9999999999999787
 31
-0.0000000000000062
210
0.0
220
1.0
230
-0.0000000000000002
  0
LINE
  5
4352
  8
0
  6
CONTINUOUS
 62
     3
 10
-8.8090433926728622
 20
35.9999999999999787
 30
-0.000000000000008
 11
-8.8090433926728622
 21
27.9999999999999787
 31
-0.0000000000000062
210
0.0
220
1.0
230
-0.0000000000000002
  0
LINE
  5
4353
  8
0
  6
CONTINUOUS
 62
     3
 10
-8.8090433926728551
 20
35.9999999999999787
 30
-0.000000000000008
 11
-16.2177940602922313
 21
35.9999999999999787
 31
-0.000000000000008
210
0.0
220
1.0
230
-0.0000000000000002
  0
LINE
  5
4354
  8
0
  6
CONTINUOUS
 62
     3
 10
-3.8350515463918522
 20
27.9999999999999787
 30
-0.0000000000000062
 11
-3.8350515463918522
 21
35.9999999999999787
 31
-0.000000000000008
210
0.0
220
1.0
230
-0.0000000000000002
  0
LINE
  5
4355
  8
0
  6
CONTINUOUS
 62
     3
 10
-26.4920439129861585
 20
35.9999999999999787
 30
-0.000000000000008
 11
-26.4920439129861585
 21
27.9999999999999787
 31
-0.0000000000000062
210
0.0
220
1.0
230
-0.0000000000000002
  0
LINE
  5
4356
  8
0
  6
CONTINUOUS
 62
     3
 10
-27.4953207101554788
 20
27.9999999999999787
 30
-0.0000000000000062
 11
-27.4953207101554788
 21
35.9999999999999787
 31
-0.000000000000008
210
0.0
220
1.0
230
-0.0000000000000002
  0
LINE
  5
4357
  8
0
  6
CONTINUOUS
 62
     3
 10
-31.4755047824802716
 20
36.0000000000000071
 30
-0.000000000000008
 11
-31.4755047824802716
 21
27.9999999999999893
 31
-0.0000000000000062
210
0.0
220
1.0
230
-0.0000000000000002
  0
LINE
  5
4358
  8
0
  6
CONTINUOUS
 62
     3
 10
-39.9531893476063189
 20
36.0000000000000071
 30
-0.000000000000008
 11
-39.9531893476063189
 21
28.0000000000000107
 31
-0.0000000000000062
210
0.0
220
1.0
230
-0.0000000000000002
  0
LINE
  5
4359
  8
0
  6
CONTINUOUS
 62
     3
 10
-45.7081300844602083
 20
36.0000000000000071
 30
-0.000000000000008
 11
-45.7081300844602083
 21
28.0000000000000107
 31
-0.0000000000000062
210
0.0
220
1.0
230
-0.0000000000000002
  0
LINE
  5
435A
  8
0
  6
CONTINUOUS
 62
     3
 10
-48.3481372923145898
 20
36.0000000000000071
 30
-0.000000000000008
 11
-48.3481372923145898
 21
28.0000000000000107
 31
-0.0000000000000062
210
0.0
220
1.0
230
-0.0000000000000002
  0
LINE
  5
435B
  8
0
  6
CONTINUOUS
 62
     3
 10
45.7551169041675223
 20
27.9999999999999716
 30
-0.0000000000000062
 11
45.7551169041675223
 21
35.9999999999999574
 31
-0.000000000000008
210
0.0
220
1.0
230
-0.0000000000000002
  0
LINE
  5
435C
  8
0
  6
CONTINUOUS
 62
     3
 10
47.6932988427723501
 20
35.9999999999999503
 30
-0.000000000000008
 11
47.6932988427723501
 21
27.9999999999999503
 31
-0.0000000000000062
210
0.0
220
1.0
230
-0.0000000000000002
  0
LINE
  5
435D
  8
0
  6
CONTINUOUS
 62
     3
 10
42.0505145072458788
 20
27.9999999999999503
 30
-0.0000000000000062
 11
42.0505145072458788
 21
35.9999999999999574
 31
-0.000000000000008
210
0.0
220
1.0
230
-0.0000000000000002
  0
LINE
  5
435E
  8
0
  6
CONTINUOUS
 62
     3
 10
43.7882408939981005
 20
35.9999999999999503
 30
-0.000000000000008
 11
43.7882408939981005
 21
27.9999999999999503
 31
-0.0000000000000062
210
0.0
220
1.0
230
-0.0000000000000002
  0
LINE
  5
435F
  8
0
  6
CONTINUOUS
 62
     3
 10
35.4802390384163573
 20
27.9999999999999716
 30
-0.0000000000000062
 11
35.4802390384163573
 21
35.9999999999999574
 31
-0.000000000000008
210
0.0
220
1.0
230
-0.0000000000000002
  0
LINE
  5
4360
  8
0
  6
CONTINUOUS
 62
     3
 10
36.8990866917874314
 20
35.9999999999999574
 30
-0.000000000000008
 11
36.8990866917874314
 21
27.9999999999999503
 31
-0.0000000000000062
210
0.0
220
1.0
230
-0.0000000000000002
  0
LINE
  5
4361
  8
0
  6
CONTINUOUS
 62
     3
 10
26.4920439129860483
 20
27.9999999999999787
 30
-0.0000000000000062
 11
26.4920439129860483
 21
35.9999999999999787
 31
-0.000000000000008
210
0.0
220
1.0
230
-0.0000000000000002
  0
LINE
  5
4362
  8
0
  6
CONTINUOUS
 62
     3
 10
27.4953207101553687
 20
35.9999999999999787
 30
-0.000000000000008
 11
27.4953207101553687
 21
27.9999999999999787
 31
-0.0000000000000062
210
0.0
220
1.0
230
-0.0000000000000002
  0
LINE
  5
4363
  8
0
  6
CONTINUOUS
 62
     3
 10
15.6984597750583195
 20
27.9999999999999787
 30
-0.0000000000000062
 11
15.6984597750583195
 21
35.9999999999999787
 31
-0.000000000000008
210
0.0
220
1.0
230
-0.0000000000000002
  0
LINE
  5
4364
  8
0
  6
CONTINUOUS
 62
     3
 10
16.2177940602920785
 20
35.9999999999999787
 30
-0.000000000000008
 11
16.2177940602920785
 21
27.9999999999999787
 31
-0.0000000000000062
210
0.0
220
1.0
230
-0.0000000000000002
  0
LINE
  5
4365
  8
0
  6
CONTINUOUS
 62
     3
 10
-15.6984597750584403
 20
23.9999999999999787
 30
-0.0000000000000053
 11
-15.6984597750584403
 21
15.9999999999999805
 31
-0.0000000000000036
210
0.0
220
1.0
230
-0.0000000000000002
  0
LINE
  5
4366
  8
0
  6
CONTINUOUS
 62
     3
 10
-16.2177940602921886
 20
15.9999999999999805
 30
-0.0000000000000036
 11
-16.2177940602921886
 21
23.9999999999999787
 31
-0.0000000000000053
210
0.0
220
1.0
230
-0.0000000000000002
  0
LINE
  5
4367
  8
0
  6
CONTINUOUS
 62
     3
 10
-20.8528165821592388
 20
23.9999999999999787
 30
-0.0000000000000053
 11
-20.8528165821592388
 21
15.9999999999999893
 31
-0.0000000000000036
210
0.0
220
1.0
230
-0.0000000000000002
  0
LINE
  5
4368
  8
0
  6
CONTINUOUS
 62
     3
 10
3.8350515463918242
 20
23.9999999999999787
 30
-0.0000000000000053
 11
3.8350515463918242
 21
15.9999999999999805
 31
-0.0000000000000036
210
0.0
220
1.0
230
-0.0000000000000002
  0
LINE
  5
4369
  8
0
  6
CONTINUOUS
 62
     3
 10
45.7081300844602083
 20
15.9999999999999591
 30
-0.0000000000000036
 11
45.7081300844602083
 21
23.9999999999999503
 31
-0.0000000000000053
210
0.0
220
1.0
230
-0.0000000000000002
  0
LINE
  5
436A
  8
0
  6
CONTINUOUS
 62
     3
 10
39.9531893476062976
 20
15.9999999999999591
 30
-0.0000000000000036
 11
39.9531893476062976
 21
23.9999999999999503
 31
-0.0000000000000053
210
0.0
220
1.0
230
-0.0000000000000002
  0
LINE
  5
436B
  8
0
  6
CONTINUOUS
 62
     3
 10
31.4755047824802503
 20
15.9999999999999503
 30
-0.0000000000000036
 11
31.4755047824802503
 21
23.9999999999999609
 31
-0.0000000000000053
210
0.0
220
1.0
230
-0.0000000000000002
  0
LINE
  5
436C
  8
0
  6
CONTINUOUS
 62
     3
 10
20.8528165821591891
 20
15.9999999999999591
 30
-0.0000000000000036
 11
20.8528165821591891
 21
23.9999999999999609
 31
-0.0000000000000053
210
0.0
220
1.0
230
-0.0000000000000002
  0
LINE
  5
436D
  8
0
  6
CONTINUOUS
 62
     3
 10
8.8090433926727485
 20
15.9999999999999805
 30
-0.0000000000000036
 11
8.8090433926727485
 21
23.9999999999999609
 31
-0.0000000000000053
210
0.0
220
1.0
230
-0.0000000000000002
  0
LINE
  5
436E
  8
0
  6
CONTINUOUS
 62
     3
 10
-35.4802390384163928
 20
23.9999999999999893
 30
-0.0000000000000053
 11
-35.4802390384163928
 21
15.9999999999999805
 31
-0.0000000000000036
210
0.0
220
1.0
230
-0.0000000000000002
  0
LINE
  5
436F
  8
0
  6
CONTINUOUS
 62
     3
 10
-36.8990866917874598
 20
16.0
 30
-0.0000000000000036
 11
-36.8990866917874598
 21
23.9999999999999787
 31
-0.0000000000000053
210
0.0
220
1.0
230
-0.0000000000000002
  0
LINE
  5
4370
  8
0
  6
CONTINUOUS
 62
     3
 10
-42.0505145072458788
 20
23.9999999999999787
 30
-0.0000000000000053
 11
-42.0505145072458788
 21
15.9999999999999893
 31
-0.0000000000000036
210
0.0
220
1.0
230
-0.0000000000000002
  0
LINE
  5
4371
  8
0
  6
CONTINUOUS
 62
     3
 10
-43.7882408939981005
 20
15.9999999999999893
 30
-0.0000000000000036
 11
-43.7882408939981005
 21
23.9999999999999787
 31
-0.0000000000000053
210
0.0
220
1.0
230
-0.0000000000000002
  0
LINE
  5
4372
  8
0
  6
CONTINUOUS
 62
     3
 10
-45.7551169041675223
 20
23.9999999999999893
 30
-0.0000000000000053
 11
-45.7551169041675223
 21
15.9999999999999893
 31
-0.0000000000000036
210
0.0
220
1.0
230
-0.0000000000000002
  0
LINE
  5
4373
  8
0
  6
CONTINUOUS
 62
     3
 10
-47.6932988427723501
 20
15.9999999999999893
 30
-0.0000000000000036
 11
-47.6932988427723501
 21
24.0000000000000107
 31
-0.0000000000000053
210
0.0
220
1.0
230
-0.0000000000000002
  0
LINE
  5
4374
  8
0
  6
CONTINUOUS
 62
     3
 10
48.499999999999801
 20
23.9999999999999787
 30
-0.0000000000000053
 11
48.3481372923145827
 21
23.9999999999999787
 31
-0.0000000000000053
210
0.0
220
1.0
230
-0.0000000000000002
  0
LINE
  5
4375
  8
0
  6
CONTINUOUS
 62
     3
 10
47.6932988427723572
 20
23.9999999999999787
 30
-0.0000000000000053
 11
45.7081300844602083
 21
23.9999999999999787
 31
-0.0000000000000053
210
0.0
220
1.0
230
-0.0000000000000002
  0
LINE
  5
4376
  8
0
  6
CONTINUOUS
 62
     3
 10
43.7882408939981218
 20
23.9999999999999787
 30
-0.0000000000000053
 11
39.9531893476063189
 21
23.9999999999999787
 31
-0.0000000000000053
210
0.0
220
1.0
230
-0.0000000000000002
  0
LINE
  5
4377
  8
0
  6
CONTINUOUS
 62
     3
 10
36.8990866917874598
 20
23.9999999999999787
 30
-0.0000000000000053
 11
31.4755047824802396
 21
23.9999999999999787
 31
-0.0000000000000053
210
0.0
220
1.0
230
-0.0000000000000002
  0
LINE
  5
4378
  8
0
  6
CONTINUOUS
 62
     3
 10
27.4953207101554007
 20
23.9999999999999787
 30
-0.0000000000000053
 11
20.8528165821591998
 21
23.9999999999999787
 31
-0.0000000000000053
210
0.0
220
1.0
230
-0.0000000000000002
  0
LINE
  5
4379
  8
0
  6
CONTINUOUS
 62
     3
 10
16.2177940602921211
 20
23.9999999999999787
 30
-0.0000000000000053
 11
8.8090433926727485
 21
23.9999999999999787
 31
-0.0000000000000053
210
0.0
220
1.0
230
-0.0000000000000002
  0
LINE
  5
437A
  8
0
  6
CONTINUOUS
 62
     3
 10
-31.475504782480261
 20
23.9999999999999787
 30
-0.0000000000000053
 11
-36.8990866917874598
 21
23.9999999999999787
 31
-0.0000000000000053
210
0.0
220
1.0
230
-0.0000000000000002
  0
LINE
  5
437B
  8
0
  6
CONTINUOUS
 62
     3
 10
-39.9531893476063118
 20
23.9999999999999787
 30
-0.0000000000000053
 11
-43.7882408939981218
 21
23.9999999999999787
 31
-0.0000000000000053
210
0.0
220
1.0
230
-0.0000000000000002
  0
LINE
  5
437C
  8
0
  6
CONTINUOUS
 62
     3
 10
-45.708130084460187
 20
23.9999999999999787
 30
-0.0000000000000053
 11
-47.6932988427723501
 21
23.9999999999999787
 31
-0.0000000000000053
210
0.0
220
1.0
230
-0.0000000000000002
  0
LINE
  5
437D
  8
0
  6
CONTINUOUS
 62
     3
 10
-48.3481372923145685
 20
23.9999999999999787
 30
-0.0000000000000053
 11
-48.4999999999998082
 21
23.9999999999999787
 31
-0.0000000000000053
210
0.0
220
1.0
230
-0.0000000000000002
  0
LINE
  5
437E
  8
0
  6
CONTINUOUS
 62
     3
 10
-20.8528165821592317
 20
23.9999999999999787
 30
-0.0000000000000053
 11
-27.4953207101554398
 21
23.9999999999999787
 31
-0.0000000000000053
210
0.0
220
1.0
230
-0.0000000000000002
  0
LINE
  5
437F
  8
0
  6
CONTINUOUS
 62
     3
 10
3.8350515463918251
 20
23.9999999999999787
 30
-0.0000000000000053
 11
-3.8350515463918109
 21
23.9999999999999787
 31
-0.0000000000000053
210
0.0
220
1.0
230
-0.0000000000000002
  0
LINE
  5
4380
  8
0
  6
CONTINUOUS
 62
     3
 10
48.3481372923145898
 20
15.9999999999999591
 30
-0.0000000000000036
 11
48.3481372923145898
 21
23.9999999999999503
 31
-0.0000000000000053
210
0.0
220
1.0
230
-0.0000000000000002
  0
LINE
  5
4381
  8
0
  6
CONTINUOUS
 62
     3
 10
-3.8350515463919188
 20
15.9999999999999805
 30
-0.0000000000000036
 11
3.8350515463918269
 21
15.9999999999999805
 31
-0.0000000000000036
210
0.0
220
1.0
230
-0.0000000000000002
  0
LINE
  5
4382
  8
0
  6
CONTINUOUS
 62
     3
 10
8.8090433926727467
 20
15.9999999999999805
 30
-0.0000000000000036
 11
16.2177940602921318
 21
15.9999999999999805
 31
-0.0000000000000036
210
0.0
220
1.0
230
-0.0000000000000002
  0
LINE
  5
4383
  8
0
  6
CONTINUOUS
 62
     3
 10
20.8528165821591998
 20
15.9999999999999805
 30
-0.0000000000000036
 11
27.4953207101554007
 21
15.9999999999999805
 31
-0.0000000000000036
210
0.0
220
1.0
230
-0.0000000000000002
  0
LINE
  5
4384
  8
0
  6
CONTINUOUS
 62
     3
 10
31.475504782480229
 20
15.9999999999999805
 30
-0.0000000000000036
 11
36.8990866917874598
 21
15.9999999999999805
 31
-0.0000000000000036
210
0.0
220
1.0
230
-0.0000000000000002
  0
LINE
  5
4385
  8
0
  6
CONTINUOUS
 62
     3
 10
39.9531893476063189
 20
15.9999999999999805
 30
-0.0000000000000036
 11
43.7882408939981218
 21
15.9999999999999805
 31
-0.0000000000000036
210
0.0
220
1.0
230
-0.0000000000000002
  0
LINE
  5
4386
  8
0
  6
CONTINUOUS
 62
     3
 10
45.7081300844602083
 20
15.9999999999999698
 30
-0.0000000000000036
 11
47.6932988427723572
 21
15.9999999999999698
 31
-0.0000000000000036
210
0.0
220
1.0
230
-0.0000000000000002
  0
LINE
  5
4387
  8
0
  6
CONTINUOUS
 62
     3
 10
48.3481372923145827
 20
15.9999999999999698
 30
-0.0000000000000036
 11
48.4999999999998082
 21
15.9999999999999698
 31
-0.0000000000000036
210
0.0
220
1.0
230
-0.0000000000000002
  0
LINE
  5
4388
  8
0
  6
CONTINUOUS
 62
     3
 10
-48.4999999999998082
 20
15.9999999999999698
 30
-0.0000000000000036
 11
-48.3481372923145685
 21
15.9999999999999698
 31
-0.0000000000000036
210
0.0
220
1.0
230
-0.0000000000000002
  0
LINE
  5
4389
  8
0
  6
CONTINUOUS
 62
     3
 10
-47.6932988427723501
 20
15.9999999999999805
 30
-0.0000000000000036
 11
-45.708130084460187
 21
15.9999999999999805
 31
-0.0000000000000036
210
0.0
220
1.0
230
-0.0000000000000002
  0
LINE
  5
438A
  8
0
  6
CONTINUOUS
 62
     3
 10
-43.7882408939981218
 20
15.9999999999999805
 30
-0.0000000000000036
 11
-39.9531893476063118
 21
15.9999999999999805
 31
-0.0000000000000036
210
0.0
220
1.0
230
-0.0000000000000002
  0
LINE
  5
438B
  8
0
  6
CONTINUOUS
 62
     3
 10
-36.8990866917874598
 20
15.9999999999999805
 30
-0.0000000000000036
 11
-31.475504782480261
 21
15.9999999999999805
 31
-0.0000000000000036
210
0.0
220
1.0
230
-0.0000000000000002
  0
LINE
  5
438C
  8
0
  6
CONTINUOUS
 62
     3
 10
-27.4953207101554398
 20
15.9999999999999805
 30
-0.0000000000000036
 11
-20.8528165821592317
 21
15.9999999999999805
 31
-0.0000000000000036
210
0.0
220
1.0
230
-0.0000000000000002
  0
LINE
  5
438D
  8
0
  6
CONTINUOUS
 62
     3
 10
-16.2177940602921886
 20
15.9999999999999805
 30
-0.0000000000000036
 11
-8.8090433926728196
 21
15.9999999999999805
 31
-0.0000000000000036
210
0.0
220
1.0
230
-0.0000000000000002
  0
LINE
  5
438E
  8
0
  6
CONTINUOUS
 62
     3
 10
-8.8090433926728196
 20
23.9999999999999787
 30
-0.0000000000000053
 11
-8.8090433926728196
 21
15.9999999999999805
 31
-0.0000000000000036
210
0.0
220
1.0
230
-0.0000000000000002
  0
LINE
  5
438F
  8
0
  6
CONTINUOUS
 62
     3
 10
-8.8090433926728196
 20
23.9999999999999787
 30
-0.0000000000000053
 11
-16.2177940602921886
 21
23.9999999999999787
 31
-0.0000000000000053
210
0.0
220
1.0
230
-0.0000000000000002
  0
LINE
  5
4390
  8
0
  6
CONTINUOUS
 62
     3
 10
-3.83505154639181
 20
15.9999999999999805
 30
-0.0000000000000036
 11
-3.83505154639181
 21
23.9999999999999787
 31
-0.0000000000000053
210
0.0
220
1.0
230
-0.0000000000000002
  0
LINE
  5
4391
  8
0
  6
CONTINUOUS
 62
     3
 10
-26.4920439129861407
 20
23.9999999999999787
 30
-0.0000000000000053
 11
-26.4920439129861407
 21
15.9999999999999893
 31
-0.0000000000000036
210
0.0
220
1.0
230
-0.0000000000000002
  0
LINE
  5
4392
  8
0
  6
CONTINUOUS
 62
     3
 10
-27.4953207101554611
 20
15.9999999999999893
 30
-0.0000000000000036
 11
-27.4953207101554611
 21
23.9999999999999787
 31
-0.0000000000000053
210
0.0
220
1.0
230
-0.0000000000000002
  0
LINE
  5
4393
  8
0
  6
CONTINUOUS
 62
     3
 10
-31.4755047824802716
 20
23.9999999999999787
 30
-0.0000000000000053
 11
-31.4755047824802716
 21
16.0
 31
-0.0000000000000036
210
0.0
220
1.0
230
-0.0000000000000002
  0
LINE
  5
4394
  8
0
  6
CONTINUOUS
 62
     3
 10
-39.9531893476062976
 20
24.0000000000000107
 30
-0.0000000000000053
 11
-39.9531893476062976
 21
15.9999999999999893
 31
-0.0000000000000036
210
0.0
220
1.0
230
-0.0000000000000002
  0
LINE
  5
4395
  8
0
  6
CONTINUOUS
 62
     3
 10
-45.7081300844602083
 20
24.0000000000000107
 30
-0.0000000000000053
 11
-45.7081300844602083
 21
15.9999999999999893
 31
-0.0000000000000036
210
0.0
220
1.0
230
-0.0000000000000002
  0
LINE
  5
4396
  8
0
  6
CONTINUOUS
 62
     3
 10
-48.3481372923145898
 20
24.0000000000000107
 30
-0.0000000000000053
 11
-48.3481372923145898
 21
15.9999999999999893
 31
-0.0000000000000036
210
0.0
220
1.0
230
-0.0000000000000002
  0
LINE
  5
4397
  8
0
  6
CONTINUOUS
 62
     3
 10
45.7551169041675223
 20
15.9999999999999591
 30
-0.0000000000000036
 11
45.7551169041675223
 21
23.9999999999999609
 31
-0.0000000000000053
210
0.0
220
1.0
230
-0.0000000000000002
  0
LINE
  5
4398
  8
0
  6
CONTINUOUS
 62
     3
 10
47.6932988427723501
 20
23.9999999999999503
 30
-0.0000000000000053
 11
47.6932988427723501
 21
15.9999999999999591
 31
-0.0000000000000036
210
0.0
220
1.0
230
-0.0000000000000002
  0
LINE
  5
4399
  8
0
  6
CONTINUOUS
 62
     3
 10
42.0505145072458788
 20
15.9999999999999591
 30
-0.0000000000000036
 11
42.0505145072458788
 21
23.9999999999999503
 31
-0.0000000000000053
210
0.0
220
1.0
230
-0.0000000000000002
  0
LINE
  5
439A
  8
0
  6
CONTINUOUS
 62
     3
 10
43.7882408939981289
 20
23.9999999999999503
 30
-0.0000000000000053
 11
43.7882408939981289
 21
15.9999999999999591
 31
-0.0000000000000036
210
0.0
220
1.0
230
-0.0000000000000002
  0
LINE
  5
439B
  8
0
  6
CONTINUOUS
 62
     3
 10
35.4802390384163928
 20
15.9999999999999893
 30
-0.0000000000000036
 11
35.4802390384163928
 21
23.9999999999999609
 31
-0.0000000000000053
210
0.0
220
1.0
230
-0.0000000000000002
  0
LINE
  5
439C
  8
0
  6
CONTINUOUS
 62
     3
 10
36.8990866917874598
 20
23.9999999999999609
 30
-0.0000000000000053
 11
36.8990866917874598
 21
15.9999999999999503
 31
-0.0000000000000036
210
0.0
220
1.0
230
-0.0000000000000002
  0
LINE
  5
439D
  8
0
  6
CONTINUOUS
 62
     3
 10
26.4920439129860803
 20
15.9999999999999591
 30
-0.0000000000000036
 11
26.4920439129860803
 21
23.9999999999999787
 31
-0.0000000000000053
210
0.0
220
1.0
230
-0.0000000000000002
  0
LINE
  5
439E
  8
0
  6
CONTINUOUS
 62
     3
 10
27.4953207101554007
 20
23.9999999999999609
 30
-0.0000000000000053
 11
27.4953207101554007
 21
15.9999999999999591
 31
-0.0000000000000036
210
0.0
220
1.0
230
-0.0000000000000002
  0
LINE
  5
439F
  8
0
  6
CONTINUOUS
 62
     3
 10
15.6984597750583692
 20
15.9999999999999805
 30
-0.0000000000000036
 11
15.6984597750583692
 21
23.9999999999999787
 31
-0.0000000000000053
210
0.0
220
1.0
230
-0.0000000000000002
  0
LINE
  5
43A0
  8
0
  6
CONTINUOUS
 62
     3
 10
16.2177940602921211
 20
23.9999999999999609
 30
-0.0000000000000053
 11
16.2177940602921211
 21
15.9999999999999805
 31
-0.0000000000000036
210
0.0
220
1.0
230
-0.0000000000000002
  0
LINE
  5
43A1
  8
0
  6
CONTINUOUS
 62
     3
 10
-15.6984597750583799
 20
12.0000000000000302
 30
-0.0000000000000027
 11
-15.6984597750583799
 21
4.000000000000032
 31
-0.0000000000000009
210
0.0
220
1.0
230
-0.0000000000000002
  0
LINE
  5
43A2
  8
0
  6
CONTINUOUS
 62
     3
 10
-16.2177940602921318
 20
4.0000000000000311
 30
-0.0000000000000009
 11
-16.2177940602921318
 21
12.0000000000000302
 31
-0.0000000000000027
210
0.0
220
1.0
230
-0.0000000000000002
  0
LINE
  5
43A3
  8
0
  6
CONTINUOUS
 62
     3
 10
-20.8528165821591891
 20
12.0000000000000497
 30
-0.0000000000000027
 11
-20.8528165821591891
 21
4.0000000000000471
 31
-0.0000000000000009
210
0.0
220
1.0
230
-0.0000000000000002
  0
LINE
  5
43A4
  8
0
  6
CONTINUOUS
 62
     3
 10
3.8350515463918811
 20
12.0000000000000302
 30
-0.0000000000000027
 11
3.8350515463918811
 21
4.000000000000032
 31
-0.0000000000000009
210
0.0
220
1.0
230
-0.0000000000000002
  0
LINE
  5
43A5
  8
0
  6
CONTINUOUS
 62
     3
 10
45.7081300844602083
 20
4.0000000000000151
 30
-0.0000000000000009
 11
45.7081300844602083
 21
12.0000000000000195
 31
-0.0000000000000027
210
0.0
220
1.0
230
-0.0000000000000002
  0
LINE
  5
43A6
  8
0
  6
CONTINUOUS
 62
     3
 10
39.9531893476063189
 20
4.000000000000016
 30
-0.0000000000000009
 11
39.9531893476063189
 21
12.0
 31
-0.0000000000000027
210
0.0
220
1.0
230
-0.0000000000000002
  0
LINE
  5
43A7
  8
0
  6
CONTINUOUS
 62
     3
 10
31.4755047824802716
 20
4.0000000000000027
 30
-0.0000000000000009
 11
31.4755047824802716
 21
12.0000000000000107
 31
-0.0000000000000027
210
0.0
220
1.0
230
-0.0000000000000002
  0
LINE
  5
43A8
  8
0
  6
CONTINUOUS
 62
     3
 10
20.8528165821592211
 20
4.0000000000000169
 30
-0.0000000000000009
 11
20.8528165821592211
 21
12.0000000000000195
 31
-0.0000000000000027
210
0.0
220
1.0
230
-0.0000000000000002
  0
LINE
  5
43A9
  8
0
  6
CONTINUOUS
 62
     3
 10
8.8090433926728053
 20
4.0000000000000311
 30
-0.0000000000000009
 11
8.8090433926728053
 21
12.0000000000000302
 31
-0.0000000000000027
210
0.0
220
1.0
230
-0.0000000000000002
  0
LINE
  5
43AA
  8
0
  6
CONTINUOUS
 62
     3
 10
-35.4802390384163573
 20
12.0000000000000302
 30
-0.0000000000000027
 11
-35.4802390384163573
 21
4.0000000000000311
 31
-0.0000000000000009
210
0.0
220
1.0
230
-0.0000000000000002
  0
LINE
  5
43AB
  8
0
  6
CONTINUOUS
 62
     3
 10
-36.8990866917874314
 20
4.0000000000000586
 30
-0.0000000000000009
 11
-36.8990866917874314
 21
12.0000000000000604
 31
-0.0000000000000027
210
0.0
220
1.0
230
-0.0000000000000002
  0
LINE
  5
43AC
  8
0
  6
CONTINUOUS
 62
     3
 10
-42.0505145072458788
 20
12.0000000000000302
 30
-0.0000000000000027
 11
-42.0505145072458788
 21
4.0000000000000453
 31
-0.0000000000000009
210
0.0
220
1.0
230
-0.0000000000000002
  0
LINE
  5
43AD
  8
0
  6
CONTINUOUS
 62
     3
 10
-43.7882408939981005
 20
4.0000000000000444
 30
-0.0000000000000009
 11
-43.7882408939981005
 21
12.0000000000000302
 31
-0.0000000000000027
210
0.0
220
1.0
230
-0.0000000000000002
  0
LINE
  5
43AE
  8
0
  6
CONTINUOUS
 62
     3
 10
-45.7551169041674868
 20
12.0000000000000409
 30
-0.0000000000000027
 11
-45.7551169041674868
 21
4.0000000000000426
 31
-0.0000000000000009
210
0.0
220
1.0
230
-0.0000000000000002
  0
LINE
  5
43AF
  8
0
  6
CONTINUOUS
 62
     3
 10
-47.6932988427723501
 20
4.0000000000000444
 30
-0.0000000000000009
 11
-47.6932988427723501
 21
12.0000000000000409
 31
-0.0000000000000027
210
0.0
220
1.0
230
-0.0000000000000002
  0
LINE
  5
43B0
  8
0
  6
CONTINUOUS
 62
     3
 10
48.499999999999801
 20
12.0000000000000302
 30
-0.0000000000000027
 11
48.3481372923145827
 21
12.0000000000000302
 31
-0.0000000000000027
210
0.0
220
1.0
230
-0.0000000000000002
  0
LINE
  5
43B1
  8
0
  6
CONTINUOUS
 62
     3
 10
47.6932988427723572
 20
12.0000000000000302
 30
-0.0000000000000027
 11
45.7081300844602225
 21
12.0000000000000302
 31
-0.0000000000000027
210
0.0
220
1.0
230
-0.0000000000000002
  0
LINE
  5
43B2
  8
0
  6
CONTINUOUS
 62
     3
 10
43.7882408939981218
 20
12.0000000000000302
 30
-0.0000000000000027
 11
39.9531893476063189
 21
12.0000000000000302
 31
-0.0000000000000027
210
0.0
220
1.0
230
-0.0000000000000002
  0
LINE
  5
43B3
  8
0
  6
CONTINUOUS
 62
     3
 10
36.8990866917875024
 20
12.0000000000000302
 30
-0.0000000000000027
 11
31.4755047824802716
 21
12.0000000000000302
 31
-0.0000000000000027
210
0.0
220
1.0
230
-0.0000000000000002
  0
LINE
  5
43B4
  8
0
  6
CONTINUOUS
 62
     3
 10
27.4953207101554611
 20
12.0000000000000302
 30
-0.0000000000000027
 11
20.8528165821592211
 21
12.0000000000000302
 31
-0.0000000000000027
210
0.0
220
1.0
230
-0.0000000000000002
  0
LINE
  5
43B5
  8
0
  6
CONTINUOUS
 62
     3
 10
16.2177940602921709
 20
12.0000000000000302
 30
-0.0000000000000027
 11
8.8090433926728036
 21
12.0000000000000302
 31
-0.0000000000000027
210
0.0
220
1.0
230
-0.0000000000000002
  0
LINE
  5
43B6
  8
0
  6
CONTINUOUS
 62
     3
 10
-31.4755047824802183
 20
12.0000000000000302
 30
-0.0000000000000027
 11
-36.8990866917874314
 21
12.0000000000000302
 31
-0.0000000000000027
210
0.0
220
1.0
230
-0.0000000000000002
  0
LINE
  5
43B7
  8
0
  6
CONTINUOUS
 62
     3
 10
-39.9531893476062905
 20
12.0000000000000302
 30
-0.0000000000000027
 11
-43.7882408939981005
 21
12.0000000000000302
 31
-0.0000000000000027
210
0.0
220
1.0
230
-0.0000000000000002
  0
LINE
  5
43B8
  8
0
  6
CONTINUOUS
 62
     3
 10
-45.708130084460187
 20
12.0000000000000302
 30
-0.0000000000000027
 11
-47.693298842772343
 21
12.0000000000000302
 31
-0.0000000000000027
210
0.0
220
1.0
230
-0.0000000000000002
  0
LINE
  5
43B9
  8
0
  6
CONTINUOUS
 62
     3
 10
-48.3481372923145685
 20
12.0000000000000302
 30
-0.0000000000000027
 11
-48.4999999999998082
 21
12.0000000000000302
 31
-0.0000000000000027
210
0.0
220
1.0
230
-0.0000000000000002
  0
LINE
  5
43BA
  8
0
  6
CONTINUOUS
 62
     3
 10
-20.8528165821591891
 20
12.0000000000000302
 30
-0.0000000000000027
 11
-27.4953207101554185
 21
12.0000000000000302
 31
-0.0000000000000027
210
0.0
220
1.0
230
-0.0000000000000002
  0
LINE
  5
43BB
  8
0
  6
CONTINUOUS
 62
     3
 10
3.8350515463918811
 20
12.0000000000000302
 30
-0.0000000000000027
 11
-3.835051546391758
 21
12.0000000000000302
 31
-0.0000000000000027
210
0.0
220
1.0
230
-0.0000000000000002
  0
LINE
  5
43BC
  8
0
  6
CONTINUOUS
 62
     3
 10
48.3481372923145898
 20
4.0000000000000151
 30
-0.0000000000000009
 11
48.3481372923145898
 21
12.0000000000000195
 31
-0.0000000000000027
210
0.0
220
1.0
230
-0.0000000000000002
  0
LINE
  5
43BD
  8
0
  6
CONTINUOUS
 62
     3
 10
-3.8350515463918651
 20
4.0000000000000311
 30
-0.0000000000000009
 11
3.8350515463918811
 21
4.0000000000000311
 31
-0.0000000000000009
210
0.0
220
1.0
230
-0.0000000000000002
  0
LINE
  5
43BE
  8
0
  6
CONTINUOUS
 62
     3
 10
8.8090433926728036
 20
4.0000000000000311
 30
-0.0000000000000009
 11
16.2177940602921709
 21
4.0000000000000311
 31
-0.0000000000000009
210
0.0
220
1.0
230
-0.0000000000000002
  0
LINE
  5
43BF
  8
0
  6
CONTINUOUS
 62
     3
 10
20.8528165821592211
 20
4.0000000000000311
 30
-0.0000000000000009
 11
27.4953207101554611
 21
4.0000000000000311
 31
-0.0000000000000009
210
0.0
220
1.0
230
-0.0000000000000002
  0
LINE
  5
43C0
  8
0
  6
CONTINUOUS
 62
     3
 10
31.4755047824802716
 20
4.0000000000000311
 30
-0.0000000000000009
 11
36.8990866917874882
 21
4.0000000000000311
 31
-0.0000000000000009
210
0.0
220
1.0
230
-0.0000000000000002
  0
LINE
  5
43C1
  8
0
  6
CONTINUOUS
 62
     3
 10
39.9531893476063189
 20
4.0000000000000302
 30
-0.0000000000000009
 11
43.7882408939981218
 21
4.0000000000000302
 31
-0.0000000000000009
210
0.0
220
1.0
230
-0.0000000000000002
  0
LINE
  5
43C2
  8
0
  6
CONTINUOUS
 62
     3
 10
45.7081300844602225
 20
4.0000000000000311
 30
-0.0000000000000009
 11
47.6932988427723714
 21
4.0000000000000302
 31
-0.0000000000000009
210
0.0
220
1.0
230
-0.0000000000000002
  0
LINE
  5
43C3
  8
0
  6
CONTINUOUS
 62
     3
 10
48.3481372923145827
 20
4.0000000000000293
 30
-0.0000000000000009
 11
48.4999999999998082
 21
4.0000000000000293
 31
-0.0000000000000009
210
0.0
220
1.0
230
-0.0000000000000002
  0
LINE
  5
43C4
  8
0
  6
CONTINUOUS
 62
     3
 10
-48.4999999999998082
 20
4.0000000000000293
 30
-0.0000000000000009
 11
-48.3481372923145685
 21
4.0000000000000293
 31
-0.0000000000000009
210
0.0
220
1.0
230
-0.0000000000000002
  0
LINE
  5
43C5
  8
0
  6
CONTINUOUS
 62
     3
 10
-47.693298842772343
 20
4.0000000000000302
 30
-0.0000000000000009
 11
-45.708130084460187
 21
4.0000000000000302
 31
-0.0000000000000009
210
0.0
220
1.0
230
-0.0000000000000002
  0
LINE
  5
43C6
  8
0
  6
CONTINUOUS
 62
     3
 10
-43.7882408939981005
 20
4.0000000000000311
 30
-0.0000000000000009
 11
-39.9531893476062976
 21
4.0000000000000311
 31
-0.0000000000000009
210
0.0
220
1.0
230
-0.0000000000000002
  0
LINE
  5
43C7
  8
0
  6
CONTINUOUS
 62
     3
 10
-36.8990866917874385
 20
4.0000000000000311
 30
-0.0000000000000009
 11
-31.4755047824802183
 21
4.0000000000000311
 31
-0.0000000000000009
210
0.0
220
1.0
230
-0.0000000000000002
  0
LINE
  5
43C8
  8
0
  6
CONTINUOUS
 62
     3
 10
-27.4953207101554113
 20
4.0000000000000311
 30
-0.0000000000000009
 11
-20.8528165821591891
 21
4.0000000000000311
 31
-0.0000000000000009
210
0.0
220
1.0
230
-0.0000000000000002
  0
LINE
  5
43C9
  8
0
  6
CONTINUOUS
 62
     3
 10
-16.2177940602921389
 20
4.0000000000000311
 30
-0.0000000000000009
 11
-8.8090433926727663
 21
4.0000000000000311
 31
-0.0000000000000009
210
0.0
220
1.0
230
-0.0000000000000002
  0
LINE
  5
43CA
  8
0
  6
CONTINUOUS
 62
     3
 10
-8.8090433926727627
 20
12.0000000000000302
 30
-0.0000000000000027
 11
-8.8090433926727627
 21
4.000000000000032
 31
-0.0000000000000009
210
0.0
220
1.0
230
-0.0000000000000002
  0
LINE
  5
43CB
  8
0
  6
CONTINUOUS
 62
     3
 10
-8.8090433926727663
 20
12.0000000000000302
 30
-0.0000000000000027
 11
-16.2177940602921389
 21
12.0000000000000302
 31
-0.0000000000000027
210
0.0
220
1.0
230
-0.0000000000000002
  0
LINE
  5
43CC
  8
0
  6
CONTINUOUS
 62
     3
 10
-3.8350515463917532
 20
4.0000000000000311
 30
-0.0000000000000009
 11
-3.8350515463917532
 21
12.0000000000000302
 31
-0.0000000000000027
210
0.0
220
1.0
230
-0.0000000000000002
  0
LINE
  5
43CD
  8
0
  6
CONTINUOUS
 62
     3
 10
-26.492043912986091
 20
12.0000000000000497
 30
-0.0000000000000027
 11
-26.492043912986091
 21
4.0000000000000453
 31
-0.0000000000000009
210
0.0
220
1.0
230
-0.0000000000000002
  0
LINE
  5
43CE
  8
0
  6
CONTINUOUS
 62
     3
 10
-27.4953207101554113
 20
4.0000000000000462
 30
-0.0000000000000009
 11
-27.4953207101554113
 21
12.0000000000000497
 31
-0.0000000000000027
210
0.0
220
1.0
230
-0.0000000000000002
  0
LINE
  5
43CF
  8
0
  6
CONTINUOUS
 62
     3
 10
-31.475504782480229
 20
12.0000000000000604
 30
-0.0000000000000027
 11
-31.475504782480229
 21
4.0000000000000586
 31
-0.0000000000000009
210
0.0
220
1.0
230
-0.0000000000000002
  0
LINE
  5
43D0
  8
0
  6
CONTINUOUS
 62
     3
 10
-39.9531893476062976
 20
12.0000000000000497
 30
-0.0000000000000027
 11
-39.9531893476062976
 21
4.0000000000000453
 31
-0.0000000000000009
210
0.0
220
1.0
230
-0.0000000000000002
  0
LINE
  5
43D1
  8
0
  6
CONTINUOUS
 62
     3
 10
-45.7081300844602083
 20
12.0000000000000497
 30
-0.0000000000000027
 11
-45.7081300844602083
 21
4.0000000000000453
 31
-0.0000000000000009
210
0.0
220
1.0
230
-0.0000000000000002
  0
LINE
  5
43D2
  8
0
  6
CONTINUOUS
 62
     3
 10
-48.3481372923145898
 20
12.0000000000000409
 30
-0.0000000000000027
 11
-48.3481372923145898
 21
4.0000000000000426
 31
-0.0000000000000009
210
0.0
220
1.0
230
-0.0000000000000002
  0
LINE
  5
43D3
  8
0
  6
CONTINUOUS
 62
     3
 10
45.7551169041675223
 20
4.0000000000000151
 30
-0.0000000000000009
 11
45.7551169041675223
 21
12.0000000000000195
 31
-0.0000000000000027
210
0.0
220
1.0
230
-0.0000000000000002
  0
LINE
  5
43D4
  8
0
  6
CONTINUOUS
 62
     3
 10
47.6932988427723501
 20
12.0000000000000195
 30
-0.0000000000000027
 11
47.6932988427723501
 21
4.0000000000000151
 31
-0.0000000000000009
210
0.0
220
1.0
230
-0.0000000000000002
  0
LINE
  5
43D5
  8
0
  6
CONTINUOUS
 62
     3
 10
42.0505145072459072
 20
4.0000000000000151
 30
-0.0000000000000009
 11
42.0505145072459072
 21
12.0000000000000195
 31
-0.0000000000000027
210
0.0
220
1.0
230
-0.0000000000000002
  0
LINE
  5
43D6
  8
0
  6
CONTINUOUS
 62
     3
 10
43.7882408939981289
 20
12.0000000000000195
 30
-0.0000000000000027
 11
43.7882408939981289
 21
4.000000000000016
 31
-0.0000000000000009
210
0.0
220
1.0
230
-0.0000000000000002
  0
LINE
  5
43D7
  8
0
  6
CONTINUOUS
 62
     3
 10
35.4802390384163928
 20
4.0000000000000311
 30
-0.0000000000000009
 11
35.4802390384163928
 21
12.0000000000000302
 31
-0.0000000000000027
210
0.0
220
1.0
230
-0.0000000000000002
  0
LINE
  5
43D8
  8
0
  6
CONTINUOUS
 62
     3
 10
36.8990866917874882
 20
12.0
 30
-0.0000000000000027
 11
36.8990866917874882
 21
4.0000000000000018
 31
-0.0000000000000009
210
0.0
220
1.0
230
-0.0000000000000002
  0
LINE
  5
43D9
  8
0
  6
CONTINUOUS
 62
     3
 10
26.4920439129861407
 20
4.0000000000000169
 30
-0.0000000000000009
 11
26.4920439129861407
 21
12.0000000000000195
 31
-0.0000000000000027
210
0.0
220
1.0
230
-0.0000000000000002
  0
LINE
  5
43DA
  8
0
  6
CONTINUOUS
 62
     3
 10
27.4953207101554611
 20
12.0000000000000195
 30
-0.0000000000000027
 11
27.4953207101554611
 21
4.000000000000016
 31
-0.0000000000000009
210
0.0
220
1.0
230
-0.0000000000000002
  0
LINE
  5
43DB
  8
0
  6
CONTINUOUS
 62
     3
 10
15.6984597750584207
 20
4.0000000000000311
 30
-0.0000000000000009
 11
15.6984597750584207
 21
12.0000000000000302
 31
-0.0000000000000027
210
0.0
220
1.0
230
-0.0000000000000002
  0
LINE
  5
43DC
  8
0
  6
CONTINUOUS
 62
     3
 10
16.2177940602921815
 20
12.0000000000000302
 30
-0.0000000000000027
 11
16.2177940602921815
 21
4.000000000000032
 31
-0.0000000000000009
210
0.0
220
1.0
230
-0.0000000000000002
  0
LINE
  5
43DD
  8
0
  6
CONTINUOUS
 62
     3
 10
-15.6984597750589199
 20
168.0
 30
-0.0000000000000373
 11
-15.6984597750589199
 21
160.0
 31
-0.0000000000000355
210
0.0
220
1.0
230
-0.0000000000000002
  0
LINE
  5
43DE
  8
0
  6
CONTINUOUS
 62
     3
 10
-16.2177940602926682
 20
160.0
 30
-0.0000000000000355
 11
-16.2177940602926682
 21
168.0
 31
-0.0000000000000373
210
0.0
220
1.0
230
-0.0000000000000002
  0
LINE
  5
43DF
  8
0
  6
CONTINUOUS
 62
     3
 10
-20.8528165821596509
 20
168.0
 30
-0.0000000000000373
 11
-20.8528165821596509
 21
160.0
 31
-0.0000000000000355
210
0.0
220
1.0
230
-0.0000000000000002
  0
LINE
  5
43E0
  8
0
  6
CONTINUOUS
 62
     3
 10
3.8350515463912842
 20
168.0
 30
-0.0000000000000373
 11
3.8350515463912842
 21
160.0
 31
-0.0000000000000355
210
0.0
220
1.0
230
-0.0000000000000002
  0
LINE
  5
43E1
  8
0
  6
CONTINUOUS
 62
     3
 10
45.7081300844601799
 20
159.9999999999998863
 30
-0.0000000000000355
 11
45.7081300844601799
 21
167.9999999999998863
 31
-0.0000000000000373
210
0.0
220
1.0
230
-0.0000000000000002
  0
LINE
  5
43E2
  8
0
  6
CONTINUOUS
 62
     3
 10
39.9531893476061768
 20
159.9999999999998863
 30
-0.0000000000000355
 11
39.9531893476061768
 21
167.9999999999998863
 31
-0.0000000000000373
210
0.0
220
1.0
230
-0.0000000000000002
  0
LINE
  5
43E3
  8
0
  6
CONTINUOUS
 62
     3
 10
31.475504782479959
 20
159.9999999999998863
 30
-0.0000000000000355
 11
31.475504782479959
 21
167.9999999999998863
 31
-0.0000000000000373
210
0.0
220
1.0
230
-0.0000000000000002
  0
LINE
  5
43E4
  8
0
  6
CONTINUOUS
 62
     3
 10
20.8528165821587699
 20
159.9999999999998863
 30
-0.0000000000000355
 11
20.8528165821587699
 21
167.9999999999998863
 31
-0.0000000000000373
210
0.0
220
1.0
230
-0.0000000000000002
  0
LINE
  5
43E5
  8
0
  6
CONTINUOUS
 62
     3
 10
8.8090433926722351
 20
160.0
 30
-0.0000000000000355
 11
8.8090433926722351
 21
168.0
 31
-0.0000000000000373
210
0.0
220
1.0
230
-0.0000000000000002
  0
LINE
  5
43E6
  8
0
  6
CONTINUOUS
 62
     3
 10
-35.4802390384166202
 20
168.0
 30
-0.0000000000000373
 11
-35.4802390384166202
 21
160.0
 31
-0.0000000000000355
210
0.0
220
1.0
230
-0.0000000000000002
  0
LINE
  5
43E7
  8
0
  6
CONTINUOUS
 62
     3
 10
-36.8990866917876872
 20
160.0
 30
-0.0000000000000355
 11
-36.8990866917876872
 21
168.0
 31
-0.0000000000000373
210
0.0
220
1.0
230
-0.0000000000000002
  0
LINE
  5
43E8
  8
0
  6
CONTINUOUS
 62
     3
 10
-42.0505145072459925
 20
167.9999999999998863
 30
-0.0000000000000373
 11
-42.0505145072459925
 21
160.0
 31
-0.0000000000000355
210
0.0
220
1.0
230
-0.0000000000000002
  0
LINE
  5
43E9
  8
0
  6
CONTINUOUS
 62
     3
 10
-43.7882408939982213
 20
160.0
 30
-0.0000000000000355
 11
-43.7882408939982213
 21
167.9999999999998863
 31
-0.0000000000000373
210
0.0
220
1.0
230
-0.0000000000000002
  0
LINE
  5
43EA
  8
0
  6
CONTINUOUS
 62
     3
 10
-45.7551169041675223
 20
168.0
 30
-0.0000000000000373
 11
-45.7551169041675223
 21
160.0
 31
-0.0000000000000355
210
0.0
220
1.0
230
-0.0000000000000002
  0
LINE
  5
43EB
  8
0
  6
CONTINUOUS
 62
     3
 10
-47.6932988427723501
 20
160.0
 30
-0.0000000000000355
 11
-47.6932988427723501
 21
168.0
 31
-0.0000000000000373
210
0.0
220
1.0
230
-0.0000000000000002
  0
LINE
  5
43EC
  8
0
  6
CONTINUOUS
 62
     3
 10
48.499999999999801
 20
168.0
 30
-0.0000000000000373
 11
48.3481372923145827
 21
168.0
 31
-0.0000000000000373
210
0.0
220
1.0
230
-0.0000000000000002
  0
LINE
  5
43ED
  8
0
  6
CONTINUOUS
 62
     3
 10
47.6932988427723288
 20
168.0
 30
-0.0000000000000373
 11
45.7081300844601728
 21
168.0
 31
-0.0000000000000373
210
0.0
220
1.0
230
-0.0000000000000002
  0
LINE
  5
43EE
  8
0
  6
CONTINUOUS
 62
     3
 10
43.7882408939980081
 20
168.0
 30
-0.0000000000000373
 11
39.9531893476061626
 21
168.0
 31
-0.0000000000000373
210
0.0
220
1.0
230
-0.0000000000000002
  0
LINE
  5
43EF
  8
0
  6
CONTINUOUS
 62
     3
 10
36.8990866917872324
 20
168.0
 30
-0.0000000000000373
 11
31.4755047824799696
 21
168.0
 31
-0.0000000000000373
210
0.0
220
1.0
230
-0.0000000000000002
  0
LINE
  5
43F0
  8
0
  6
CONTINUOUS
 62
     3
 10
27.4953207101550099
 20
168.0
 30
-0.0000000000000373
 11
20.8528165821587486
 21
168.0
 31
-0.0000000000000373
210
0.0
220
1.0
230
-0.0000000000000002
  0
LINE
  5
43F1
  8
0
  6
CONTINUOUS
 62
     3
 10
16.2177940602916095
 20
168.0
 30
-0.0000000000000373
 11
8.8090433926722422
 21
168.0
 31
-0.0000000000000373
210
0.0
220
1.0
230
-0.0000000000000002
  0
LINE
  5
43F2
  8
0
  6
CONTINUOUS
 62
     3
 10
-31.475504782480531
 20
168.0
 30
-0.0000000000000373
 11
-36.8990866917877085
 21
168.0
 31
-0.0000000000000373
210
0.0
220
1.0
230
-0.0000000000000002
  0
LINE
  5
43F3
  8
0
  6
CONTINUOUS
 62
     3
 10
-39.9531893476064681
 20
168.0
 30
-0.0000000000000373
 11
-43.7882408939982284
 21
168.0
 31
-0.0000000000000373
210
0.0
220
1.0
230
-0.0000000000000002
  0
LINE
  5
43F4
  8
0
  6
CONTINUOUS
 62
     3
 10
-45.7081300844602225
 20
168.0
 30
-0.0000000000000373
 11
-47.6932988427723572
 21
168.0
 31
-0.0000000000000373
210
0.0
220
1.0
230
-0.0000000000000002
  0
LINE
  5
43F5
  8
0
  6
CONTINUOUS
 62
     3
 10
-48.3481372923145685
 20
168.0
 30
-0.0000000000000373
 11
-48.4999999999998082
 21
168.0
 31
-0.0000000000000373
210
0.0
220
1.0
230
-0.0000000000000002
  0
LINE
  5
43F6
  8
0
  6
CONTINUOUS
 62
     3
 10
-20.8528165821596687
 20
168.0
 30
-0.0000000000000373
 11
-27.4953207101558483
 21
168.0
 31
-0.0000000000000373
210
0.0
220
1.0
230
-0.0000000000000002
  0
LINE
  5
43F7
  8
0
  6
CONTINUOUS
 62
     3
 10
3.8350515463912771
 20
168.0
 30
-0.0000000000000373
 11
-3.8350515463923491
 21
168.0
 31
-0.0000000000000373
210
0.0
220
1.0
230
-0.0000000000000002
  0
LINE
  5
43F8
  8
0
  6
CONTINUOUS
 62
     3
 10
48.3481372923145898
 20
159.9999999999998863
 30
-0.0000000000000355
 11
48.3481372923145898
 21
167.9999999999998863
 31
-0.0000000000000373
210
0.0
220
1.0
230
-0.0000000000000002
  0
LINE
  5
43F9
  8
0
  6
CONTINUOUS
 62
     3
 10
-3.8350515463924659
 20
160.0
 30
-0.0000000000000355
 11
3.8350515463912802
 21
160.0
 31
-0.0000000000000355
210
0.0
220
1.0
230
-0.0000000000000002
  0
LINE
  5
43FA
  8
0
  6
CONTINUOUS
 62
     3
 10
8.809043392672244
 20
160.0
 30
-0.0000000000000355
 11
16.2177940602916095
 21
160.0
 31
-0.0000000000000355
210
0.0
220
1.0
230
-0.0000000000000002
  0
LINE
  5
43FB
  8
0
  6
CONTINUOUS
 62
     3
 10
20.8528165821587486
 20
160.0
 30
-0.0000000000000355
 11
27.4953207101550099
 21
160.0
 31
-0.0000000000000355
210
0.0
220
1.0
230
-0.0000000000000002
  0
LINE
  5
43FC
  8
0
  6
CONTINUOUS
 62
     3
 10
31.475504782479959
 20
160.0
 30
-0.0000000000000355
 11
36.8990866917872324
 21
160.0
 31
-0.0000000000000355
210
0.0
220
1.0
230
-0.0000000000000002
  0
LINE
  5
43FD
  8
0
  6
CONTINUOUS
 62
     3
 10
39.9531893476061626
 20
160.0
 30
-0.0000000000000355
 11
43.7882408939980081
 21
160.0
 31
-0.0000000000000355
210
0.0
220
1.0
230
-0.0000000000000002
  0
LINE
  5
43FE
  8
0
  6
CONTINUOUS
 62
     3
 10
45.7081300844601586
 20
160.0
 30
-0.0000000000000355
 11
47.6932988427723217
 21
160.0
 31
-0.0000000000000355
210
0.0
220
1.0
230
-0.0000000000000002
  0
LINE
  5
43FF
  8
0
  6
CONTINUOUS
 62
     3
 10
48.3481372923145827
 20
160.0
 30
-0.0000000000000355
 11
48.4999999999998082
 21
160.0
 31
-0.0000000000000355
210
0.0
220
1.0
230
-0.0000000000000002
  0
LINE
  5
4400
  8
0
  6
CONTINUOUS
 62
     3
 10
-48.4999999999998082
 20
160.0
 30
-0.0000000000000355
 11
-48.3481372923145685
 21
160.0
 31
-0.0000000000000355
210
0.0
220
1.0
230
-0.0000000000000002
  0
LINE
  5
4401
  8
0
  6
CONTINUOUS
 62
     3
 10
-47.6932988427723572
 20
160.0
 30
-0.0000000000000355
 11
-45.7081300844602296
 21
160.0
 31
-0.0000000000000355
210
0.0
220
1.0
230
-0.0000000000000002
  0
LINE
  5
4402
  8
0
  6
CONTINUOUS
 62
     3
 10
-43.7882408939982284
 20
160.0
 30
-0.0000000000000355
 11
-39.9531893476064468
 21
160.0
 31
-0.0000000000000355
210
0.0
220
1.0
230
-0.0000000000000002
  0
LINE
  5
4403
  8
0
  6
CONTINUOUS
 62
     3
 10
-36.8990866917877085
 20
160.0
 30
-0.0000000000000355
 11
-31.475504782480531
 21
160.0
 31
-0.0000000000000355
210
0.0
220
1.0
230
-0.0000000000000002
  0
LINE
  5
4404
  8
0
  6
CONTINUOUS
 62
     3
 10
-27.4953207101558483
 20
160.0
 30
-0.0000000000000355
 11
-20.8528165821596616
 21
160.0
 31
-0.0000000000000355
210
0.0
220
1.0
230
-0.0000000000000002
  0
LINE
  5
4405
  8
0
  6
CONTINUOUS
 62
     3
 10
-16.2177940602926896
 20
160.0
 30
-0.0000000000000355
 11
-8.8090433926733471
 21
160.0
 31
-0.0000000000000355
210
0.0
220
1.0
230
-0.0000000000000002
  0
LINE
  5
4406
  8
0
  6
CONTINUOUS
 62
     3
 10
-8.8090433926733454
 20
168.0
 30
-0.0000000000000373
 11
-8.8090433926733454
 21
160.0
 31
-0.0000000000000355
210
0.0
220
1.0
230
-0.0000000000000002
  0
LINE
  5
4407
  8
0
  6
CONTINUOUS
 62
     3
 10
-8.8090433926733471
 20
168.0
 30
-0.0000000000000373
 11
-16.2177940602926789
 21
168.0
 31
-0.0000000000000373
210
0.0
220
1.0
230
-0.0000000000000002
  0
LINE
  5
4408
  8
0
  6
CONTINUOUS
 62
     3
 10
-3.83505154639235
 20
160.0
 30
-0.0000000000000355
 11
-3.83505154639235
 21
168.0
 31
-0.0000000000000373
210
0.0
220
1.0
230
-0.0000000000000002
  0
LINE
  5
4409
  8
0
  6
CONTINUOUS
 62
     3
 10
-26.4920439129865208
 20
168.0
 30
-0.0000000000000373
 11
-26.4920439129865208
 21
160.0
 31
-0.0000000000000355
210
0.0
220
1.0
230
-0.0000000000000002
  0
LINE
  5
440A
  8
0
  6
CONTINUOUS
 62
     3
 10
-27.4953207101558412
 20
160.0
 30
-0.0000000000000355
 11
-27.4953207101558412
 21
168.0
 31
-0.0000000000000373
210
0.0
220
1.0
230
-0.0000000000000002
  0
LINE
  5
440B
  8
0
  6
CONTINUOUS
 62
     3
 10
-31.4755047824805416
 20
168.0
 30
-0.0000000000000373
 11
-31.4755047824805416
 21
160.0
 31
-0.0000000000000355
210
0.0
220
1.0
230
-0.0000000000000002
  0
LINE
  5
440C
  8
0
  6
CONTINUOUS
 62
     3
 10
-39.9531893476064681
 20
168.0
 30
-0.0000000000000373
 11
-39.9531893476064681
 21
160.0
 31
-0.0000000000000355
210
0.0
220
1.0
230
-0.0000000000000002
  0
LINE
  5
440D
  8
0
  6
CONTINUOUS
 62
     3
 10
-45.7081300844602296
 20
168.0
 30
-0.0000000000000373
 11
-45.7081300844602296
 21
160.0
 31
-0.0000000000000355
210
0.0
220
1.0
230
-0.0000000000000002
  0
LINE
  5
440E
  8
0
  6
CONTINUOUS
 62
     3
 10
-48.3481372923145898
 20
168.0
 30
-0.0000000000000373
 11
-48.3481372923145898
 21
160.0
 31
-0.0000000000000355
210
0.0
220
1.0
230
-0.0000000000000002
  0
LINE
  5
440F
  8
0
  6
CONTINUOUS
 62
     3
 10
45.7551169041674868
 20
159.9999999999998863
 30
-0.0000000000000355
 11
45.7551169041674868
 21
167.9999999999998863
 31
-0.0000000000000373
210
0.0
220
1.0
230
-0.0000000000000002
  0
LINE
  5
4410
  8
0
  6
CONTINUOUS
 62
     3
 10
47.6932988427723501
 20
167.9999999999998863
 30
-0.0000000000000373
 11
47.6932988427723501
 21
159.9999999999998863
 31
-0.0000000000000355
210
0.0
220
1.0
230
-0.0000000000000002
  0
LINE
  5
4411
  8
0
  6
CONTINUOUS
 62
     3
 10
42.050514507245758
 20
159.9999999999998863
 30
-0.0000000000000355
 11
42.050514507245758
 21
167.9999999999998863
 31
-0.0000000000000373
210
0.0
220
1.0
230
-0.0000000000000002
  0
LINE
  5
4412
  8
0
  6
CONTINUOUS
 62
     3
 10
43.7882408939980223
 20
167.9999999999998863
 30
-0.0000000000000373
 11
43.7882408939980223
 21
159.9999999999998863
 31
-0.0000000000000355
210
0.0
220
1.0
230
-0.0000000000000002
  0
LINE
  5
4413
  8
0
  6
CONTINUOUS
 62
     3
 10
35.4802390384161583
 20
160.0
 30
-0.0000000000000355
 11
35.4802390384161583
 21
168.0
 31
-0.0000000000000373
210
0.0
220
1.0
230
-0.0000000000000002
  0
LINE
  5
4414
  8
0
  6
CONTINUOUS
 62
     3
 10
36.8990866917872324
 20
167.9999999999998863
 30
-0.0000000000000373
 11
36.8990866917872324
 21
159.9999999999998863
 31
-0.0000000000000355
210
0.0
220
1.0
230
-0.0000000000000002
  0
LINE
  5
4415
  8
0
  6
CONTINUOUS
 62
     3
 10
26.4920439129857108
 20
159.9999999999998863
 30
-0.0000000000000355
 11
26.4920439129857108
 21
167.9999999999998863
 31
-0.0000000000000373
210
0.0
220
1.0
230
-0.0000000000000002
  0
LINE
  5
4416
  8
0
  6
CONTINUOUS
 62
     3
 10
27.4953207101550312
 20
167.9999999999998863
 30
-0.0000000000000373
 11
27.4953207101550312
 21
159.9999999999998863
 31
-0.0000000000000355
210
0.0
220
1.0
230
-0.0000000000000002
  0
LINE
  5
4417
  8
0
  6
CONTINUOUS
 62
     3
 10
15.69845977505787
 20
160.0
 30
-0.0000000000000355
 11
15.69845977505787
 21
168.0
 31
-0.0000000000000373
210
0.0
220
1.0
230
-0.0000000000000002
  0
LINE
  5
4418
  8
0
  6
CONTINUOUS
 62
     3
 10
16.2177940602916202
 20
168.0
 30
-0.0000000000000373
 11
16.2177940602916202
 21
160.0
 31
-0.0000000000000355
210
0.0
220
1.0
230
-0.0000000000000002
  0
LINE
  5
4419
  8
0
  6
CONTINUOUS
 62
     3
 10
-15.6984597750589092
 20
156.0
 30
-0.0000000000000346
 11
-15.6984597750589092
 21
148.0
 31
-0.0000000000000329
210
0.0
220
1.0
230
-0.0000000000000002
  0
LINE
  5
441A
  8
0
  6
CONTINUOUS
 62
     3
 10
-16.2177940602926611
 20
148.0
 30
-0.0000000000000329
 11
-16.2177940602926611
 21
156.0
 31
-0.0000000000000346
210
0.0
220
1.0
230
-0.0000000000000002
  0
LINE
  5
441B
  8
0
  6
CONTINUOUS
 62
     3
 10
-20.8528165821596296
 20
156.0
 30
-0.0000000000000346
 11
-20.8528165821596296
 21
148.0
 31
-0.0000000000000329
210
0.0
220
1.0
230
-0.0000000000000002
  0
LINE
  5
441C
  8
0
  6
CONTINUOUS
 62
     3
 10
3.8350515463913122
 20
156.0
 30
-0.0000000000000346
 11
3.8350515463913122
 21
148.0
 31
-0.0000000000000329
210
0.0
220
1.0
230
-0.0000000000000002
  0
LINE
  5
441D
  8
0
  6
CONTINUOUS
 62
     3
 10
45.7081300844601799
 20
148.0
 30
-0.0000000000000329
 11
45.7081300844601799
 21
156.0
 31
-0.0000000000000346
210
0.0
220
1.0
230
-0.0000000000000002
  0
LINE
  5
441E
  8
0
  6
CONTINUOUS
 62
     3
 10
39.9531893476061768
 20
148.0
 30
-0.0000000000000329
 11
39.9531893476061768
 21
156.0
 31
-0.0000000000000346
210
0.0
220
1.0
230
-0.0000000000000002
  0
LINE
  5
441F
  8
0
  6
CONTINUOUS
 62
     3
 10
31.475504782479991
 20
148.0
 30
-0.0000000000000329
 11
31.475504782479991
 21
156.0
 31
-0.0000000000000346
210
0.0
220
1.0
230
-0.0000000000000002
  0
LINE
  5
4420
  8
0
  6
CONTINUOUS
 62
     3
 10
20.8528165821587805
 20
148.0
 30
-0.0000000000000329
 11
20.8528165821587805
 21
156.0
 31
-0.0000000000000346
210
0.0
220
1.0
230
-0.0000000000000002
  0
LINE
  5
4421
  8
0
  6
CONTINUOUS
 62
     3
 10
8.8090433926722653
 20
148.0
 30
-0.0000000000000329
 11
8.8090433926722653
 21
156.0
 31
-0.0000000000000346
210
0.0
220
1.0
230
-0.0000000000000002
  0
LINE
  5
4422
  8
0
  6
CONTINUOUS
 62
     3
 10
-35.4802390384166202
 20
156.0
 30
-0.0000000000000346
 11
-35.4802390384166202
 21
148.0
 31
-0.0000000000000329
210
0.0
220
1.0
230
-0.0000000000000002
  0
LINE
  5
4423
  8
0
  6
CONTINUOUS
 62
     3
 10
-36.8990866917876872
 20
148.0
 30
-0.0000000000000329
 11
-36.8990866917876872
 21
156.0
 31
-0.0000000000000346
210
0.0
220
1.0
230
-0.0000000000000002
  0
LINE
  5
4424
  8
0
  6
CONTINUOUS
 62
     3
 10
-42.0505145072459925
 20
156.0
 30
-0.0000000000000346
 11
-42.0505145072459925
 21
148.0
 31
-0.0000000000000329
210
0.0
220
1.0
230
-0.0000000000000002
  0
LINE
  5
4425
  8
0
  6
CONTINUOUS
 62
     3
 10
-43.7882408939982213
 20
148.0
 30
-0.0000000000000329
 11
-43.7882408939982213
 21
156.0
 31
-0.0000000000000346
210
0.0
220
1.0
230
-0.0000000000000002
  0
LINE
  5
4426
  8
0
  6
CONTINUOUS
 62
     3
 10
-45.7551169041675223
 20
156.0
 30
-0.0000000000000346
 11
-45.7551169041675223
 21
148.0
 31
-0.0000000000000329
210
0.0
220
1.0
230
-0.0000000000000002
  0
LINE
  5
4427
  8
0
  6
CONTINUOUS
 62
     3
 10
-47.6932988427723501
 20
148.0
 30
-0.0000000000000329
 11
-47.6932988427723501
 21
156.0
 31
-0.0000000000000346
210
0.0
220
1.0
230
-0.0000000000000002
  0
LINE
  5
4428
  8
0
  6
CONTINUOUS
 62
     3
 10
48.499999999999801
 20
156.0
 30
-0.0000000000000346
 11
48.3481372923145827
 21
156.0
 31
-0.0000000000000346
210
0.0
220
1.0
230
-0.0000000000000002
  0
LINE
  5
4429
  8
0
  6
CONTINUOUS
 62
     3
 10
47.6932988427723288
 20
156.0
 30
-0.0000000000000346
 11
45.7081300844601728
 21
156.0
 31
-0.0000000000000346
210
0.0
220
1.0
230
-0.0000000000000002
  0
LINE
  5
442A
  8
0
  6
CONTINUOUS
 62
     3
 10
43.7882408939980081
 20
156.0
 30
-0.0000000000000346
 11
39.9531893476061697
 21
156.0
 31
-0.0000000000000346
210
0.0
220
1.0
230
-0.0000000000000002
  0
LINE
  5
442B
  8
0
  6
CONTINUOUS
 62
     3
 10
36.8990866917872324
 20
156.0
 30
-0.0000000000000346
 11
31.4755047824799803
 21
156.0
 31
-0.0000000000000346
210
0.0
220
1.0
230
-0.0000000000000002
  0
LINE
  5
442C
  8
0
  6
CONTINUOUS
 62
     3
 10
27.4953207101550312
 20
156.0
 30
-0.0000000000000346
 11
20.8528165821587699
 21
156.0
 31
-0.0000000000000346
210
0.0
220
1.0
230
-0.0000000000000002
  0
LINE
  5
442D
  8
0
  6
CONTINUOUS
 62
     3
 10
16.2177940602916486
 20
156.0
 30
-0.0000000000000346
 11
8.8090433926722582
 21
156.0
 31
-0.0000000000000346
210
0.0
220
1.0
230
-0.0000000000000002
  0
LINE
  5
442E
  8
0
  6
CONTINUOUS
 62
     3
 10
-31.475504782480531
 20
156.0
 30
-0.0000000000000346
 11
-36.8990866917877014
 21
156.0
 31
-0.0000000000000346
210
0.0
220
1.0
230
-0.0000000000000002
  0
LINE
  5
442F
  8
0
  6
CONTINUOUS
 62
     3
 10
-39.9531893476064468
 20
156.0
 30
-0.0000000000000346
 11
-43.7882408939982284
 21
156.0
 31
-0.0000000000000346
210
0.0
220
1.0
230
-0.0000000000000002
  0
LINE
  5
4430
  8
0
  6
CONTINUOUS
 62
     3
 10
-45.7081300844602296
 20
156.0
 30
-0.0000000000000346
 11
-47.6932988427723714
 21
156.0
 31
-0.0000000000000346
210
0.0
220
1.0
230
-0.0000000000000002
  0
LINE
  5
4431
  8
0
  6
CONTINUOUS
 62
     3
 10
-48.3481372923145685
 20
156.0
 30
-0.0000000000000346
 11
-48.4999999999998082
 21
156.0
 31
-0.0000000000000346
210
0.0
220
1.0
230
-0.0000000000000002
  0
LINE
  5
4432
  8
0
  6
CONTINUOUS
 62
     3
 10
-20.8528165821596296
 20
156.0
 30
-0.0000000000000346
 11
-27.4953207101558199
 21
156.0
 31
-0.0000000000000346
210
0.0
220
1.0
230
-0.0000000000000002
  0
LINE
  5
4433
  8
0
  6
CONTINUOUS
 62
     3
 10
3.8350515463913091
 20
156.0
 30
-0.0000000000000346
 11
-3.835051546392326
 21
156.0
 31
-0.0000000000000346
210
0.0
220
1.0
230
-0.0000000000000002
  0
LINE
  5
4434
  8
0
  6
CONTINUOUS
 62
     3
 10
48.3481372923145898
 20
148.0
 30
-0.0000000000000329
 11
48.3481372923145898
 21
156.0
 31
-0.0000000000000346
210
0.0
220
1.0
230
-0.0000000000000002
  0
LINE
  5
4435
  8
0
  6
CONTINUOUS
 62
     3
 10
-3.8350515463924322
 20
148.0
 30
-0.0000000000000329
 11
3.8350515463913109
 21
148.0
 31
-0.0000000000000329
210
0.0
220
1.0
230
-0.0000000000000002
  0
LINE
  5
4436
  8
0
  6
CONTINUOUS
 62
     3
 10
8.8090433926722618
 20
148.0
 30
-0.0000000000000329
 11
16.2177940602916415
 21
148.0
 31
-0.0000000000000329
210
0.0
220
1.0
230
-0.0000000000000002
  0
LINE
  5
4437
  8
0
  6
CONTINUOUS
 62
     3
 10
20.8528165821587699
 20
148.0
 30
-0.0000000000000329
 11
27.4953207101550312
 21
148.0
 31
-0.0000000000000329
210
0.0
220
1.0
230
-0.0000000000000002
  0
LINE
  5
4438
  8
0
  6
CONTINUOUS
 62
     3
 10
31.4755047824799803
 20
148.0
 30
-0.0000000000000329
 11
36.8990866917872395
 21
148.0
 31
-0.0000000000000329
210
0.0
220
1.0
230
-0.0000000000000002
  0
LINE
  5
4439
  8
0
  6
CONTINUOUS
 62
     3
 10
39.9531893476061626
 20
148.0
 30
-0.0000000000000329
 11
43.7882408939980223
 21
148.0
 31
-0.0000000000000329
210
0.0
220
1.0
230
-0.0000000000000002
  0
LINE
  5
443A
  8
0
  6
CONTINUOUS
 62
     3
 10
45.7081300844601586
 20
148.0
 30
-0.0000000000000329
 11
47.6932988427723217
 21
148.0
 31
-0.0000000000000329
210
0.0
220
1.0
230
-0.0000000000000002
  0
LINE
  5
443B
  8
0
  6
CONTINUOUS
 62
     3
 10
48.3481372923145827
 20
148.0
 30
-0.0000000000000329
 11
48.4999999999998082
 21
148.0
 31
-0.0000000000000329
210
0.0
220
1.0
230
-0.0000000000000002
  0
LINE
  5
443C
  8
0
  6
CONTINUOUS
 62
     3
 10
-48.4999999999998082
 20
148.0
 30
-0.0000000000000329
 11
-48.3481372923145685
 21
148.0
 31
-0.0000000000000329
210
0.0
220
1.0
230
-0.0000000000000002
  0
LINE
  5
443D
  8
0
  6
CONTINUOUS
 62
     3
 10
-47.6932988427723572
 20
148.0
 30
-0.0000000000000329
 11
-45.7081300844602296
 21
148.0
 31
-0.0000000000000329
210
0.0
220
1.0
230
-0.0000000000000002
  0
LINE
  5
443E
  8
0
  6
CONTINUOUS
 62
     3
 10
-43.7882408939982426
 20
148.0
 30
-0.0000000000000329
 11
-39.9531893476064468
 21
148.0
 31
-0.0000000000000329
210
0.0
220
1.0
230
-0.0000000000000002
  0
LINE
  5
443F
  8
0
  6
CONTINUOUS
 62
     3
 10
-36.8990866917877014
 20
148.0
 30
-0.0000000000000329
 11
-31.475504782480531
 21
148.0
 31
-0.0000000000000329
210
0.0
220
1.0
230
-0.0000000000000002
  0
LINE
  5
4440
  8
0
  6
CONTINUOUS
 62
     3
 10
-27.4953207101558199
 20
148.0
 30
-0.0000000000000329
 11
-20.8528165821596296
 21
148.0
 31
-0.0000000000000329
210
0.0
220
1.0
230
-0.0000000000000002
  0
LINE
  5
4441
  8
0
  6
CONTINUOUS
 62
     3
 10
-16.2177940602926505
 20
148.0
 30
-0.0000000000000329
 11
-8.8090433926733152
 21
148.0
 31
-0.0000000000000329
210
0.0
220
1.0
230
-0.0000000000000002
  0
LINE
  5
4442
  8
0
  6
CONTINUOUS
 62
     3
 10
-8.8090433926733152
 20
156.0
 30
-0.0000000000000346
 11
-8.8090433926733152
 21
148.0
 31
-0.0000000000000329
210
0.0
220
1.0
230
-0.0000000000000002
  0
LINE
  5
4443
  8
0
  6
CONTINUOUS
 62
     3
 10
-8.8090433926733134
 20
156.0
 30
-0.0000000000000346
 11
-16.2177940602926611
 21
156.0
 31
-0.0000000000000346
210
0.0
220
1.0
230
-0.0000000000000002
  0
LINE
  5
4444
  8
0
  6
CONTINUOUS
 62
     3
 10
-3.8350515463923212
 20
148.0
 30
-0.0000000000000329
 11
-3.8350515463923212
 21
156.0
 31
-0.0000000000000346
210
0.0
220
1.0
230
-0.0000000000000002
  0
LINE
  5
4445
  8
0
  6
CONTINUOUS
 62
     3
 10
-26.4920439129864995
 20
156.0
 30
-0.0000000000000346
 11
-26.4920439129864995
 21
148.0
 31
-0.0000000000000329
210
0.0
220
1.0
230
-0.0000000000000002
  0
LINE
  5
4446
  8
0
  6
CONTINUOUS
 62
     3
 10
-27.4953207101558306
 20
148.0
 30
-0.0000000000000329
 11
-27.4953207101558306
 21
156.0
 31
-0.0000000000000346
210
0.0
220
1.0
230
-0.0000000000000002
  0
LINE
  5
4447
  8
0
  6
CONTINUOUS
 62
     3
 10
-31.475504782480531
 20
156.0
 30
-0.0000000000000346
 11
-31.475504782480531
 21
148.0
 31
-0.0000000000000329
210
0.0
220
1.0
230
-0.0000000000000002
  0
LINE
  5
4448
  8
0
  6
CONTINUOUS
 62
     3
 10
-39.9531893476064397
 20
156.0
 30
-0.0000000000000346
 11
-39.9531893476064397
 21
148.0
 31
-0.0000000000000329
210
0.0
220
1.0
230
-0.0000000000000002
  0
LINE
  5
4449
  8
0
  6
CONTINUOUS
 62
     3
 10
-45.7081300844602296
 20
156.0
 30
-0.0000000000000346
 11
-45.7081300844602296
 21
148.0
 31
-0.0000000000000329
210
0.0
220
1.0
230
-0.0000000000000002
  0
LINE
  5
444A
  8
0
  6
CONTINUOUS
 62
     3
 10
-48.3481372923145898
 20
156.0
 30
-0.0000000000000346
 11
-48.3481372923145898
 21
148.0
 31
-0.0000000000000329
210
0.0
220
1.0
230
-0.0000000000000002
  0
LINE
  5
444B
  8
0
  6
CONTINUOUS
 62
     3
 10
45.7551169041674868
 20
148.0
 30
-0.0000000000000329
 11
45.7551169041674868
 21
156.0
 31
-0.0000000000000346
210
0.0
220
1.0
230
-0.0000000000000002
  0
LINE
  5
444C
  8
0
  6
CONTINUOUS
 62
     3
 10
47.6932988427723501
 20
156.0
 30
-0.0000000000000346
 11
47.6932988427723501
 21
148.0
 31
-0.0000000000000329
210
0.0
220
1.0
230
-0.0000000000000002
  0
LINE
  5
444D
  8
0
  6
CONTINUOUS
 62
     3
 10
42.0505145072457935
 20
148.0
 30
-0.0000000000000329
 11
42.0505145072457935
 21
156.0
 31
-0.0000000000000346
210
0.0
220
1.0
230
-0.0000000000000002
  0
LINE
  5
444E
  8
0
  6
CONTINUOUS
 62
     3
 10
43.7882408939980223
 20
156.0
 30
-0.0000000000000346
 11
43.7882408939980223
 21
148.0
 31
-0.0000000000000329
210
0.0
220
1.0
230
-0.0000000000000002
  0
LINE
  5
444F
  8
0
  6
CONTINUOUS
 62
     3
 10
35.4802390384161583
 20
148.0
 30
-0.0000000000000329
 11
35.4802390384161583
 21
156.0
 31
-0.0000000000000346
210
0.0
220
1.0
230
-0.0000000000000002
  0
LINE
  5
4450
  8
0
  6
CONTINUOUS
 62
     3
 10
36.8990866917872324
 20
156.0
 30
-0.0000000000000346
 11
36.8990866917872324
 21
148.0
 31
-0.0000000000000329
210
0.0
220
1.0
230
-0.0000000000000002
  0
LINE
  5
4451
  8
0
  6
CONTINUOUS
 62
     3
 10
26.4920439129857392
 20
148.0
 30
-0.0000000000000329
 11
26.4920439129857392
 21
156.0
 31
-0.0000000000000346
210
0.0
220
1.0
230
-0.0000000000000002
  0
LINE
  5
4452
  8
0
  6
CONTINUOUS
 62
     3
 10
27.4953207101550312
 20
156.0
 30
-0.0000000000000346
 11
27.4953207101550312
 21
148.0
 31
-0.0000000000000329
210
0.0
220
1.0
230
-0.0000000000000002
  0
LINE
  5
4453
  8
0
  6
CONTINUOUS
 62
     3
 10
15.6984597750579002
 20
148.0
 30
-0.0000000000000329
 11
15.6984597750579002
 21
156.0
 31
-0.0000000000000346
210
0.0
220
1.0
230
-0.0000000000000002
  0
LINE
  5
4454
  8
0
  6
CONTINUOUS
 62
     3
 10
16.2177940602916486
 20
156.0
 30
-0.0000000000000346
 11
16.2177940602916486
 21
148.0
 31
-0.0000000000000329
210
0.0
220
1.0
230
-0.0000000000000002
  0
LINE
  5
4455
  8
0
  6
CONTINUOUS
 62
     3
 10
45.7081300844601799
 20
136.0
 30
-0.0000000000000302
 11
45.7081300844601799
 21
144.0
 31
-0.000000000000032
210
0.0
220
1.0
230
-0.0000000000000002
  0
LINE
  5
4456
  8
0
  6
CONTINUOUS
 62
     3
 10
39.9531893476061768
 20
136.0
 30
-0.0000000000000302
 11
39.9531893476061768
 21
144.0
 31
-0.000000000000032
210
0.0
220
1.0
230
-0.0000000000000002
  0
LINE
  5
4457
  8
0
  6
CONTINUOUS
 62
     3
 10
31.475504782479991
 20
136.0
 30
-0.0000000000000302
 11
31.475504782479991
 21
144.0
 31
-0.000000000000032
210
0.0
220
1.0
230
-0.0000000000000002
  0
LINE
  5
4458
  8
0
  6
CONTINUOUS
 62
     3
 10
20.8528165821588196
 20
136.0
 30
-0.0000000000000302
 11
20.8528165821588196
 21
144.0
 31
-0.000000000000032
210
0.0
220
1.0
230
-0.0000000000000002
  0
LINE
  5
4459
  8
0
  6
CONTINUOUS
 62
     3
 10
8.8090433926723222
 20
136.0
 30
-0.0000000000000302
 11
8.8090433926723222
 21
144.0
 31
-0.000000000000032
210
0.0
220
1.0
230
-0.0000000000000002
  0
LINE
  5
445A
  8
0
  6
CONTINUOUS
 62
     3
 10
-3.8350515463922639
 20
136.0
 30
-0.0000000000000302
 11
-3.8350515463922639
 21
144.0
 31
-0.000000000000032
210
0.0
220
1.0
230
-0.0000000000000002
  0
LINE
  5
445B
  8
0
  6
CONTINUOUS
 62
     3
 10
-15.6984597750588506
 20
144.0
 30
-0.000000000000032
 11
-15.6984597750588506
 21
136.0
 31
-0.0000000000000302
210
0.0
220
1.0
230
-0.0000000000000002
  0
LINE
  5
445C
  8
0
  6
CONTINUOUS
 62
     3
 10
-16.2177940602926007
 20
136.0
 30
-0.0000000000000302
 11
-16.2177940602926007
 21
144.0
 31
-0.000000000000032
210
0.0
220
1.0
230
-0.0000000000000002
  0
LINE
  5
445D
  8
0
  6
CONTINUOUS
 62
     3
 10
-26.4920439129864604
 20
144.0
 30
-0.000000000000032
 11
-26.4920439129864604
 21
136.0
 31
-0.0000000000000302
210
0.0
220
1.0
230
-0.0000000000000002
  0
LINE
  5
445E
  8
0
  6
CONTINUOUS
 62
     3
 10
-27.4953207101557808
 20
136.0
 30
-0.0000000000000302
 11
-27.4953207101557808
 21
144.0
 31
-0.000000000000032
210
0.0
220
1.0
230
-0.0000000000000002
  0
LINE
  5
445F
  8
0
  6
CONTINUOUS
 62
     3
 10
-35.4802390384165776
 20
144.0
 30
-0.000000000000032
 11
-35.4802390384165776
 21
136.0
 31
-0.0000000000000302
210
0.0
220
1.0
230
-0.0000000000000002
  0
LINE
  5
4460
  8
0
  6
CONTINUOUS
 62
     3
 10
-36.8990866917876872
 20
136.0
 30
-0.0000000000000302
 11
-36.8990866917876872
 21
144.0
 31
-0.000000000000032
210
0.0
220
1.0
230
-0.0000000000000002
  0
LINE
  5
4461
  8
0
  6
CONTINUOUS
 62
     3
 10
-42.0505145072459925
 20
144.0
 30
-0.000000000000032
 11
-42.0505145072459925
 21
136.0
 31
-0.0000000000000302
210
0.0
220
1.0
230
-0.0000000000000002
  0
LINE
  5
4462
  8
0
  6
CONTINUOUS
 62
     3
 10
-43.7882408939982213
 20
136.0
 30
-0.0000000000000302
 11
-43.7882408939982213
 21
144.0
 31
-0.000000000000032
210
0.0
220
1.0
230
-0.0000000000000002
  0
LINE
  5
4463
  8
0
  6
CONTINUOUS
 62
     3
 10
-45.7551169041675223
 20
144.0
 30
-0.000000000000032
 11
-45.7551169041675223
 21
136.0
 31
-0.0000000000000302
210
0.0
220
1.0
230
-0.0000000000000002
  0
LINE
  5
4464
  8
0
  6
CONTINUOUS
 62
     3
 10
-47.6932988427723501
 20
136.0
 30
-0.0000000000000302
 11
-47.6932988427723501
 21
144.0
 31
-0.000000000000032
210
0.0
220
1.0
230
-0.0000000000000002
  0
LINE
  5
4465
  8
0
  6
CONTINUOUS
 62
     3
 10
48.499999999999801
 20
144.0
 30
-0.000000000000032
 11
48.3481372923145827
 21
144.0
 31
-0.000000000000032
210
0.0
220
1.0
230
-0.0000000000000002
  0
LINE
  5
4466
  8
0
  6
CONTINUOUS
 62
     3
 10
47.6932988427723288
 20
144.0
 30
-0.000000000000032
 11
45.7081300844601799
 21
144.0
 31
-0.000000000000032
210
0.0
220
1.0
230
-0.0000000000000002
  0
LINE
  5
4467
  8
0
  6
CONTINUOUS
 62
     3
 10
43.7882408939980223
 20
144.0
 30
-0.000000000000032
 11
39.953189347606191
 21
144.0
 31
-0.000000000000032
210
0.0
220
1.0
230
-0.0000000000000002
  0
LINE
  5
4468
  8
0
  6
CONTINUOUS
 62
     3
 10
36.8990866917872609
 20
144.0
 30
-0.000000000000032
 11
31.4755047824800016
 21
144.0
 31
-0.000000000000032
210
0.0
220
1.0
230
-0.0000000000000002
  0
LINE
  5
4469
  8
0
  6
CONTINUOUS
 62
     3
 10
27.4953207101550916
 20
144.0
 30
-0.000000000000032
 11
20.8528165821588303
 21
144.0
 31
-0.000000000000032
210
0.0
220
1.0
230
-0.0000000000000002
  0
LINE
  5
446A
  8
0
  6
CONTINUOUS
 62
     3
 10
16.2177940602916095
 20
144.0
 30
-0.000000000000032
 11
8.8090433926723257
 21
144.0
 31
-0.000000000000032
210
0.0
220
1.0
230
-0.0000000000000002
  0
LINE
  5
446B
  8
0
  6
CONTINUOUS
 62
     3
 10
3.835051546391365
 20
144.0
 30
-0.000000000000032
 11
-3.8350515463922621
 21
144.0
 31
-0.000000000000032
210
0.0
220
1.0
230
-0.0000000000000002
  0
LINE
  5
446C
  8
0
  6
CONTINUOUS
 62
     3
 10
-8.8090433926732654
 20
144.0
 30
-0.000000000000032
 11
-16.2177940602926114
 21
144.0
 31
-0.000000000000032
210
0.0
220
1.0
230
-0.0000000000000002
  0
LINE
  5
446D
  8
0
  6
CONTINUOUS
 62
     3
 10
-20.8528165821596012
 20
144.0
 30
-0.000000000000032
 11
-27.4953207101557808
 21
144.0
 31
-0.000000000000032
210
0.0
220
1.0
230
-0.0000000000000002
  0
LINE
  5
446E
  8
0
  6
CONTINUOUS
 62
     3
 10
-31.475504782480499
 20
144.0
 30
-0.000000000000032
 11
-36.899086691787673
 21
144.0
 31
-0.000000000000032
210
0.0
220
1.0
230
-0.0000000000000002
  0
LINE
  5
446F
  8
0
  6
CONTINUOUS
 62
     3
 10
-39.9531893476064326
 20
144.0
 30
-0.000000000000032
 11
-43.7882408939982213
 21
144.0
 31
-0.000000000000032
210
0.0
220
1.0
230
-0.0000000000000002
  0
LINE
  5
4470
  8
0
  6
CONTINUOUS
 62
     3
 10
-45.7081300844602225
 20
144.0
 30
-0.000000000000032
 11
-47.6932988427723785
 21
144.0
 31
-0.000000000000032
210
0.0
220
1.0
230
-0.0000000000000002
  0
LINE
  5
4471
  8
0
  6
CONTINUOUS
 62
     3
 10
-48.3481372923145685
 20
144.0
 30
-0.000000000000032
 11
-48.4999999999998082
 21
144.0
 31
-0.000000000000032
210
0.0
220
1.0
230
-0.0000000000000002
  0
LINE
  5
4472
  8
0
  6
CONTINUOUS
 62
     3
 10
48.3481372923145898
 20
136.0
 30
-0.0000000000000302
 11
48.3481372923145898
 21
144.0
 31
-0.000000000000032
210
0.0
220
1.0
230
-0.0000000000000002
  0
LINE
  5
4473
  8
0
  6
CONTINUOUS
 62
     3
 10
-48.4999999999998082
 20
136.0
 30
-0.0000000000000302
 11
-48.3481372923145685
 21
136.0
 31
-0.0000000000000302
210
0.0
220
1.0
230
-0.0000000000000002
  0
LINE
  5
4474
  8
0
  6
CONTINUOUS
 62
     3
 10
-47.6932988427723785
 20
136.0
 30
-0.0000000000000302
 11
-45.7081300844602225
 21
136.0
 31
-0.0000000000000302
210
0.0
220
1.0
230
-0.0000000000000002
  0
LINE
  5
4475
  8
0
  6
CONTINUOUS
 62
     3
 10
-43.7882408939982071
 20
136.0
 30
-0.0000000000000302
 11
-39.9531893476064326
 21
136.0
 31
-0.0000000000000302
210
0.0
220
1.0
230
-0.0000000000000002
  0
LINE
  5
4476
  8
0
  6
CONTINUOUS
 62
     3
 10
-36.899086691787673
 20
136.0
 30
-0.0000000000000302
 11
-31.475504782480499
 21
136.0
 31
-0.0000000000000302
210
0.0
220
1.0
230
-0.0000000000000002
  0
LINE
  5
4477
  8
0
  6
CONTINUOUS
 62
     3
 10
-27.4953207101557808
 20
136.0
 30
-0.0000000000000302
 11
-20.8528165821596012
 21
136.0
 31
-0.0000000000000302
210
0.0
220
1.0
230
-0.0000000000000002
  0
LINE
  5
4478
  8
0
  6
CONTINUOUS
 62
     3
 10
-16.2177940602926007
 20
136.0
 30
-0.0000000000000302
 11
-8.8090433926732636
 21
136.0
 31
-0.0000000000000302
210
0.0
220
1.0
230
-0.0000000000000002
  0
LINE
  5
4479
  8
0
  6
CONTINUOUS
 62
     3
 10
-3.8350515463922621
 20
136.0
 30
-0.0000000000000302
 11
3.835051546391365
 21
136.0
 31
-0.0000000000000302
210
0.0
220
1.0
230
-0.0000000000000002
  0
LINE
  5
447A
  8
0
  6
CONTINUOUS
 62
     3
 10
8.8090433926723311
 20
136.0
 30
-0.0000000000000302
 11
16.2177940602916983
 21
136.0
 31
-0.0000000000000302
210
0.0
220
1.0
230
-0.0000000000000002
  0
LINE
  5
447B
  8
0
  6
CONTINUOUS
 62
     3
 10
20.8528165821588303
 20
136.0
 30
-0.0000000000000302
 11
27.4953207101550809
 21
136.0
 31
-0.0000000000000302
210
0.0
220
1.0
230
-0.0000000000000002
  0
LINE
  5
447C
  8
0
  6
CONTINUOUS
 62
     3
 10
31.475504782479991
 20
136.0
 30
-0.0000000000000302
 11
36.8990866917872609
 21
136.0
 31
-0.0000000000000302
210
0.0
220
1.0
230
-0.0000000000000002
  0
LINE
  5
447D
  8
0
  6
CONTINUOUS
 62
     3
 10
39.9531893476061768
 20
136.0
 30
-0.0000000000000302
 11
43.7882408939980294
 21
136.0
 31
-0.0000000000000302
210
0.0
220
1.0
230
-0.0000000000000002
  0
LINE
  5
447E
  8
0
  6
CONTINUOUS
 62
     3
 10
45.7081300844601799
 20
136.0
 30
-0.0000000000000302
 11
47.6932988427723288
 21
136.0
 31
-0.0000000000000302
210
0.0
220
1.0
230
-0.0000000000000002
  0
LINE
  5
447F
  8
0
  6
CONTINUOUS
 62
     3
 10
48.3481372923145827
 20
136.0
 30
-0.0000000000000302
 11
48.4999999999998082
 21
136.0
 31
-0.0000000000000302
210
0.0
220
1.0
230
-0.0000000000000002
  0
LINE
  5
4480
  8
0
  6
CONTINUOUS
 62
     3
 10
45.7551169041674868
 20
136.0
 30
-0.0000000000000302
 11
45.7551169041674868
 21
144.0
 31
-0.000000000000032
210
0.0
220
1.0
230
-0.0000000000000002
  0
LINE
  5
4481
  8
0
  6
CONTINUOUS
 62
     3
 10
47.6932988427723501
 20
144.0
 30
-0.000000000000032
 11
47.6932988427723501
 21
136.0
 31
-0.0000000000000302
210
0.0
220
1.0
230
-0.0000000000000002
  0
LINE
  5
4482
  8
0
  6
CONTINUOUS
 62
     3
 10
42.050514507245822
 20
136.0
 30
-0.0000000000000302
 11
42.050514507245822
 21
144.0
 31
-0.000000000000032
210
0.0
220
1.0
230
-0.0000000000000002
  0
LINE
  5
4483
  8
0
  6
CONTINUOUS
 62
     3
 10
43.7882408939980508
 20
144.0
 30
-0.000000000000032
 11
43.7882408939980508
 21
136.0
 31
-0.0000000000000302
210
0.0
220
1.0
230
-0.0000000000000002
  0
LINE
  5
4484
  8
0
  6
CONTINUOUS
 62
     3
 10
35.4802390384161583
 20
136.0
 30
-0.0000000000000302
 11
35.4802390384161583
 21
144.0
 31
-0.000000000000032
210
0.0
220
1.0
230
-0.0000000000000002
  0
LINE
  5
4485
  8
0
  6
CONTINUOUS
 62
     3
 10
36.8990866917872609
 20
144.0
 30
-0.000000000000032
 11
36.8990866917872609
 21
136.0
 31
-0.0000000000000302
210
0.0
220
1.0
230
-0.0000000000000002
  0
LINE
  5
4486
  8
0
  6
CONTINUOUS
 62
     3
 10
26.4920439129857712
 20
136.0
 30
-0.0000000000000302
 11
26.4920439129857712
 21
144.0
 31
-0.000000000000032
210
0.0
220
1.0
230
-0.0000000000000002
  0
LINE
  5
4487
  8
0
  6
CONTINUOUS
 62
     3
 10
27.4953207101550809
 20
144.0
 30
-0.000000000000032
 11
27.4953207101550809
 21
136.0
 31
-0.0000000000000302
210
0.0
220
1.0
230
-0.0000000000000002
  0
LINE
  5
4488
  8
0
  6
CONTINUOUS
 62
     3
 10
3.835051546391369
 20
144.0
 30
-0.000000000000032
 11
3.835051546391369
 21
136.0
 31
-0.0000000000000302
210
0.0
220
1.0
230
-0.0000000000000002
  0
LINE
  5
4489
  8
0
  6
CONTINUOUS
 62
     3
 10
-8.8090433926732601
 20
144.0
 30
-0.000000000000032
 11
-8.8090433926732601
 21
136.0
 31
-0.0000000000000302
210
0.0
220
1.0
230
-0.0000000000000002
  0
LINE
  5
448A
  8
0
  6
CONTINUOUS
 62
     3
 10
-20.8528165821595906
 20
144.0
 30
-0.000000000000032
 11
-20.8528165821595906
 21
136.0
 31
-0.0000000000000302
210
0.0
220
1.0
230
-0.0000000000000002
  0
LINE
  5
448B
  8
0
  6
CONTINUOUS
 62
     3
 10
-31.475504782480499
 20
144.0
 30
-0.000000000000032
 11
-31.475504782480499
 21
136.0
 31
-0.0000000000000302
210
0.0
220
1.0
230
-0.0000000000000002
  0
LINE
  5
448C
  8
0
  6
CONTINUOUS
 62
     3
 10
-39.9531893476064397
 20
144.0
 30
-0.000000000000032
 11
-39.9531893476064397
 21
136.0
 31
-0.0000000000000302
210
0.0
220
1.0
230
-0.0000000000000002
  0
LINE
  5
448D
  8
0
  6
CONTINUOUS
 62
     3
 10
-45.7081300844602296
 20
144.0
 30
-0.000000000000032
 11
-45.7081300844602296
 21
136.0
 31
-0.0000000000000302
210
0.0
220
1.0
230
-0.0000000000000002
  0
LINE
  5
448E
  8
0
  6
CONTINUOUS
 62
     3
 10
-48.3481372923145898
 20
144.0
 30
-0.000000000000032
 11
-48.3481372923145898
 21
136.0
 31
-0.0000000000000302
210
0.0
220
1.0
230
-0.0000000000000002
  0
LINE
  5
448F
  8
0
  6
CONTINUOUS
 62
     3
 10
15.6984597750578097
 20
136.0
 30
-0.0000000000000302
 11
15.6984597750578097
 21
144.0
 31
-0.000000000000032
210
0.0
220
1.0
230
-0.0000000000000002
  0
LINE
  5
4490
  8
0
  6
CONTINUOUS
 62
     3
 10
16.2177940602915811
 20
144.0
 30
-0.000000000000032
 11
16.2177940602915811
 21
136.0
 31
-0.0000000000000302
210
0.0
220
1.0
230
-0.0000000000000002
  0
LINE
  5
4491
  8
0
  6
CONTINUOUS
 62
     3
 10
-15.6984597750588097
 20
132.0
 30
-0.0000000000000293
 11
-15.6984597750588097
 21
124.0
 31
-0.0000000000000275
210
0.0
220
1.0
230
-0.0000000000000002
  0
LINE
  5
4492
  8
0
  6
CONTINUOUS
 62
     3
 10
-16.2177940602925617
 20
124.0
 30
-0.0000000000000275
 11
-16.2177940602925617
 21
132.0
 31
-0.0000000000000293
210
0.0
220
1.0
230
-0.0000000000000002
  0
LINE
  5
4493
  8
0
  6
CONTINUOUS
 62
     3
 10
-20.8528165821595586
 20
132.0
 30
-0.0000000000000293
 11
-20.8528165821595586
 21
124.0
 31
-0.0000000000000275
210
0.0
220
1.0
230
-0.0000000000000002
  0
LINE
  5
4494
  8
0
  6
CONTINUOUS
 62
     3
 10
3.8350515463914121
 20
132.0
 30
-0.0000000000000293
 11
3.8350515463914121
 21
124.0
 31
-0.0000000000000275
210
0.0
220
1.0
230
-0.0000000000000002
  0
LINE
  5
4495
  8
0
  6
CONTINUOUS
 62
     3
 10
45.7081300844601799
 20
124.0
 30
-0.0000000000000275
 11
45.7081300844601799
 21
132.0
 31
-0.0000000000000293
210
0.0
220
1.0
230
-0.0000000000000002
  0
LINE
  5
4496
  8
0
  6
CONTINUOUS
 62
     3
 10
39.9531893476062123
 20
124.0
 30
-0.0000000000000275
 11
39.9531893476062123
 21
132.0
 31
-0.0000000000000293
210
0.0
220
1.0
230
-0.0000000000000002
  0
LINE
  5
4497
  8
0
  6
CONTINUOUS
 62
     3
 10
31.4755047824800513
 20
124.0
 30
-0.0000000000000275
 11
31.4755047824800513
 21
132.0
 31
-0.0000000000000293
210
0.0
220
1.0
230
-0.0000000000000002
  0
LINE
  5
4498
  8
0
  6
CONTINUOUS
 62
     3
 10
20.8528165821588516
 20
124.0
 30
-0.0000000000000275
 11
20.8528165821588516
 21
132.0
 31
-0.0000000000000293
210
0.0
220
1.0
230
-0.0000000000000002
  0
LINE
  5
4499
  8
0
  6
CONTINUOUS
 62
     3
 10
8.8090433926723648
 20
124.0
 30
-0.0000000000000275
 11
8.8090433926723648
 21
132.0
 31
-0.0000000000000293
210
0.0
220
1.0
230
-0.0000000000000002
  0
LINE
  5
449A
  8
0
  6
CONTINUOUS
 62
     3
 10
-35.4802390384165633
 20
132.0
 30
-0.0000000000000293
 11
-35.4802390384165633
 21
124.0
 31
-0.0000000000000275
210
0.0
220
1.0
230
-0.0000000000000002
  0
LINE
  5
449B
  8
0
  6
CONTINUOUS
 62
     3
 10
-36.8990866917876588
 20
124.0
 30
-0.0000000000000275
 11
-36.8990866917876588
 21
132.0
 31
-0.0000000000000293
210
0.0
220
1.0
230
-0.0000000000000002
  0
LINE
  5
449C
  8
0
  6
CONTINUOUS
 62
     3
 10
-42.050514507245957
 20
132.0
 30
-0.0000000000000293
 11
-42.050514507245957
 21
124.0
 31
-0.0000000000000275
210
0.0
220
1.0
230
-0.0000000000000002
  0
LINE
  5
449D
  8
0
  6
CONTINUOUS
 62
     3
 10
-43.7882408939982213
 20
124.0
 30
-0.0000000000000275
 11
-43.7882408939982213
 21
132.0
 31
-0.0000000000000293
210
0.0
220
1.0
230
-0.0000000000000002
  0
LINE
  5
449E
  8
0
  6
CONTINUOUS
 62
     3
 10
-45.7551169041675223
 20
132.0
 30
-0.0000000000000293
 11
-45.7551169041675223
 21
124.0
 31
-0.0000000000000275
210
0.0
220
1.0
230
-0.0000000000000002
  0
LINE
  5
449F
  8
0
  6
CONTINUOUS
 62
     3
 10
-47.6932988427723785
 20
124.0
 30
-0.0000000000000275
 11
-47.6932988427723785
 21
132.0
 31
-0.0000000000000293
210
0.0
220
1.0
230
-0.0000000000000002
  0
LINE
  5
44A0
  8
0
  6
CONTINUOUS
 62
     3
 10
48.499999999999801
 20
132.0
 30
-0.0000000000000293
 11
48.3481372923145827
 21
132.0
 31
-0.0000000000000293
210
0.0
220
1.0
230
-0.0000000000000002
  0
LINE
  5
44A1
  8
0
  6
CONTINUOUS
 62
     3
 10
47.6932988427723288
 20
132.0
 30
-0.0000000000000293
 11
45.7081300844601799
 21
132.0
 31
-0.0000000000000293
210
0.0
220
1.0
230
-0.0000000000000002
  0
LINE
  5
44A2
  8
0
  6
CONTINUOUS
 62
     3
 10
43.7882408939980508
 20
132.0
 30
-0.0000000000000293
 11
39.9531893476061981
 21
132.0
 31
-0.0000000000000293
210
0.0
220
1.0
230
-0.0000000000000002
  0
LINE
  5
44A3
  8
0
  6
CONTINUOUS
 62
     3
 10
36.899086691787268
 20
132.0
 30
-0.0000000000000293
 11
31.4755047824800513
 21
132.0
 31
-0.0000000000000293
210
0.0
220
1.0
230
-0.0000000000000002
  0
LINE
  5
44A4
  8
0
  6
CONTINUOUS
 62
     3
 10
27.49532071015512
 20
132.0
 30
-0.0000000000000293
 11
20.8528165821588516
 21
132.0
 31
-0.0000000000000293
210
0.0
220
1.0
230
-0.0000000000000002
  0
LINE
  5
44A5
  8
0
  6
CONTINUOUS
 62
     3
 10
16.217794060291741
 20
132.0
 30
-0.0000000000000293
 11
8.8090433926723684
 21
132.0
 31
-0.0000000000000293
210
0.0
220
1.0
230
-0.0000000000000002
  0
LINE
  5
44A6
  8
0
  6
CONTINUOUS
 62
     3
 10
-31.4755047824804812
 20
132.0
 30
-0.0000000000000293
 11
-36.8990866917876517
 21
132.0
 31
-0.0000000000000293
210
0.0
220
1.0
230
-0.0000000000000002
  0
LINE
  5
44A7
  8
0
  6
CONTINUOUS
 62
     3
 10
-39.9531893476064326
 20
132.0
 30
-0.0000000000000293
 11
-43.7882408939982071
 21
132.0
 31
-0.0000000000000293
210
0.0
220
1.0
230
-0.0000000000000002
  0
LINE
  5
44A8
  8
0
  6
CONTINUOUS
 62
     3
 10
-45.7081300844602225
 20
132.0
 30
-0.0000000000000293
 11
-47.6932988427723572
 21
132.0
 31
-0.0000000000000293
210
0.0
220
1.0
230
-0.0000000000000002
  0
LINE
  5
44A9
  8
0
  6
CONTINUOUS
 62
     3
 10
-48.3481372923145685
 20
132.0
 30
-0.0000000000000293
 11
-48.4999999999998082
 21
132.0
 31
-0.0000000000000293
210
0.0
220
1.0
230
-0.0000000000000002
  0
LINE
  5
44AA
  8
0
  6
CONTINUOUS
 62
     3
 10
-20.8528165821595586
 20
132.0
 30
-0.0000000000000293
 11
-27.4953207101557489
 21
132.0
 31
-0.0000000000000293
210
0.0
220
1.0
230
-0.0000000000000002
  0
LINE
  5
44AB
  8
0
  6
CONTINUOUS
 62
     3
 10
3.8350515463914072
 20
132.0
 30
-0.0000000000000293
 11
-3.835051546392219
 21
132.0
 31
-0.0000000000000293
210
0.0
220
1.0
230
-0.0000000000000002
  0
LINE
  5
44AC
  8
0
  6
CONTINUOUS
 62
     3
 10
48.3481372923145898
 20
124.0
 30
-0.0000000000000275
 11
48.3481372923145898
 21
132.0
 31
-0.0000000000000293
210
0.0
220
1.0
230
-0.0000000000000002
  0
LINE
  5
44AD
  8
0
  6
CONTINUOUS
 62
     3
 10
-3.835051546392338
 20
124.0
 30
-0.0000000000000275
 11
3.8350515463914081
 21
124.0
 31
-0.0000000000000275
210
0.0
220
1.0
230
-0.0000000000000002
  0
LINE
  5
44AE
  8
0
  6
CONTINUOUS
 62
     3
 10
8.8090433926723701
 20
124.0
 30
-0.0000000000000275
 11
16.217794060291741
 21
124.0
 31
-0.0000000000000275
210
0.0
220
1.0
230
-0.0000000000000002
  0
LINE
  5
44AF
  8
0
  6
CONTINUOUS
 62
     3
 10
20.8528165821588516
 20
124.0
 30
-0.0000000000000275
 11
27.49532071015512
 21
124.0
 31
-0.0000000000000275
210
0.0
220
1.0
230
-0.0000000000000002
  0
LINE
  5
44B0
  8
0
  6
CONTINUOUS
 62
     3
 10
31.4755047824800513
 20
124.0
 30
-0.0000000000000275
 11
36.899086691787268
 21
124.0
 31
-0.0000000000000275
210
0.0
220
1.0
230
-0.0000000000000002
  0
LINE
  5
44B1
  8
0
  6
CONTINUOUS
 62
     3
 10
39.9531893476061981
 20
124.0
 30
-0.0000000000000275
 11
43.7882408939980365
 21
124.0
 31
-0.0000000000000275
210
0.0
220
1.0
230
-0.0000000000000002
  0
LINE
  5
44B2
  8
0
  6
CONTINUOUS
 62
     3
 10
45.7081300844601799
 20
124.0
 30
-0.0000000000000275
 11
47.6932988427723288
 21
124.0
 31
-0.0000000000000275
210
0.0
220
1.0
230
-0.0000000000000002
  0
LINE
  5
44B3
  8
0
  6
CONTINUOUS
 62
     3
 10
48.3481372923145827
 20
124.0
 30
-0.0000000000000275
 11
48.4999999999998082
 21
124.0
 31
-0.0000000000000275
210
0.0
220
1.0
230
-0.0000000000000002
  0
LINE
  5
44B4
  8
0
  6
CONTINUOUS
 62
     3
 10
-48.4999999999998082
 20
124.0
 30
-0.0000000000000275
 11
-48.3481372923145685
 21
124.0
 31
-0.0000000000000275
210
0.0
220
1.0
230
-0.0000000000000002
  0
LINE
  5
44B5
  8
0
  6
CONTINUOUS
 62
     3
 10
-47.6932988427723572
 20
124.0
 30
-0.0000000000000275
 11
-45.7081300844602225
 21
124.0
 31
-0.0000000000000275
210
0.0
220
1.0
230
-0.0000000000000002
  0
LINE
  5
44B6
  8
0
  6
CONTINUOUS
 62
     3
 10
-43.7882408939981929
 20
124.0
 30
-0.0000000000000275
 11
-39.9531893476064326
 21
124.0
 31
-0.0000000000000275
210
0.0
220
1.0
230
-0.0000000000000002
  0
LINE
  5
44B7
  8
0
  6
CONTINUOUS
 62
     3
 10
-36.8990866917876517
 20
124.0
 30
-0.0000000000000275
 11
-31.4755047824804812
 21
124.0
 31
-0.0000000000000275
210
0.0
220
1.0
230
-0.0000000000000002
  0
LINE
  5
44B8
  8
0
  6
CONTINUOUS
 62
     3
 10
-27.4953207101557489
 20
124.0
 30
-0.0000000000000275
 11
-20.8528165821595586
 21
124.0
 31
-0.0000000000000275
210
0.0
220
1.0
230
-0.0000000000000002
  0
LINE
  5
44B9
  8
0
  6
CONTINUOUS
 62
     3
 10
-16.2177940602925617
 20
124.0
 30
-0.0000000000000275
 11
-8.8090433926731997
 21
124.0
 31
-0.0000000000000275
210
0.0
220
1.0
230
-0.0000000000000002
  0
LINE
  5
44BA
  8
0
  6
CONTINUOUS
 62
     3
 10
-8.8090433926732032
 20
132.0
 30
-0.0000000000000293
 11
-8.8090433926732032
 21
124.0
 31
-0.0000000000000275
210
0.0
220
1.0
230
-0.0000000000000002
  0
LINE
  5
44BB
  8
0
  6
CONTINUOUS
 62
     3
 10
-8.8090433926731997
 20
132.0
 30
-0.0000000000000293
 11
-16.2177940602925617
 21
132.0
 31
-0.0000000000000293
210
0.0
220
1.0
230
-0.0000000000000002
  0
LINE
  5
44BC
  8
0
  6
CONTINUOUS
 62
     3
 10
-3.8350515463922221
 20
124.0
 30
-0.0000000000000275
 11
-3.8350515463922221
 21
132.0
 31
-0.0000000000000293
210
0.0
220
1.0
230
-0.0000000000000002
  0
LINE
  5
44BD
  8
0
  6
CONTINUOUS
 62
     3
 10
-26.4920439129864285
 20
132.0
 30
-0.0000000000000293
 11
-26.4920439129864285
 21
124.0
 31
-0.0000000000000275
210
0.0
220
1.0
230
-0.0000000000000002
  0
LINE
  5
44BE
  8
0
  6
CONTINUOUS
 62
     3
 10
-27.4953207101557489
 20
124.0
 30
-0.0000000000000275
 11
-27.4953207101557489
 21
132.0
 31
-0.0000000000000293
210
0.0
220
1.0
230
-0.0000000000000002
  0
LINE
  5
44BF
  8
0
  6
CONTINUOUS
 62
     3
 10
-31.4755047824804706
 20
132.0
 30
-0.0000000000000293
 11
-31.4755047824804706
 21
124.0
 31
-0.0000000000000275
210
0.0
220
1.0
230
-0.0000000000000002
  0
LINE
  5
44C0
  8
0
  6
CONTINUOUS
 62
     3
 10
-39.9531893476064113
 20
132.0
 30
-0.0000000000000293
 11
-39.9531893476064113
 21
124.0
 31
-0.0000000000000275
210
0.0
220
1.0
230
-0.0000000000000002
  0
LINE
  5
44C1
  8
0
  6
CONTINUOUS
 62
     3
 10
-45.7081300844602296
 20
132.0
 30
-0.0000000000000293
 11
-45.7081300844602296
 21
124.0
 31
-0.0000000000000275
210
0.0
220
1.0
230
-0.0000000000000002
  0
LINE
  5
44C2
  8
0
  6
CONTINUOUS
 62
     3
 10
-48.3481372923145898
 20
132.0
 30
-0.0000000000000293
 11
-48.3481372923145898
 21
124.0
 31
-0.0000000000000275
210
0.0
220
1.0
230
-0.0000000000000002
  0
LINE
  5
44C3
  8
0
  6
CONTINUOUS
 62
     3
 10
45.7551169041674868
 20
124.0
 30
-0.0000000000000275
 11
45.7551169041674868
 21
132.0
 31
-0.0000000000000293
210
0.0
220
1.0
230
-0.0000000000000002
  0
LINE
  5
44C4
  8
0
  6
CONTINUOUS
 62
     3
 10
47.6932988427723501
 20
132.0
 30
-0.0000000000000293
 11
47.6932988427723501
 21
124.0
 31
-0.0000000000000275
210
0.0
220
1.0
230
-0.0000000000000002
  0
LINE
  5
44C5
  8
0
  6
CONTINUOUS
 62
     3
 10
42.050514507245822
 20
124.0
 30
-0.0000000000000275
 11
42.050514507245822
 21
132.0
 31
-0.0000000000000293
210
0.0
220
1.0
230
-0.0000000000000002
  0
LINE
  5
44C6
  8
0
  6
CONTINUOUS
 62
     3
 10
43.7882408939980508
 20
132.0
 30
-0.0000000000000293
 11
43.7882408939980508
 21
124.0
 31
-0.0000000000000275
210
0.0
220
1.0
230
-0.0000000000000002
  0
LINE
  5
44C7
  8
0
  6
CONTINUOUS
 62
     3
 10
35.4802390384161868
 20
124.0
 30
-0.0000000000000275
 11
35.4802390384161868
 21
132.0
 31
-0.0000000000000293
210
0.0
220
1.0
230
-0.0000000000000002
  0
LINE
  5
44C8
  8
0
  6
CONTINUOUS
 62
     3
 10
36.8990866917872893
 20
132.0
 30
-0.0000000000000293
 11
36.8990866917872893
 21
124.0
 31
-0.0000000000000275
210
0.0
220
1.0
230
-0.0000000000000002
  0
LINE
  5
44C9
  8
0
  6
CONTINUOUS
 62
     3
 10
26.492043912985789
 20
124.0
 30
-0.0000000000000275
 11
26.492043912985789
 21
132.0
 31
-0.0000000000000293
210
0.0
220
1.0
230
-0.0000000000000002
  0
LINE
  5
44CA
  8
0
  6
CONTINUOUS
 62
     3
 10
27.49532071015512
 20
132.0
 30
-0.0000000000000293
 11
27.49532071015512
 21
124.0
 31
-0.0000000000000275
210
0.0
220
1.0
230
-0.0000000000000002
  0
LINE
  5
44CB
  8
0
  6
CONTINUOUS
 62
     3
 10
15.6984597750579908
 20
124.0
 30
-0.0000000000000275
 11
15.6984597750579908
 21
132.0
 31
-0.0000000000000293
210
0.0
220
1.0
230
-0.0000000000000002
  0
LINE
  5
44CC
  8
0
  6
CONTINUOUS
 62
     3
 10
16.2177940602917516
 20
132.0
 30
-0.0000000000000293
 11
16.2177940602917516
 21
124.0
 31
-0.0000000000000275
210
0.0
220
1.0
230
-0.0000000000000002
  0
LINE
  5
44CD
  8
0
  6
CONTINUOUS
 62
     3
 10
-48.499999999999801
 20
170.0000000000001137
 30
-0.0000000000000377
 11
48.4999999999998082
 21
170.0000000000001137
 31
-0.0000000000000377
210
0.0
220
1.0
230
-0.0000000000000002
  0
LINE
  5
44CE
  8
0
  6
CONTINUOUS
 62
     3
 10
-48.499999999999801
 20
0.0
 30
0.0
 11
48.4999999999998082
 21
0.0
 31
0.0
210
0.0
220
1.0
230
-0.0000000000000002
  0
LINE
  5
44CF
  8
0
  6
CONTINUOUS
 62
     3
 10
-48.9999999999997371
 20
185.0000000000001137
 30
-0.0000000000000411
 11
-48.9999999999997371
 21
192.0000000000001137
 31
-0.0000000000000426
210
0.0
220
1.0
230
-0.0000000000000002
  0
LINE
  5
44D0
  8
0
  6
CONTINUOUS
 62
     3
 10
-48.3312804709403991
 20
170.0000000000001137
 30
-0.0000000000000377
 11
-50.1602514716890724
 21
172.7434565011232905
 31
-0.0000000000000384
210
0.0
220
1.0
230
-0.0000000000000002
  0
LINE
  5
44D1
  8
0
  6
CONTINUOUS
 62
     3
 10
48.3312804709405626
 20
170.0000000000001137
 30
-0.0000000000000377
 11
50.16025147168925
 21
172.7434565011232905
 31
-0.0000000000000384
210
0.0
220
1.0
230
-0.0000000000000002
  0
ARC
  5
44D2
  8
0
  6
CONTINUOUS
 62
     3
 10
-46.0000000000001421
 20
175.5169574822492109
 30
0.0
 40
4.999999999999722
210
0.0
220
-0.0000000000000002
230
-1.0
 50
180.0
 51
213.6900675259776108
  0
ARC
  5
44D3
  8
0
  6
CONTINUOUS
 62
     3
 10
45.9999999999998934
 20
175.5169574822492109
 30
0.0
 40
4.9999999999997993
210
0.0
220
-0.0000000000000002
230
-1.0
 50
326.3099324740226166
 51
0.000000000000986
  0
LINE
  5
44D4
  8
0
  6
CONTINUOUS
 62
     3
 10
-50.9999999999998295
 20
175.5169574822492109
 30
-0.000000000000039
 11
-50.9999999999998295
 21
185.0000000000001137
 31
-0.0000000000000411
210
0.0
220
1.0
230
-0.0000000000000002
  0
LINE
  5
44D5
  8
0
  6
CONTINUOUS
 62
     3
 10
-50.9999999999998295
 20
192.0000000000001137
 30
-0.0000000000000426
 11
-50.9999999999998295
 21
200.0000000000003126
 31
-0.0000000000000444
210
0.0
220
1.0
230
-0.0000000000000002
  0
LINE
  5
44D6
  8
0
  6
CONTINUOUS
 62
     3
 10
51.0
 20
175.5169574822492109
 30
-0.000000000000039
 11
51.0
 21
200.0000000000003126
 31
-0.0000000000000444
210
0.0
220
1.0
230
-0.0000000000000002
  0
LINE
  5
44D7
  8
0
  6
CONTINUOUS
 62
     3
 10
48.4999999999998082
 20
170.0000000000001137
 30
-0.0000000000000377
 11
48.4999999999998082
 21
168.0
 31
-0.0000000000000373
210
0.0
220
1.0
230
-0.0000000000000002
  0
LINE
  5
44D8
  8
0
  6
CONTINUOUS
 62
     3
 10
48.4999999999998082
 20
160.0
 30
-0.0000000000000355
 11
48.4999999999998082
 21
156.0
 31
-0.0000000000000346
210
0.0
220
1.0
230
-0.0000000000000002
  0
LINE
  5
44D9
  8
0
  6
CONTINUOUS
 62
     3
 10
48.4999999999998082
 20
148.0
 30
-0.0000000000000329
 11
48.4999999999998082
 21
144.0
 31
-0.000000000000032
210
0.0
220
1.0
230
-0.0000000000000002
  0
LINE
  5
44DA
  8
0
  6
CONTINUOUS
 62
     3
 10
48.4999999999998082
 20
136.0
 30
-0.0000000000000302
 11
48.4999999999998082
 21
132.0
 31
-0.0000000000000293
210
0.0
220
1.0
230
-0.0000000000000002
  0
LINE
  5
44DB
  8
0
  6
CONTINUOUS
 62
     3
 10
48.4999999999998082
 20
124.0
 30
-0.0000000000000275
 11
48.4999999999998082
 21
120.0
 31
-0.0000000000000266
210
0.0
220
1.0
230
-0.0000000000000002
  0
LINE
  5
44DC
  8
0
  6
CONTINUOUS
 62
     3
 10
48.4999999999998082
 20
112.0
 30
-0.0000000000000249
 11
48.4999999999998082
 21
108.0
 31
-0.000000000000024
210
0.0
220
1.0
230
-0.0000000000000002
  0
LINE
  5
44DD
  8
0
  6
CONTINUOUS
 62
     3
 10
48.4999999999998082
 20
100.0
 30
-0.0000000000000222
 11
48.4999999999998082
 21
96.0000000000000568
 31
-0.0000000000000213
210
0.0
220
1.0
230
-0.0000000000000002
  0
LINE
  5
44DE
  8
0
  6
CONTINUOUS
 62
     3
 10
48.4999999999998082
 20
88.0000000000000426
 30
-0.0000000000000195
 11
48.4999999999998082
 21
84.0000000000000142
 31
-0.0000000000000187
210
0.0
220
1.0
230
-0.0000000000000002
  0
LINE
  5
44DF
  8
0
  6
CONTINUOUS
 62
     3
 10
48.4999999999998082
 20
76.0000000000000142
 30
-0.0000000000000169
 11
48.4999999999998082
 21
72.0000000000000142
 31
-0.000000000000016
210
0.0
220
1.0
230
-0.0000000000000002
  0
LINE
  5
44E0
  8
0
  6
CONTINUOUS
 62
     3
 10
48.4999999999998082
 20
64.0000000000000426
 30
-0.0000000000000142
 11
48.4999999999998082
 21
60.0000000000000071
 31
-0.0000000000000133
210
0.0
220
1.0
230
-0.0000000000000002
  0
LINE
  5
44E1
  8
0
  6
CONTINUOUS
 62
     3
 10
48.4999999999998082
 20
52.0000000000000071
 30
-0.0000000000000115
 11
48.4999999999998082
 21
48.0000000000000071
 31
-0.0000000000000107
210
0.0
220
1.0
230
-0.0000000000000002
  0
LINE
  5
44E2
  8
0
  6
CONTINUOUS
 62
     3
 10
48.4999999999998082
 20
40.0
 30
-0.0000000000000089
 11
48.4999999999998082
 21
35.9999999999999787
 31
-0.000000000000008
210
0.0
220
1.0
230
-0.0000000000000002
  0
LINE
  5
44E3
  8
0
  6
CONTINUOUS
 62
     3
 10
48.4999999999998082
 20
27.9999999999999787
 30
-0.0000000000000062
 11
48.4999999999998082
 21
23.9999999999999787
 31
-0.0000000000000053
210
0.0
220
1.0
230
-0.0000000000000002
  0
LINE
  5
44E4
  8
0
  6
CONTINUOUS
 62
     3
 10
48.4999999999998082
 20
15.9999999999999698
 30
-0.0000000000000036
 11
48.4999999999998082
 21
12.0000000000000302
 31
-0.0000000000000027
210
0.0
220
1.0
230
-0.0000000000000002
  0
LINE
  5
44E5
  8
0
  6
CONTINUOUS
 62
     3
 10
48.4999999999998082
 20
4.0000000000000293
 30
-0.0000000000000009
 11
48.4999999999998082
 21
0.0
 31
0.0
210
0.0
220
1.0
230
-0.0000000000000002
  0
LINE
  5
44E6
  8
0
  6
CONTINUOUS
 62
     3
 10
-48.4999999999998082
 20
170.0000000000001137
 30
-0.0000000000000377
 11
-48.4999999999998082
 21
168.0
 31
-0.0000000000000373
210
0.0
220
1.0
230
-0.0000000000000002
  0
LINE
  5
44E7
  8
0
  6
CONTINUOUS
 62
     3
 10
-48.4999999999998082
 20
160.0
 30
-0.0000000000000355
 11
-48.4999999999998082
 21
156.0
 31
-0.0000000000000346
210
0.0
220
1.0
230
-0.0000000000000002
  0
LINE
  5
44E8
  8
0
  6
CONTINUOUS
 62
     3
 10
-48.4999999999998082
 20
148.0
 30
-0.0000000000000329
 11
-48.4999999999998082
 21
144.0
 31
-0.000000000000032
210
0.0
220
1.0
230
-0.0000000000000002
  0
LINE
  5
44E9
  8
0
  6
CONTINUOUS
 62
     3
 10
-48.4999999999998082
 20
136.0
 30
-0.0000000000000302
 11
-48.4999999999998082
 21
132.0
 31
-0.0000000000000293
210
0.0
220
1.0
230
-0.0000000000000002
  0
LINE
  5
44EA
  8
0
  6
CONTINUOUS
 62
     3
 10
-48.4999999999998082
 20
124.0
 30
-0.0000000000000275
 11
-48.4999999999998082
 21
120.0
 31
-0.0000000000000266
210
0.0
220
1.0
230
-0.0000000000000002
  0
LINE
  5
44EB
  8
0
  6
CONTINUOUS
 62
     3
 10
-48.4999999999998082
 20
112.0
 30
-0.0000000000000249
 11
-48.4999999999998082
 21
108.0
 31
-0.000000000000024
210
0.0
220
1.0
230
-0.0000000000000002
  0
LINE
  5
44EC
  8
0
  6
CONTINUOUS
 62
     3
 10
-48.4999999999998082
 20
100.0000000000000995
 30
-0.0000000000000222
 11
-48.4999999999998082
 21
96.0000000000000568
 31
-0.0000000000000213
210
0.0
220
1.0
230
-0.0000000000000002
  0
LINE
  5
44ED
  8
0
  6
CONTINUOUS
 62
     3
 10
-48.4999999999998082
 20
88.0000000000000426
 30
-0.0000000000000195
 11
-48.4999999999998082
 21
84.0000000000000142
 31
-0.0000000000000187
210
0.0
220
1.0
230
-0.0000000000000002
  0
LINE
  5
44EE
  8
0
  6
CONTINUOUS
 62
     3
 10
-48.4999999999998082
 20
76.0000000000000142
 30
-0.0000000000000169
 11
-48.4999999999998082
 21
72.0000000000000142
 31
-0.000000000000016
210
0.0
220
1.0
230
-0.0000000000000002
  0
LINE
  5
44EF
  8
0
  6
CONTINUOUS
 62
     3
 10
-48.4999999999998082
 20
64.0000000000000426
 30
-0.0000000000000142
 11
-48.4999999999998082
 21
60.0000000000000071
 31
-0.0000000000000133
210
0.0
220
1.0
230
-0.0000000000000002
  0
LINE
  5
44F0
  8
0
  6
CONTINUOUS
 62
     3
 10
-48.4999999999998082
 20
52.0000000000000071
 30
-0.0000000000000115
 11
-48.4999999999998082
 21
48.0000000000000071
 31
-0.0000000000000107
210
0.0
220
1.0
230
-0.0000000000000002
  0
LINE
  5
44F1
  8
0
  6
CONTINUOUS
 62
     3
 10
-48.4999999999998082
 20
40.0
 30
-0.0000000000000089
 11
-48.4999999999998082
 21
35.9999999999999787
 31
-0.000000000000008
210
0.0
220
1.0
230
-0.0000000000000002
  0
LINE
  5
44F2
  8
0
  6
CONTINUOUS
 62
     3
 10
-48.4999999999998082
 20
27.9999999999999787
 30
-0.0000000000000062
 11
-48.4999999999998082
 21
23.9999999999999787
 31
-0.0000000000000053
210
0.0
220
1.0
230
-0.0000000000000002
  0
LINE
  5
44F3
  8
0
  6
CONTINUOUS
 62
     3
 10
-48.4999999999998082
 20
15.9999999999999698
 30
-0.0000000000000036
 11
-48.4999999999998082
 21
12.0000000000000302
 31
-0.0000000000000027
210
0.0
220
1.0
230
-0.0000000000000002
  0
LINE
  5
44F4
  8
0
  6
CONTINUOUS
 62
     3
 10
-48.4999999999998082
 20
4.0000000000000293
 30
-0.0000000000000009
 11
-48.4999999999998082
 21
0.0
 31
0.0
210
0.0
220
1.0
230
-0.0000000000000002
  0
LINE
  5
44F5
  8
0
  6
VERDECKT
 62
     1
 10
46.6671798822649322
 20
171.1094003924503966
 30
-0.000000000000038
 11
-46.6671798822647617
 21
171.1094003924503966
 31
-0.000000000000038
210
0.0
220
1.0
230
-0.0000000000000002
  0
LINE
  5
44F6
  8
0
  6
VERDECKT
 62
     1
 10
-19.8495397849898687
 20
112.0
 30
-0.0000000000000249
 11
-19.8495397849898687
 21
120.0
 31
-0.0000000000000266
210
0.0
220
1.0
230
-0.0000000000000002
  0
LINE
  5
44F7
  8
0
  6
VERDECKT
 62
     1
 10
-19.8495397849898687
 20
112.0
 30
-0.0000000000000249
 11
-20.8528165821591891
 21
112.0
 31
-0.0000000000000249
210
0.0
220
1.0
230
-0.0000000000000002
  0
LINE
  5
44F8
  8
0
  6
VERDECKT
 62
     1
 10
-19.8495397849898687
 20
120.0000000000000995
 30
-0.0000000000000266
 11
-20.8528165821591891
 21
120.0000000000000995
 31
-0.0000000000000266
210
0.0
220
1.0
230
-0.0000000000000002
  0
LINE
  5
44F9
  8
0
  6
VERDECKT
 62
     1
 10
43.7699481458553805
 20
120.0
 30
-0.0000000000000266
 11
43.7699481458553805
 21
112.0
 31
-0.0000000000000249
210
0.0
220
1.0
230
-0.0000000000000002
  0
LINE
  5
44FA
  8
0
  6
VERDECKT
 62
     1
 10
43.7882408939981218
 20
120.0
 30
-0.0000000000000266
 11
45.7081300844602225
 21
120.0
 31
-0.0000000000000266
210
0.0
220
1.0
230
-0.0000000000000002
  0
LINE
  5
44FB
  8
0
  6
VERDECKT
 62
     1
 10
43.7882408939981218
 20
112.0
 30
-0.0000000000000249
 11
45.7081300844602225
 21
112.0
 31
-0.0000000000000249
210
0.0
220
1.0
230
-0.0000000000000002
  0
LINE
  5
44FC
  8
0
  6
VERDECKT
 62
     1
 10
38.2154629608540972
 20
120.0
 30
-0.0000000000000266
 11
38.2154629608540972
 21
112.0
 31
-0.0000000000000249
210
0.0
220
1.0
230
-0.0000000000000002
  0
LINE
  5
44FD
  8
0
  6
VERDECKT
 62
     1
 10
38.2154629608540972
 20
120.0
 30
-0.0000000000000266
 11
39.9531893476063189
 21
120.0
 31
-0.0000000000000266
210
0.0
220
1.0
230
-0.0000000000000002
  0
LINE
  5
44FE
  8
0
  6
VERDECKT
 62
     1
 10
38.2154629608540972
 20
112.0
 30
-0.0000000000000249
 11
39.9531893476063189
 21
112.0
 31
-0.0000000000000249
210
0.0
220
1.0
230
-0.0000000000000002
  0
LINE
  5
44FF
  8
0
  6
VERDECKT
 62
     1
 10
30.0566571291092011
 20
120.0
 30
-0.0000000000000266
 11
30.0566571291092011
 21
112.0
 31
-0.0000000000000249
210
0.0
220
1.0
230
-0.0000000000000002
  0
LINE
  5
4500
  8
0
  6
VERDECKT
 62
     1
 10
30.0566571291091904
 20
120.0
 30
-0.0000000000000266
 11
31.4755047824802787
 21
120.0
 31
-0.0000000000000266
210
0.0
220
1.0
230
-0.0000000000000002
  0
LINE
  5
4501
  8
0
  6
VERDECKT
 62
     1
 10
30.0566571291091904
 20
112.0
 30
-0.0000000000000249
 11
31.4755047824802787
 21
112.0
 31
-0.0000000000000249
210
0.0
220
1.0
230
-0.0000000000000002
  0
LINE
  5
4502
  8
0
  6
VERDECKT
 62
     1
 10
19.8495397849899113
 20
120.0
 30
-0.0000000000000266
 11
19.8495397849899113
 21
112.0
 31
-0.0000000000000249
210
0.0
220
1.0
230
-0.0000000000000002
  0
LINE
  5
4503
  8
0
  6
VERDECKT
 62
     1
 10
19.8495397849899113
 20
120.0
 30
-0.0000000000000266
 11
20.8528165821592317
 21
120.0
 31
-0.0000000000000266
210
0.0
220
1.0
230
-0.0000000000000002
  0
LINE
  5
4504
  8
0
  6
VERDECKT
 62
     1
 10
19.8495397849899113
 20
112.0
 30
-0.0000000000000249
 11
20.8528165821592317
 21
112.0
 31
-0.0000000000000249
210
0.0
220
1.0
230
-0.0000000000000002
  0
LINE
  5
4505
  8
0
  6
VERDECKT
 62
     1
 10
8.2897091074390516
 20
120.0
 30
-0.0000000000000266
 11
8.2897091074390516
 21
112.0
 31
-0.0000000000000249
210
0.0
220
1.0
230
-0.0000000000000002
  0
LINE
  5
4506
  8
0
  6
VERDECKT
 62
     1
 10
8.2897091074390552
 20
120.0
 30
-0.0000000000000266
 11
8.8090433926728071
 21
120.0
 31
-0.0000000000000266
210
0.0
220
1.0
230
-0.0000000000000002
  0
LINE
  5
4507
  8
0
  6
VERDECKT
 62
     1
 10
8.2897091074390552
 20
112.0
 30
-0.0000000000000249
 11
8.8090433926728071
 21
112.0
 31
-0.0000000000000249
210
0.0
220
1.0
230
-0.0000000000000002
  0
LINE
  5
4508
  8
0
  6
VERDECKT
 62
     1
 10
47.6932988427723785
 20
120.0
 30
-0.0000000000000266
 11
48.3481372923145898
 21
120.0
 31
-0.0000000000000266
210
0.0
220
1.0
230
-0.0000000000000002
  0
LINE
  5
4509
  8
0
  6
VERDECKT
 62
     1
 10
-30.05665712910913
 20
120.0000000000000995
 30
-0.0000000000000266
 11
-31.4755047824802183
 21
120.0000000000000995
 31
-0.0000000000000266
210
0.0
220
1.0
230
-0.0000000000000002
  0
LINE
  5
450A
  8
0
  6
VERDECKT
 62
     1
 10
-38.2154629608540688
 20
120.0000000000000995
 30
-0.0000000000000266
 11
-39.9531893476062905
 21
120.0000000000000995
 31
-0.0000000000000266
210
0.0
220
1.0
230
-0.0000000000000002
  0
LINE
  5
450B
  8
0
  6
VERDECKT
 62
     1
 10
-43.7882408939981005
 20
120.0000000000000995
 30
-0.0000000000000266
 11
-45.708130084460187
 21
120.0000000000000995
 31
-0.0000000000000266
210
0.0
220
1.0
230
-0.0000000000000002
  0
LINE
  5
450C
  8
0
  6
VERDECKT
 62
     1
 10
-47.6932988427723501
 20
120.0000000000000995
 30
-0.0000000000000266
 11
-48.3481372923145685
 21
120.0000000000000995
 31
-0.0000000000000266
210
0.0
220
1.0
230
-0.0000000000000002
  0
LINE
  5
450D
  8
0
  6
VERDECKT
 62
     1
 10
46.341583697975949
 20
120.0
 30
-0.0000000000000266
 11
46.341583697975949
 21
112.0
 31
-0.0000000000000249
210
0.0
220
1.0
230
-0.0000000000000002
  0
LINE
  5
450E
  8
0
  6
VERDECKT
 62
     1
 10
47.6932988427723785
 20
112.0
 30
-0.0000000000000249
 11
48.3481372923145898
 21
112.0
 31
-0.0000000000000249
210
0.0
220
1.0
230
-0.0000000000000002
  0
LINE
  5
450F
  8
0
  6
VERDECKT
 62
     1
 10
-47.6932988427723501
 20
112.0
 30
-0.0000000000000249
 11
-48.3481372923145685
 21
112.0
 31
-0.0000000000000249
210
0.0
220
1.0
230
-0.0000000000000002
  0
LINE
  5
4510
  8
0
  6
VERDECKT
 62
     1
 10
-43.7882408939981005
 20
112.0
 30
-0.0000000000000249
 11
-45.708130084460187
 21
112.0
 31
-0.0000000000000249
210
0.0
220
1.0
230
-0.0000000000000002
  0
LINE
  5
4511
  8
0
  6
VERDECKT
 62
     1
 10
-38.2154629608540688
 20
112.0
 30
-0.0000000000000249
 11
-39.9531893476062905
 21
112.0
 31
-0.0000000000000249
210
0.0
220
1.0
230
-0.0000000000000002
  0
LINE
  5
4512
  8
0
  6
VERDECKT
 62
     1
 10
-30.05665712910913
 20
112.0
 30
-0.0000000000000249
 11
-31.4755047824802183
 21
112.0
 31
-0.0000000000000249
210
0.0
220
1.0
230
-0.0000000000000002
  0
LINE
  5
4513
  8
0
  6
VERDECKT
 62
     1
 10
-8.2897091074390001
 20
112.0
 30
-0.0000000000000249
 11
-8.8090433926727592
 21
112.0
 31
-0.0000000000000249
210
0.0
220
1.0
230
-0.0000000000000002
  0
LINE
  5
4514
  8
0
  6
VERDECKT
 62
     1
 10
-8.2897091074389948
 20
112.0
 30
-0.0000000000000249
 11
-8.2897091074389948
 21
120.0
 31
-0.0000000000000266
210
0.0
220
1.0
230
-0.0000000000000002
  0
LINE
  5
4515
  8
0
  6
VERDECKT
 62
     1
 10
-8.2897091074390001
 20
120.0
 30
-0.0000000000000266
 11
-8.8090433926727592
 21
120.0
 31
-0.0000000000000266
210
0.0
220
1.0
230
-0.0000000000000002
  0
LINE
  5
4516
  8
0
  6
VERDECKT
 62
     1
 10
-30.0566571291091407
 20
112.0
 30
-0.0000000000000249
 11
-30.0566571291091407
 21
120.0000000000000995
 31
-0.0000000000000266
210
0.0
220
1.0
230
-0.0000000000000002
  0
LINE
  5
4517
  8
0
  6
VERDECKT
 62
     1
 10
-38.2154629608540688
 20
112.0
 30
-0.0000000000000249
 11
-38.2154629608540688
 21
120.0000000000000995
 31
-0.0000000000000266
210
0.0
220
1.0
230
-0.0000000000000002
  0
LINE
  5
4518
  8
0
  6
VERDECKT
 62
     1
 10
-43.7699481458553521
 20
112.0
 30
-0.0000000000000249
 11
-43.7699481458553521
 21
120.0000000000000995
 31
-0.0000000000000266
210
0.0
220
1.0
230
-0.0000000000000002
  0
LINE
  5
4519
  8
0
  6
VERDECKT
 62
     1
 10
-46.341583697975949
 20
112.0
 30
-0.0000000000000249
 11
-46.341583697975949
 21
120.0000000000000995
 31
-0.0000000000000266
210
0.0
220
1.0
230
-0.0000000000000002
  0
LINE
  5
451A
  8
0
  6
VERDECKT
 62
     1
 10
43.7699481458553805
 20
108.0
 30
-0.000000000000024
 11
43.7699481458553805
 21
100.0
 31
-0.0000000000000222
210
0.0
220
1.0
230
-0.0000000000000002
  0
LINE
  5
451B
  8
0
  6
VERDECKT
 62
     1
 10
43.7882408939981218
 20
108.0
 30
-0.000000000000024
 11
45.7081300844602225
 21
108.0
 31
-0.000000000000024
210
0.0
220
1.0
230
-0.0000000000000002
  0
LINE
  5
451C
  8
0
  6
VERDECKT
 62
     1
 10
43.7882408939981218
 20
100.0
 30
-0.0000000000000222
 11
45.7081300844602225
 21
100.0
 31
-0.0000000000000222
210
0.0
220
1.0
230
-0.0000000000000002
  0
LINE
  5
451D
  8
0
  6
VERDECKT
 62
     1
 10
38.2154629608540972
 20
108.0
 30
-0.000000000000024
 11
38.2154629608540972
 21
100.0
 31
-0.0000000000000222
210
0.0
220
1.0
230
-0.0000000000000002
  0
LINE
  5
451E
  8
0
  6
VERDECKT
 62
     1
 10
38.2154629608540972
 20
108.0
 30
-0.000000000000024
 11
39.9531893476063189
 21
108.0
 31
-0.000000000000024
210
0.0
220
1.0
230
-0.0000000000000002
  0
LINE
  5
451F
  8
0
  6
VERDECKT
 62
     1
 10
38.2154629608540972
 20
100.0
 30
-0.0000000000000222
 11
39.9531893476063189
 21
100.0
 31
-0.0000000000000222
210
0.0
220
1.0
230
-0.0000000000000002
  0
LINE
  5
4520
  8
0
  6
VERDECKT
 62
     1
 10
30.0566571291092011
 20
108.0
 30
-0.000000000000024
 11
30.0566571291092011
 21
100.0
 31
-0.0000000000000222
210
0.0
220
1.0
230
-0.0000000000000002
  0
LINE
  5
4521
  8
0
  6
VERDECKT
 62
     1
 10
30.0566571291091904
 20
108.0
 30
-0.000000000000024
 11
31.4755047824802787
 21
108.0
 31
-0.000000000000024
210
0.0
220
1.0
230
-0.0000000000000002
  0
LINE
  5
4522
  8
0
  6
VERDECKT
 62
     1
 10
30.0566571291091904
 20
100.0
 30
-0.0000000000000222
 11
31.4755047824802787
 21
100.0
 31
-0.0000000000000222
210
0.0
220
1.0
230
-0.0000000000000002
  0
LINE
  5
4523
  8
0
  6
VERDECKT
 62
     1
 10
19.8495397849899113
 20
108.0
 30
-0.000000000000024
 11
19.8495397849899113
 21
100.0
 31
-0.0000000000000222
210
0.0
220
1.0
230
-0.0000000000000002
  0
LINE
  5
4524
  8
0
  6
VERDECKT
 62
     1
 10
19.8495397849899113
 20
108.0
 30
-0.000000000000024
 11
20.8528165821592317
 21
108.0
 31
-0.000000000000024
210
0.0
220
1.0
230
-0.0000000000000002
  0
LINE
  5
4525
  8
0
  6
VERDECKT
 62
     1
 10
19.8495397849899113
 20
100.0
 30
-0.0000000000000222
 11
20.8528165821592317
 21
100.0
 31
-0.0000000000000222
210
0.0
220
1.0
230
-0.0000000000000002
  0
LINE
  5
4526
  8
0
  6
VERDECKT
 62
     1
 10
8.2897091074390516
 20
108.0
 30
-0.000000000000024
 11
8.2897091074390516
 21
100.0
 31
-0.0000000000000222
210
0.0
220
1.0
230
-0.0000000000000002
  0
LINE
  5
4527
  8
0
  6
VERDECKT
 62
     1
 10
8.2897091074390552
 20
108.0
 30
-0.000000000000024
 11
8.8090433926728071
 21
108.0
 31
-0.000000000000024
210
0.0
220
1.0
230
-0.0000000000000002
  0
LINE
  5
4528
  8
0
  6
VERDECKT
 62
     1
 10
8.2897091074390552
 20
100.0
 30
-0.0000000000000222
 11
8.8090433926728071
 21
100.0
 31
-0.0000000000000222
210
0.0
220
1.0
230
-0.0000000000000002
  0
LINE
  5
4529
  8
0
  6
VERDECKT
 62
     1
 10
47.6932988427723785
 20
108.0
 30
-0.000000000000024
 11
48.3481372923145898
 21
108.0
 31
-0.000000000000024
210
0.0
220
1.0
230
-0.0000000000000002
  0
LINE
  5
452A
  8
0
  6
VERDECKT
 62
     1
 10
-8.2897091074390001
 20
108.0
 30
-0.000000000000024
 11
-8.8090433926727592
 21
108.0
 31
-0.000000000000024
210
0.0
220
1.0
230
-0.0000000000000002
  0
LINE
  5
452B
  8
0
  6
VERDECKT
 62
     1
 10
-20.8528165821592211
 20
108.0
 30
-0.000000000000024
 11
-19.8495397849899007
 21
108.0
 31
-0.000000000000024
210
0.0
220
1.0
230
-0.0000000000000002
  0
LINE
  5
452C
  8
0
  6
VERDECKT
 62
     1
 10
-30.05665712910913
 20
108.0
 30
-0.000000000000024
 11
-31.4755047824802183
 21
108.0
 31
-0.000000000000024
210
0.0
220
1.0
230
-0.0000000000000002
  0
LINE
  5
452D
  8
0
  6
VERDECKT
 62
     1
 10
-38.2154629608540688
 20
108.0
 30
-0.000000000000024
 11
-39.9531893476062905
 21
108.0
 31
-0.000000000000024
210
0.0
220
1.0
230
-0.0000000000000002
  0
LINE
  5
452E
  8
0
  6
VERDECKT
 62
     1
 10
-43.7882408939981005
 20
108.0
 30
-0.000000000000024
 11
-45.708130084460187
 21
108.0
 31
-0.000000000000024
210
0.0
220
1.0
230
-0.0000000000000002
  0
LINE
  5
452F
  8
0
  6
VERDECKT
 62
     1
 10
-47.6932988427723501
 20
108.0
 30
-0.000000000000024
 11
-48.3481372923145685
 21
108.0
 31
-0.000000000000024
210
0.0
220
1.0
230
-0.0000000000000002
  0
LINE
  5
4530
  8
0
  6
VERDECKT
 62
     1
 10
46.341583697975949
 20
108.0
 30
-0.000000000000024
 11
46.341583697975949
 21
100.0
 31
-0.0000000000000222
210
0.0
220
1.0
230
-0.0000000000000002
  0
LINE
  5
4531
  8
0
  6
VERDECKT
 62
     1
 10
47.6932988427723785
 20
100.0
 30
-0.0000000000000222
 11
48.3481372923145898
 21
100.0
 31
-0.0000000000000222
210
0.0
220
1.0
230
-0.0000000000000002
  0
LINE
  5
4532
  8
0
  6
VERDECKT
 62
     1
 10
-47.6932988427723501
 20
100.0
 30
-0.0000000000000222
 11
-48.3481372923145685
 21
100.0
 31
-0.0000000000000222
210
0.0
220
1.0
230
-0.0000000000000002
  0
LINE
  5
4533
  8
0
  6
VERDECKT
 62
     1
 10
-43.7882408939981005
 20
100.0
 30
-0.0000000000000222
 11
-45.708130084460187
 21
100.0
 31
-0.0000000000000222
210
0.0
220
1.0
230
-0.0000000000000002
  0
LINE
  5
4534
  8
0
  6
VERDECKT
 62
     1
 10
-38.2154629608540688
 20
100.0
 30
-0.0000000000000222
 11
-39.9531893476062905
 21
100.0
 31
-0.0000000000000222
210
0.0
220
1.0
230
-0.0000000000000002
  0
LINE
  5
4535
  8
0
  6
VERDECKT
 62
     1
 10
-30.05665712910913
 20
100.0
 30
-0.0000000000000222
 11
-31.4755047824802183
 21
100.0
 31
-0.0000000000000222
210
0.0
220
1.0
230
-0.0000000000000002
  0
LINE
  5
4536
  8
0
  6
VERDECKT
 62
     1
 10
-19.8495397849898687
 20
100.0
 30
-0.0000000000000222
 11
-20.8528165821591891
 21
100.0
 31
-0.0000000000000222
210
0.0
220
1.0
230
-0.0000000000000002
  0
LINE
  5
4537
  8
0
  6
VERDECKT
 62
     1
 10
-8.2897091074390001
 20
100.0
 30
-0.0000000000000222
 11
-8.8090433926727592
 21
100.0
 31
-0.0000000000000222
210
0.0
220
1.0
230
-0.0000000000000002
  0
LINE
  5
4538
  8
0
  6
VERDECKT
 62
     1
 10
-8.2897091074389948
 20
100.0
 30
-0.0000000000000222
 11
-8.2897091074389948
 21
108.0
 31
-0.000000000000024
210
0.0
220
1.0
230
-0.0000000000000002
  0
LINE
  5
4539
  8
0
  6
VERDECKT
 62
     1
 10
-30.0566571291091407
 20
100.0000000000000995
 30
-0.0000000000000222
 11
-30.0566571291091407
 21
108.0000000000000995
 31
-0.000000000000024
210
0.0
220
1.0
230
-0.0000000000000002
  0
LINE
  5
453A
  8
0
  6
VERDECKT
 62
     1
 10
-38.2154629608540688
 20
100.0000000000000995
 30
-0.0000000000000222
 11
-38.2154629608540688
 21
108.0000000000000995
 31
-0.000000000000024
210
0.0
220
1.0
230
-0.0000000000000002
  0
LINE
  5
453B
  8
0
  6
VERDECKT
 62
     1
 10
-43.7699481458553521
 20
100.0000000000000995
 30
-0.0000000000000222
 11
-43.7699481458553521
 21
108.0000000000000995
 31
-0.000000000000024
210
0.0
220
1.0
230
-0.0000000000000002
  0
LINE
  5
453C
  8
0
  6
VERDECKT
 62
     1
 10
-46.341583697975949
 20
100.0000000000000995
 30
-0.0000000000000222
 11
-46.341583697975949
 21
108.0000000000000995
 31
-0.000000000000024
210
0.0
220
1.0
230
-0.0000000000000002
  0
LINE
  5
453D
  8
0
  6
VERDECKT
 62
     1
 10
-19.8495397849899291
 20
100.0
 30
-0.0000000000000222
 11
-19.8495397849899291
 21
108.0
 31
-0.000000000000024
210
0.0
220
1.0
230
-0.0000000000000002
  0
LINE
  5
453E
  8
0
  6
VERDECKT
 62
     1
 10
-19.8495397849898687
 20
88.0000000000000426
 30
-0.0000000000000195
 11
-19.8495397849898687
 21
96.0000000000000568
 31
-0.0000000000000213
210
0.0
220
1.0
230
-0.0000000000000002
  0
LINE
  5
453F
  8
0
  6
VERDECKT
 62
     1
 10
-19.8495397849898687
 20
88.0000000000000568
 30
-0.0000000000000195
 11
-20.8528165821591891
 21
88.0000000000000568
 31
-0.0000000000000195
210
0.0
220
1.0
230
-0.0000000000000002
  0
LINE
  5
4540
  8
0
  6
VERDECKT
 62
     1
 10
-19.8495397849898687
 20
96.0000000000000853
 30
-0.0000000000000213
 11
-20.8528165821591891
 21
96.0000000000000853
 31
-0.0000000000000213
210
0.0
220
1.0
230
-0.0000000000000002
  0
LINE
  5
4541
  8
0
  6
VERDECKT
 62
     1
 10
43.7699481458553805
 20
96.0000000000000284
 30
-0.0000000000000213
 11
43.7699481458553805
 21
88.0000000000000142
 31
-0.0000000000000195
210
0.0
220
1.0
230
-0.0000000000000002
  0
LINE
  5
4542
  8
0
  6
VERDECKT
 62
     1
 10
43.7882408939981218
 20
96.0000000000000426
 30
-0.0000000000000213
 11
45.7081300844602225
 21
96.0000000000000426
 31
-0.0000000000000213
210
0.0
220
1.0
230
-0.0000000000000002
  0
LINE
  5
4543
  8
0
  6
VERDECKT
 62
     1
 10
43.7882408939981218
 20
88.0000000000000142
 30
-0.0000000000000195
 11
45.7081300844602225
 21
88.0000000000000142
 31
-0.0000000000000195
210
0.0
220
1.0
230
-0.0000000000000002
  0
LINE
  5
4544
  8
0
  6
VERDECKT
 62
     1
 10
38.2154629608540972
 20
95.9999999999999858
 30
-0.0000000000000213
 11
38.2154629608540972
 21
88.0000000000000142
 31
-0.0000000000000195
210
0.0
220
1.0
230
-0.0000000000000002
  0
LINE
  5
4545
  8
0
  6
VERDECKT
 62
     1
 10
38.2154629608540972
 20
96.0
 30
-0.0000000000000213
 11
39.9531893476063189
 21
96.0
 31
-0.0000000000000213
210
0.0
220
1.0
230
-0.0000000000000002
  0
LINE
  5
4546
  8
0
  6
VERDECKT
 62
     1
 10
38.2154629608540972
 20
88.0000000000000142
 30
-0.0000000000000195
 11
39.9531893476063189
 21
88.0000000000000142
 31
-0.0000000000000195
210
0.0
220
1.0
230
-0.0000000000000002
  0
LINE
  5
4547
  8
0
  6
VERDECKT
 62
     1
 10
30.0566571291092011
 20
96.0000000000000284
 30
-0.0000000000000213
 11
30.0566571291092011
 21
88.0000000000000426
 31
-0.0000000000000195
210
0.0
220
1.0
230
-0.0000000000000002
  0
LINE
  5
4548
  8
0
  6
VERDECKT
 62
     1
 10
30.0566571291091904
 20
96.0000000000000426
 30
-0.0000000000000213
 11
31.4755047824802787
 21
96.0000000000000426
 31
-0.0000000000000213
210
0.0
220
1.0
230
-0.0000000000000002
  0
LINE
  5
4549
  8
0
  6
VERDECKT
 62
     1
 10
30.0566571291091904
 20
88.0000000000000142
 30
-0.0000000000000195
 11
31.4755047824802787
 21
88.0000000000000142
 31
-0.0000000000000195
210
0.0
220
1.0
230
-0.0000000000000002
  0
LINE
  5
454A
  8
0
  6
VERDECKT
 62
     1
 10
19.8495397849899113
 20
96.0000000000000568
 30
-0.0000000000000213
 11
19.8495397849899113
 21
88.0000000000000426
 31
-0.0000000000000195
210
0.0
220
1.0
230
-0.0000000000000002
  0
LINE
  5
454B
  8
0
  6
VERDECKT
 62
     1
 10
19.8495397849899113
 20
96.0000000000000426
 30
-0.0000000000000213
 11
20.8528165821592317
 21
96.0000000000000426
 31
-0.0000000000000213
210
0.0
220
1.0
230
-0.0000000000000002
  0
LINE
  5
454C
  8
0
  6
VERDECKT
 62
     1
 10
19.8495397849899113
 20
88.0000000000000142
 30
-0.0000000000000195
 11
20.8528165821592317
 21
88.0000000000000142
 31
-0.0000000000000195
210
0.0
220
1.0
230
-0.0000000000000002
  0
LINE
  5
454D
  8
0
  6
VERDECKT
 62
     1
 10
8.2897091074390516
 20
96.0000000000000568
 30
-0.0000000000000213
 11
8.2897091074390516
 21
88.0000000000000426
 31
-0.0000000000000195
210
0.0
220
1.0
230
-0.0000000000000002
  0
LINE
  5
454E
  8
0
  6
VERDECKT
 62
     1
 10
8.2897091074390552
 20
96.0000000000000568
 30
-0.0000000000000213
 11
8.8090433926728071
 21
96.0000000000000568
 31
-0.0000000000000213
210
0.0
220
1.0
230
-0.0000000000000002
  0
LINE
  5
454F
  8
0
  6
VERDECKT
 62
     1
 10
8.2897091074390552
 20
88.0000000000000426
 30
-0.0000000000000195
 11
8.8090433926728071
 21
88.0000000000000426
 31
-0.0000000000000195
210
0.0
220
1.0
230
-0.0000000000000002
  0
LINE
  5
4550
  8
0
  6
VERDECKT
 62
     1
 10
47.6932988427723785
 20
96.0000000000000426
 30
-0.0000000000000213
 11
48.3481372923145898
 21
96.0000000000000426
 31
-0.0000000000000213
210
0.0
220
1.0
230
-0.0000000000000002
  0
LINE
  5
4551
  8
0
  6
VERDECKT
 62
     1
 10
-30.05665712910913
 20
96.0000000000000853
 30
-0.0000000000000213
 11
-31.4755047824802183
 21
96.0000000000000853
 31
-0.0000000000000213
210
0.0
220
1.0
230
-0.0000000000000002
  0
LINE
  5
4552
  8
0
  6
VERDECKT
 62
     1
 10
-38.2154629608540688
 20
96.0000000000000853
 30
-0.0000000000000213
 11
-39.9531893476062905
 21
96.0000000000000853
 31
-0.0000000000000213
210
0.0
220
1.0
230
-0.0000000000000002
  0
LINE
  5
4553
  8
0
  6
VERDECKT
 62
     1
 10
-43.7882408939981005
 20
96.0000000000000853
 30
-0.0000000000000213
 11
-45.708130084460187
 21
96.0000000000000853
 31
-0.0000000000000213
210
0.0
220
1.0
230
-0.0000000000000002
  0
LINE
  5
4554
  8
0
  6
VERDECKT
 62
     1
 10
-47.6932988427723501
 20
96.0000000000000853
 30
-0.0000000000000213
 11
-48.3481372923145685
 21
96.0000000000000853
 31
-0.0000000000000213
210
0.0
220
1.0
230
-0.0000000000000002
  0
LINE
  5
4555
  8
0
  6
VERDECKT
 62
     1
 10
46.341583697975949
 20
96.0000000000000284
 30
-0.0000000000000213
 11
46.341583697975949
 21
88.0000000000000142
 31
-0.0000000000000195
210
0.0
220
1.0
230
-0.0000000000000002
  0
LINE
  5
4556
  8
0
  6
VERDECKT
 62
     1
 10
47.6932988427723785
 20
88.0000000000000142
 30
-0.0000000000000195
 11
48.3481372923145898
 21
88.0000000000000142
 31
-0.0000000000000195
210
0.0
220
1.0
230
-0.0000000000000002
  0
LINE
  5
4557
  8
0
  6
VERDECKT
 62
     1
 10
-47.6932988427723501
 20
88.0000000000000568
 30
-0.0000000000000195
 11
-48.3481372923145685
 21
88.0000000000000568
 31
-0.0000000000000195
210
0.0
220
1.0
230
-0.0000000000000002
  0
LINE
  5
4558
  8
0
  6
VERDECKT
 62
     1
 10
-43.7882408939981005
 20
88.0000000000000568
 30
-0.0000000000000195
 11
-45.708130084460187
 21
88.0000000000000568
 31
-0.0000000000000195
210
0.0
220
1.0
230
-0.0000000000000002
  0
LINE
  5
4559
  8
0
  6
VERDECKT
 62
     1
 10
-38.2154629608540688
 20
88.0000000000000568
 30
-0.0000000000000195
 11
-39.9531893476062905
 21
88.0000000000000568
 31
-0.0000000000000195
210
0.0
220
1.0
230
-0.0000000000000002
  0
LINE
  5
455A
  8
0
  6
VERDECKT
 62
     1
 10
-30.05665712910913
 20
88.0000000000000568
 30
-0.0000000000000195
 11
-31.4755047824802183
 21
88.0000000000000568
 31
-0.0000000000000195
210
0.0
220
1.0
230
-0.0000000000000002
  0
LINE
  5
455B
  8
0
  6
VERDECKT
 62
     1
 10
-8.2897091074390001
 20
88.0000000000000426
 30
-0.0000000000000195
 11
-8.8090433926727592
 21
88.0000000000000426
 31
-0.0000000000000195
210
0.0
220
1.0
230
-0.0000000000000002
  0
LINE
  5
455C
  8
0
  6
VERDECKT
 62
     1
 10
-8.2897091074389948
 20
88.0000000000000426
 30
-0.0000000000000195
 11
-8.2897091074389948
 21
96.0000000000000568
 31
-0.0000000000000213
210
0.0
220
1.0
230
-0.0000000000000002
  0
LINE
  5
455D
  8
0
  6
VERDECKT
 62
     1
 10
-8.2897091074390001
 20
96.0000000000000568
 30
-0.0000000000000213
 11
-8.8090433926727592
 21
96.0000000000000568
 31
-0.0000000000000213
210
0.0
220
1.0
230
-0.0000000000000002
  0
LINE
  5
455E
  8
0
  6
VERDECKT
 62
     1
 10
-30.0566571291091407
 20
88.0000000000000426
 30
-0.0000000000000195
 11
-30.0566571291091407
 21
96.0000000000000853
 31
-0.0000000000000213
210
0.0
220
1.0
230
-0.0000000000000002
  0
LINE
  5
455F
  8
0
  6
VERDECKT
 62
     1
 10
-38.2154629608540688
 20
88.0000000000000711
 30
-0.0000000000000195
 11
-38.2154629608540688
 21
96.0000000000000853
 31
-0.0000000000000213
210
0.0
220
1.0
230
-0.0000000000000002
  0
LINE
  5
4560
  8
0
  6
VERDECKT
 62
     1
 10
-43.7699481458553521
 20
88.0000000000000711
 30
-0.0000000000000195
 11
-43.7699481458553521
 21
96.0000000000000853
 31
-0.0000000000000213
210
0.0
220
1.0
230
-0.0000000000000002
  0
LINE
  5
4561
  8
0
  6
VERDECKT
 62
     1
 10
-46.341583697975949
 20
88.0000000000000711
 30
-0.0000000000000195
 11
-46.341583697975949
 21
96.0000000000000853
 31
-0.0000000000000213
210
0.0
220
1.0
230
-0.0000000000000002
  0
LINE
  5
4562
  8
0
  6
VERDECKT
 62
     1
 10
-19.8495397849898687
 20
76.0000000000000142
 30
-0.0000000000000169
 11
-19.8495397849898687
 21
84.0000000000000142
 31
-0.0000000000000187
210
0.0
220
1.0
230
-0.0000000000000002
  0
LINE
  5
4563
  8
0
  6
VERDECKT
 62
     1
 10
-19.8495397849898687
 20
76.0000000000000284
 30
-0.0000000000000169
 11
-20.8528165821591891
 21
76.0000000000000284
 31
-0.0000000000000169
210
0.0
220
1.0
230
-0.0000000000000002
  0
LINE
  5
4564
  8
0
  6
VERDECKT
 62
     1
 10
-19.8495397849898687
 20
84.0000000000000284
 30
-0.0000000000000187
 11
-20.8528165821591891
 21
84.0000000000000284
 31
-0.0000000000000187
210
0.0
220
1.0
230
-0.0000000000000002
  0
LINE
  5
4565
  8
0
  6
VERDECKT
 62
     1
 10
43.7699481458553805
 20
83.9999999999999858
 30
-0.0000000000000187
 11
43.7699481458553805
 21
75.9999999999999858
 31
-0.0000000000000169
210
0.0
220
1.0
230
-0.0000000000000002
  0
LINE
  5
4566
  8
0
  6
VERDECKT
 62
     1
 10
43.7882408939981218
 20
84.0
 30
-0.0000000000000187
 11
45.7081300844602225
 21
84.0
 31
-0.0000000000000187
210
0.0
220
1.0
230
-0.0000000000000002
  0
LINE
  5
4567
  8
0
  6
VERDECKT
 62
     1
 10
43.7882408939981218
 20
76.0
 30
-0.0000000000000169
 11
45.7081300844602225
 21
76.0
 31
-0.0000000000000169
210
0.0
220
1.0
230
-0.0000000000000002
  0
LINE
  5
4568
  8
0
  6
VERDECKT
 62
     1
 10
38.2154629608540972
 20
83.9999999999999858
 30
-0.0000000000000187
 11
38.2154629608540972
 21
75.9999999999999858
 31
-0.0000000000000169
210
0.0
220
1.0
230
-0.0000000000000002
  0
LINE
  5
4569
  8
0
  6
VERDECKT
 62
     1
 10
38.2154629608540972
 20
84.0
 30
-0.0000000000000187
 11
39.9531893476063189
 21
84.0
 31
-0.0000000000000187
210
0.0
220
1.0
230
-0.0000000000000002
  0
LINE
  5
456A
  8
0
  6
VERDECKT
 62
     1
 10
38.2154629608540972
 20
76.0
 30
-0.0000000000000169
 11
39.9531893476063189
 21
76.0
 31
-0.0000000000000169
210
0.0
220
1.0
230
-0.0000000000000002
  0
LINE
  5
456B
  8
0
  6
VERDECKT
 62
     1
 10
30.0566571291092011
 20
84.0000000000000142
 30
-0.0000000000000187
 11
30.0566571291092011
 21
76.0000000000000142
 31
-0.0000000000000169
210
0.0
220
1.0
230
-0.0000000000000002
  0
LINE
  5
456C
  8
0
  6
VERDECKT
 62
     1
 10
30.0566571291091904
 20
84.0
 30
-0.0000000000000187
 11
31.4755047824802787
 21
84.0
 31
-0.0000000000000187
210
0.0
220
1.0
230
-0.0000000000000002
  0
LINE
  5
456D
  8
0
  6
VERDECKT
 62
     1
 10
30.0566571291091904
 20
76.0
 30
-0.0000000000000169
 11
31.4755047824802787
 21
76.0
 31
-0.0000000000000169
210
0.0
220
1.0
230
-0.0000000000000002
  0
LINE
  5
456E
  8
0
  6
VERDECKT
 62
     1
 10
19.8495397849899113
 20
84.0000000000000142
 30
-0.0000000000000187
 11
19.8495397849899113
 21
76.0000000000000142
 31
-0.0000000000000169
210
0.0
220
1.0
230
-0.0000000000000002
  0
LINE
  5
456F
  8
0
  6
VERDECKT
 62
     1
 10
19.8495397849899113
 20
84.0
 30
-0.0000000000000187
 11
20.8528165821592317
 21
84.0
 31
-0.0000000000000187
210
0.0
220
1.0
230
-0.0000000000000002
  0
LINE
  5
4570
  8
0
  6
VERDECKT
 62
     1
 10
19.8495397849899113
 20
76.0
 30
-0.0000000000000169
 11
20.8528165821592317
 21
76.0
 31
-0.0000000000000169
210
0.0
220
1.0
230
-0.0000000000000002
  0
LINE
  5
4571
  8
0
  6
VERDECKT
 62
     1
 10
8.2897091074390516
 20
84.0000000000000142
 30
-0.0000000000000187
 11
8.2897091074390516
 21
76.0000000000000142
 31
-0.0000000000000169
210
0.0
220
1.0
230
-0.0000000000000002
  0
LINE
  5
4572
  8
0
  6
VERDECKT
 62
     1
 10
8.2897091074390552
 20
84.0000000000000142
 30
-0.0000000000000187
 11
8.8090433926728071
 21
84.0000000000000142
 31
-0.0000000000000187
210
0.0
220
1.0
230
-0.0000000000000002
  0
LINE
  5
4573
  8
0
  6
VERDECKT
 62
     1
 10
8.2897091074390552
 20
76.0000000000000142
 30
-0.0000000000000169
 11
8.8090433926728071
 21
76.0000000000000142
 31
-0.0000000000000169
210
0.0
220
1.0
230
-0.0000000000000002
  0
LINE
  5
4574
  8
0
  6
VERDECKT
 62
     1
 10
47.6932988427723785
 20
84.0
 30
-0.0000000000000187
 11
48.3481372923145898
 21
84.0
 31
-0.0000000000000187
210
0.0
220
1.0
230
-0.0000000000000002
  0
LINE
  5
4575
  8
0
  6
VERDECKT
 62
     1
 10
-30.05665712910913
 20
84.0000000000000284
 30
-0.0000000000000187
 11
-31.4755047824802183
 21
84.0000000000000284
 31
-0.0000000000000187
210
0.0
220
1.0
230
-0.0000000000000002
  0
LINE
  5
4576
  8
0
  6
VERDECKT
 62
     1
 10
-38.2154629608540688
 20
84.0000000000000284
 30
-0.0000000000000187
 11
-39.9531893476062905
 21
84.0000000000000284
 31
-0.0000000000000187
210
0.0
220
1.0
230
-0.0000000000000002
  0
LINE
  5
4577
  8
0
  6
VERDECKT
 62
     1
 10
-43.7882408939981005
 20
84.0000000000000284
 30
-0.0000000000000187
 11
-45.708130084460187
 21
84.0000000000000284
 31
-0.0000000000000187
210
0.0
220
1.0
230
-0.0000000000000002
  0
LINE
  5
4578
  8
0
  6
VERDECKT
 62
     1
 10
-47.6932988427723501
 20
84.0000000000000284
 30
-0.0000000000000187
 11
-48.3481372923145685
 21
84.0000000000000284
 31
-0.0000000000000187
210
0.0
220
1.0
230
-0.0000000000000002
  0
LINE
  5
4579
  8
0
  6
VERDECKT
 62
     1
 10
46.341583697975949
 20
83.9999999999999858
 30
-0.0000000000000187
 11
46.341583697975949
 21
75.9999999999999858
 31
-0.0000000000000169
210
0.0
220
1.0
230
-0.0000000000000002
  0
LINE
  5
457A
  8
0
  6
VERDECKT
 62
     1
 10
47.6932988427723785
 20
76.0
 30
-0.0000000000000169
 11
48.3481372923145898
 21
76.0
 31
-0.0000000000000169
210
0.0
220
1.0
230
-0.0000000000000002
  0
LINE
  5
457B
  8
0
  6
VERDECKT
 62
     1
 10
-47.6932988427723501
 20
76.0000000000000284
 30
-0.0000000000000169
 11
-48.3481372923145685
 21
76.0000000000000284
 31
-0.0000000000000169
210
0.0
220
1.0
230
-0.0000000000000002
  0
LINE
  5
457C
  8
0
  6
VERDECKT
 62
     1
 10
-43.7882408939981005
 20
76.0000000000000284
 30
-0.0000000000000169
 11
-45.708130084460187
 21
76.0000000000000284
 31
-0.0000000000000169
210
0.0
220
1.0
230
-0.0000000000000002
  0
LINE
  5
457D
  8
0
  6
VERDECKT
 62
     1
 10
-38.2154629608540688
 20
76.0000000000000284
 30
-0.0000000000000169
 11
-39.9531893476062905
 21
76.0000000000000284
 31
-0.0000000000000169
210
0.0
220
1.0
230
-0.0000000000000002
  0
LINE
  5
457E
  8
0
  6
VERDECKT
 62
     1
 10
-30.05665712910913
 20
76.0000000000000284
 30
-0.0000000000000169
 11
-31.4755047824802183
 21
76.0000000000000284
 31
-0.0000000000000169
210
0.0
220
1.0
230
-0.0000000000000002
  0
LINE
  5
457F
  8
0
  6
VERDECKT
 62
     1
 10
-8.2897091074390001
 20
76.0000000000000142
 30
-0.0000000000000169
 11
-8.8090433926727592
 21
76.0000000000000142
 31
-0.0000000000000169
210
0.0
220
1.0
230
-0.0000000000000002
  0
LINE
  5
4580
  8
0
  6
VERDECKT
 62
     1
 10
-8.2897091074389948
 20
76.0000000000000142
 30
-0.0000000000000169
 11
-8.2897091074389948
 21
84.0000000000000142
 31
-0.0000000000000187
210
0.0
220
1.0
230
-0.0000000000000002
  0
LINE
  5
4581
  8
0
  6
VERDECKT
 62
     1
 10
-8.2897091074390001
 20
84.0000000000000142
 30
-0.0000000000000187
 11
-8.8090433926727592
 21
84.0000000000000142
 31
-0.0000000000000187
210
0.0
220
1.0
230
-0.0000000000000002
  0
LINE
  5
4582
  8
0
  6
VERDECKT
 62
     1
 10
-30.0566571291091407
 20
76.0000000000000142
 30
-0.0000000000000169
 11
-30.0566571291091407
 21
84.0000000000000142
 31
-0.0000000000000187
210
0.0
220
1.0
230
-0.0000000000000002
  0
LINE
  5
4583
  8
0
  6
VERDECKT
 62
     1
 10
-38.2154629608540688
 20
76.0000000000000426
 30
-0.0000000000000169
 11
-38.2154629608540688
 21
84.0000000000000284
 31
-0.0000000000000187
210
0.0
220
1.0
230
-0.0000000000000002
  0
LINE
  5
4584
  8
0
  6
VERDECKT
 62
     1
 10
-43.7699481458553521
 20
76.0000000000000426
 30
-0.0000000000000169
 11
-43.7699481458553521
 21
84.0000000000000284
 31
-0.0000000000000187
210
0.0
220
1.0
230
-0.0000000000000002
  0
LINE
  5
4585
  8
0
  6
VERDECKT
 62
     1
 10
-46.341583697975949
 20
76.0000000000000426
 30
-0.0000000000000169
 11
-46.341583697975949
 21
84.0000000000000284
 31
-0.0000000000000187
210
0.0
220
1.0
230
-0.0000000000000002
  0
LINE
  5
4586
  8
0
  6
VERDECKT
 62
     1
 10
-19.8495397849898687
 20
64.0000000000000426
 30
-0.0000000000000142
 11
-19.8495397849898687
 21
72.0000000000000142
 31
-0.000000000000016
210
0.0
220
1.0
230
-0.0000000000000002
  0
LINE
  5
4587
  8
0
  6
VERDECKT
 62
     1
 10
-19.8495397849898687
 20
64.0000000000000426
 30
-0.0000000000000142
 11
-20.8528165821591891
 21
64.0000000000000426
 31
-0.0000000000000142
210
0.0
220
1.0
230
-0.0000000000000002
  0
LINE
  5
4588
  8
0
  6
VERDECKT
 62
     1
 10
-19.8495397849898687
 20
72.0000000000000142
 30
-0.000000000000016
 11
-20.8528165821591891
 21
72.0000000000000142
 31
-0.000000000000016
210
0.0
220
1.0
230
-0.0000000000000002
  0
LINE
  5
4589
  8
0
  6
VERDECKT
 62
     1
 10
43.7699481458553805
 20
71.9999999999999858
 30
-0.000000000000016
 11
43.7699481458553805
 21
64.0000000000000142
 31
-0.0000000000000142
210
0.0
220
1.0
230
-0.0000000000000002
  0
LINE
  5
458A
  8
0
  6
VERDECKT
 62
     1
 10
43.7882408939981218
 20
72.0
 30
-0.000000000000016
 11
45.7081300844602225
 21
72.0
 31
-0.000000000000016
210
0.0
220
1.0
230
-0.0000000000000002
  0
LINE
  5
458B
  8
0
  6
VERDECKT
 62
     1
 10
43.7882408939981218
 20
64.0
 30
-0.0000000000000142
 11
45.7081300844602225
 21
64.0
 31
-0.0000000000000142
210
0.0
220
1.0
230
-0.0000000000000002
  0
LINE
  5
458C
  8
0
  6
VERDECKT
 62
     1
 10
38.2154629608540972
 20
71.9999999999999858
 30
-0.000000000000016
 11
38.2154629608540972
 21
64.0000000000000142
 31
-0.0000000000000142
210
0.0
220
1.0
230
-0.0000000000000002
  0
LINE
  5
458D
  8
0
  6
VERDECKT
 62
     1
 10
38.2154629608540972
 20
72.0
 30
-0.000000000000016
 11
39.9531893476063189
 21
72.0
 31
-0.000000000000016
210
0.0
220
1.0
230
-0.0000000000000002
  0
LINE
  5
458E
  8
0
  6
VERDECKT
 62
     1
 10
38.2154629608540972
 20
64.0000000000000142
 30
-0.0000000000000142
 11
39.9531893476063189
 21
64.0000000000000142
 31
-0.0000000000000142
210
0.0
220
1.0
230
-0.0000000000000002
  0
LINE
  5
458F
  8
0
  6
VERDECKT
 62
     1
 10
30.0566571291092011
 20
72.0000000000000142
 30
-0.000000000000016
 11
30.0566571291092011
 21
64.0000000000000142
 31
-0.0000000000000142
210
0.0
220
1.0
230
-0.0000000000000002
  0
LINE
  5
4590
  8
0
  6
VERDECKT
 62
     1
 10
30.0566571291091904
 20
72.0
 30
-0.000000000000016
 11
31.4755047824802787
 21
72.0
 31
-0.000000000000016
210
0.0
220
1.0
230
-0.0000000000000002
  0
LINE
  5
4591
  8
0
  6
VERDECKT
 62
     1
 10
30.0566571291091904
 20
64.0000000000000142
 30
-0.0000000000000142
 11
31.4755047824802787
 21
64.0000000000000142
 31
-0.0000000000000142
210
0.0
220
1.0
230
-0.0000000000000002
  0
LINE
  5
4592
  8
0
  6
VERDECKT
 62
     1
 10
19.8495397849899113
 20
72.0000000000000142
 30
-0.000000000000016
 11
19.8495397849899113
 21
64.0000000000000142
 31
-0.0000000000000142
210
0.0
220
1.0
230
-0.0000000000000002
  0
LINE
  5
4593
  8
0
  6
VERDECKT
 62
     1
 10
19.8495397849899113
 20
72.0
 30
-0.000000000000016
 11
20.8528165821592317
 21
72.0
 31
-0.000000000000016
210
0.0
220
1.0
230
-0.0000000000000002
  0
LINE
  5
4594
  8
0
  6
VERDECKT
 62
     1
 10
19.8495397849899113
 20
64.0000000000000142
 30
-0.0000000000000142
 11
20.8528165821592317
 21
64.0000000000000142
 31
-0.0000000000000142
210
0.0
220
1.0
230
-0.0000000000000002
  0
LINE
  5
4595
  8
0
  6
VERDECKT
 62
     1
 10
8.2897091074390516
 20
72.0000000000000142
 30
-0.000000000000016
 11
8.2897091074390516
 21
64.0000000000000284
 31
-0.0000000000000142
210
0.0
220
1.0
230
-0.0000000000000002
  0
LINE
  5
4596
  8
0
  6
VERDECKT
 62
     1
 10
8.2897091074390552
 20
72.0000000000000142
 30
-0.000000000000016
 11
8.8090433926728071
 21
72.0000000000000142
 31
-0.000000000000016
210
0.0
220
1.0
230
-0.0000000000000002
  0
LINE
  5
4597
  8
0
  6
VERDECKT
 62
     1
 10
8.2897091074390552
 20
64.0000000000000284
 30
-0.0000000000000142
 11
8.8090433926728071
 21
64.0000000000000284
 31
-0.0000000000000142
210
0.0
220
1.0
230
-0.0000000000000002
  0
LINE
  5
4598
  8
0
  6
VERDECKT
 62
     1
 10
47.6932988427723785
 20
72.0
 30
-0.000000000000016
 11
48.3481372923145898
 21
72.0
 31
-0.000000000000016
210
0.0
220
1.0
230
-0.0000000000000002
  0
LINE
  5
4599
  8
0
  6
VERDECKT
 62
     1
 10
-30.05665712910913
 20
72.0000000000000142
 30
-0.000000000000016
 11
-31.4755047824802183
 21
72.0000000000000142
 31
-0.000000000000016
210
0.0
220
1.0
230
-0.0000000000000002
  0
LINE
  5
459A
  8
0
  6
VERDECKT
 62
     1
 10
-38.2154629608540688
 20
72.0000000000000142
 30
-0.000000000000016
 11
-39.9531893476062905
 21
72.0000000000000142
 31
-0.000000000000016
210
0.0
220
1.0
230
-0.0000000000000002
  0
LINE
  5
459B
  8
0
  6
VERDECKT
 62
     1
 10
-43.7882408939981005
 20
72.0000000000000142
 30
-0.000000000000016
 11
-45.708130084460187
 21
72.0000000000000142
 31
-0.000000000000016
210
0.0
220
1.0
230
-0.0000000000000002
  0
LINE
  5
459C
  8
0
  6
VERDECKT
 62
     1
 10
-47.6932988427723501
 20
72.0000000000000142
 30
-0.000000000000016
 11
-48.3481372923145685
 21
72.0000000000000142
 31
-0.000000000000016
210
0.0
220
1.0
230
-0.0000000000000002
  0
LINE
  5
459D
  8
0
  6
VERDECKT
 62
     1
 10
46.341583697975949
 20
71.9999999999999858
 30
-0.000000000000016
 11
46.341583697975949
 21
64.0000000000000142
 31
-0.0000000000000142
210
0.0
220
1.0
230
-0.0000000000000002
  0
LINE
  5
459E
  8
0
  6
VERDECKT
 62
     1
 10
47.6932988427723785
 20
64.0
 30
-0.0000000000000142
 11
48.3481372923145898
 21
64.0
 31
-0.0000000000000142
210
0.0
220
1.0
230
-0.0000000000000002
  0
LINE
  5
459F
  8
0
  6
VERDECKT
 62
     1
 10
-47.6932988427723501
 20
64.0000000000000426
 30
-0.0000000000000142
 11
-48.3481372923145685
 21
64.0000000000000426
 31
-0.0000000000000142
210
0.0
220
1.0
230
-0.0000000000000002
  0
LINE
  5
45A0
  8
0
  6
VERDECKT
 62
     1
 10
-43.7882408939981005
 20
64.0000000000000568
 30
-0.0000000000000142
 11
-45.708130084460187
 21
64.0000000000000568
 31
-0.0000000000000142
210
0.0
220
1.0
230
-0.0000000000000002
  0
LINE
  5
45A1
  8
0
  6
VERDECKT
 62
     1
 10
-38.2154629608540688
 20
64.0000000000000426
 30
-0.0000000000000142
 11
-39.9531893476062905
 21
64.0000000000000426
 31
-0.0000000000000142
210
0.0
220
1.0
230
-0.0000000000000002
  0
LINE
  5
45A2
  8
0
  6
VERDECKT
 62
     1
 10
-30.05665712910913
 20
64.0000000000000426
 30
-0.0000000000000142
 11
-31.4755047824802183
 21
64.0000000000000426
 31
-0.0000000000000142
210
0.0
220
1.0
230
-0.0000000000000002
  0
LINE
  5
45A3
  8
0
  6
VERDECKT
 62
     1
 10
-8.2897091074390001
 20
64.0000000000000284
 30
-0.0000000000000142
 11
-8.8090433926727592
 21
64.0000000000000284
 31
-0.0000000000000142
210
0.0
220
1.0
230
-0.0000000000000002
  0
LINE
  5
45A4
  8
0
  6
VERDECKT
 62
     1
 10
-8.2897091074389948
 20
64.0000000000000284
 30
-0.0000000000000142
 11
-8.2897091074389948
 21
72.0000000000000142
 31
-0.000000000000016
210
0.0
220
1.0
230
-0.0000000000000002
  0
LINE
  5
45A5
  8
0
  6
VERDECKT
 62
     1
 10
-8.2897091074390001
 20
72.0000000000000142
 30
-0.000000000000016
 11
-8.8090433926727592
 21
72.0000000000000142
 31
-0.000000000000016
210
0.0
220
1.0
230
-0.0000000000000002
  0
LINE
  5
45A6
  8
0
  6
VERDECKT
 62
     1
 10
-30.0566571291091407
 20
64.0000000000000426
 30
-0.0000000000000142
 11
-30.0566571291091407
 21
72.0000000000000142
 31
-0.000000000000016
210
0.0
220
1.0
230
-0.0000000000000002
  0
LINE
  5
45A7
  8
0
  6
VERDECKT
 62
     1
 10
-38.2154629608540688
 20
64.0000000000000426
 30
-0.0000000000000142
 11
-38.2154629608540688
 21
72.0000000000000142
 31
-0.000000000000016
210
0.0
220
1.0
230
-0.0000000000000002
  0
LINE
  5
45A8
  8
0
  6
VERDECKT
 62
     1
 10
-43.7699481458553521
 20
64.0000000000000568
 30
-0.0000000000000142
 11
-43.7699481458553521
 21
72.0000000000000426
 31
-0.000000000000016
210
0.0
220
1.0
230
-0.0000000000000002
  0
LINE
  5
45A9
  8
0
  6
VERDECKT
 62
     1
 10
-46.341583697975949
 20
64.0000000000000426
 30
-0.0000000000000142
 11
-46.341583697975949
 21
72.0000000000000426
 31
-0.000000000000016
210
0.0
220
1.0
230
-0.0000000000000002
  0
LINE
  5
45AA
  8
0
  6
VERDECKT
 62
     1
 10
-19.8495397849898687
 20
52.0000000000000071
 30
-0.0000000000000115
 11
-19.8495397849898687
 21
60.0000000000000284
 31
-0.0000000000000133
210
0.0
220
1.0
230
-0.0000000000000002
  0
LINE
  5
45AB
  8
0
  6
VERDECKT
 62
     1
 10
-19.8495397849898687
 20
52.0000000000000213
 30
-0.0000000000000115
 11
-20.8528165821591891
 21
52.0000000000000213
 31
-0.0000000000000115
210
0.0
220
1.0
230
-0.0000000000000002
  0
LINE
  5
45AC
  8
0
  6
VERDECKT
 62
     1
 10
-19.8495397849898687
 20
60.0000000000000213
 30
-0.0000000000000133
 11
-20.8528165821591891
 21
60.0000000000000213
 31
-0.0000000000000133
210
0.0
220
1.0
230
-0.0000000000000002
  0
LINE
  5
45AD
  8
0
  6
VERDECKT
 62
     1
 10
43.7699481458553805
 20
59.9999999999999929
 30
-0.0000000000000133
 11
43.7699481458553805
 21
52.0
 31
-0.0000000000000115
210
0.0
220
1.0
230
-0.0000000000000002
  0
LINE
  5
45AE
  8
0
  6
VERDECKT
 62
     1
 10
43.7882408939981218
 20
60.0
 30
-0.0000000000000133
 11
45.7081300844602225
 21
60.0
 31
-0.0000000000000133
210
0.0
220
1.0
230
-0.0000000000000002
  0
LINE
  5
45AF
  8
0
  6
VERDECKT
 62
     1
 10
43.7882408939981218
 20
51.9999999999999929
 30
-0.0000000000000115
 11
45.7081300844602225
 21
51.9999999999999929
 31
-0.0000000000000115
210
0.0
220
1.0
230
-0.0000000000000002
  0
LINE
  5
45B0
  8
0
  6
VERDECKT
 62
     1
 10
38.2154629608540972
 20
59.9999999999999929
 30
-0.0000000000000133
 11
38.2154629608540972
 21
51.9999999999999929
 31
-0.0000000000000115
210
0.0
220
1.0
230
-0.0000000000000002
  0
LINE
  5
45B1
  8
0
  6
VERDECKT
 62
     1
 10
38.2154629608540972
 20
59.9999999999999929
 30
-0.0000000000000133
 11
39.9531893476063189
 21
59.9999999999999929
 31
-0.0000000000000133
210
0.0
220
1.0
230
-0.0000000000000002
  0
LINE
  5
45B2
  8
0
  6
VERDECKT
 62
     1
 10
38.2154629608540972
 20
52.0
 30
-0.0000000000000115
 11
39.9531893476063189
 21
52.0
 31
-0.0000000000000115
210
0.0
220
1.0
230
-0.0000000000000002
  0
LINE
  5
45B3
  8
0
  6
VERDECKT
 62
     1
 10
30.0566571291092011
 20
60.0
 30
-0.0000000000000133
 11
30.0566571291092011
 21
52.0
 31
-0.0000000000000115
210
0.0
220
1.0
230
-0.0000000000000002
  0
LINE
  5
45B4
  8
0
  6
VERDECKT
 62
     1
 10
30.0566571291091904
 20
60.0
 30
-0.0000000000000133
 11
31.4755047824802787
 21
60.0
 31
-0.0000000000000133
210
0.0
220
1.0
230
-0.0000000000000002
  0
LINE
  5
45B5
  8
0
  6
VERDECKT
 62
     1
 10
30.0566571291091904
 20
52.0
 30
-0.0000000000000115
 11
31.4755047824802787
 21
52.0
 31
-0.0000000000000115
210
0.0
220
1.0
230
-0.0000000000000002
  0
LINE
  5
45B6
  8
0
  6
VERDECKT
 62
     1
 10
19.8495397849899113
 20
60.0
 30
-0.0000000000000133
 11
19.8495397849899113
 21
52.0000000000000071
 31
-0.0000000000000115
210
0.0
220
1.0
230
-0.0000000000000002
  0
LINE
  5
45B7
  8
0
  6
VERDECKT
 62
     1
 10
19.8495397849899113
 20
60.0
 30
-0.0000000000000133
 11
20.8528165821592317
 21
60.0
 31
-0.0000000000000133
210
0.0
220
1.0
230
-0.0000000000000002
  0
LINE
  5
45B8
  8
0
  6
VERDECKT
 62
     1
 10
19.8495397849899113
 20
52.0000000000000071
 30
-0.0000000000000115
 11
20.8528165821592317
 21
52.0000000000000071
 31
-0.0000000000000115
210
0.0
220
1.0
230
-0.0000000000000002
  0
LINE
  5
45B9
  8
0
  6
VERDECKT
 62
     1
 10
8.2897091074390516
 20
60.0000000000000071
 30
-0.0000000000000133
 11
8.2897091074390516
 21
52.0000000000000071
 31
-0.0000000000000115
210
0.0
220
1.0
230
-0.0000000000000002
  0
LINE
  5
45BA
  8
0
  6
VERDECKT
 62
     1
 10
8.2897091074390552
 20
60.0
 30
-0.0000000000000133
 11
8.8090433926728071
 21
60.0
 31
-0.0000000000000133
210
0.0
220
1.0
230
-0.0000000000000002
  0
LINE
  5
45BB
  8
0
  6
VERDECKT
 62
     1
 10
8.2897091074390552
 20
52.0000000000000071
 30
-0.0000000000000115
 11
8.8090433926728071
 21
52.0000000000000071
 31
-0.0000000000000115
210
0.0
220
1.0
230
-0.0000000000000002
  0
LINE
  5
45BC
  8
0
  6
VERDECKT
 62
     1
 10
47.6932988427723785
 20
60.0
 30
-0.0000000000000133
 11
48.3481372923145898
 21
60.0
 31
-0.0000000000000133
210
0.0
220
1.0
230
-0.0000000000000002
  0
LINE
  5
45BD
  8
0
  6
VERDECKT
 62
     1
 10
-30.05665712910913
 20
60.0000000000000284
 30
-0.0000000000000133
 11
-31.4755047824802183
 21
60.0000000000000284
 31
-0.0000000000000133
210
0.0
220
1.0
230
-0.0000000000000002
  0
LINE
  5
45BE
  8
0
  6
VERDECKT
 62
     1
 10
-38.2154629608540688
 20
60.0000000000000284
 30
-0.0000000000000133
 11
-39.9531893476062905
 21
60.0000000000000284
 31
-0.0000000000000133
210
0.0
220
1.0
230
-0.0000000000000002
  0
LINE
  5
45BF
  8
0
  6
VERDECKT
 62
     1
 10
-43.7882408939981005
 20
60.0000000000000284
 30
-0.0000000000000133
 11
-45.708130084460187
 21
60.0000000000000284
 31
-0.0000000000000133
210
0.0
220
1.0
230
-0.0000000000000002
  0
LINE
  5
45C0
  8
0
  6
VERDECKT
 62
     1
 10
-47.6932988427723501
 20
60.0000000000000284
 30
-0.0000000000000133
 11
-48.3481372923145685
 21
60.0000000000000284
 31
-0.0000000000000133
210
0.0
220
1.0
230
-0.0000000000000002
  0
LINE
  5
45C1
  8
0
  6
VERDECKT
 62
     1
 10
46.341583697975949
 20
59.9999999999999929
 30
-0.0000000000000133
 11
46.341583697975949
 21
51.9999999999999929
 31
-0.0000000000000115
210
0.0
220
1.0
230
-0.0000000000000002
  0
LINE
  5
45C2
  8
0
  6
VERDECKT
 62
     1
 10
47.6932988427723785
 20
51.9999999999999929
 30
-0.0000000000000115
 11
48.3481372923145898
 21
51.9999999999999929
 31
-0.0000000000000115
210
0.0
220
1.0
230
-0.0000000000000002
  0
LINE
  5
45C3
  8
0
  6
VERDECKT
 62
     1
 10
-47.6932988427723501
 20
52.0000000000000284
 30
-0.0000000000000115
 11
-48.3481372923145685
 21
52.0000000000000284
 31
-0.0000000000000115
210
0.0
220
1.0
230
-0.0000000000000002
  0
LINE
  5
45C4
  8
0
  6
VERDECKT
 62
     1
 10
-43.7882408939981005
 20
52.0000000000000284
 30
-0.0000000000000115
 11
-45.708130084460187
 21
52.0000000000000284
 31
-0.0000000000000115
210
0.0
220
1.0
230
-0.0000000000000002
  0
LINE
  5
45C5
  8
0
  6
VERDECKT
 62
     1
 10
-38.2154629608540688
 20
52.0000000000000213
 30
-0.0000000000000115
 11
-39.9531893476062905
 21
52.0000000000000213
 31
-0.0000000000000115
210
0.0
220
1.0
230
-0.0000000000000002
  0
LINE
  5
45C6
  8
0
  6
VERDECKT
 62
     1
 10
-30.05665712910913
 20
52.0000000000000213
 30
-0.0000000000000115
 11
-31.4755047824802183
 21
52.0000000000000213
 31
-0.0000000000000115
210
0.0
220
1.0
230
-0.0000000000000002
  0
LINE
  5
45C7
  8
0
  6
VERDECKT
 62
     1
 10
-8.2897091074390001
 20
52.0000000000000213
 30
-0.0000000000000115
 11
-8.8090433926727592
 21
52.0000000000000213
 31
-0.0000000000000115
210
0.0
220
1.0
230
-0.0000000000000002
  0
LINE
  5
45C8
  8
0
  6
VERDECKT
 62
     1
 10
-8.2897091074389948
 20
52.0000000000000071
 30
-0.0000000000000115
 11
-8.2897091074389948
 21
60.0000000000000071
 31
-0.0000000000000133
210
0.0
220
1.0
230
-0.0000000000000002
  0
LINE
  5
45C9
  8
0
  6
VERDECKT
 62
     1
 10
-8.2897091074390001
 20
60.0000000000000213
 30
-0.0000000000000133
 11
-8.8090433926727592
 21
60.0000000000000213
 31
-0.0000000000000133
210
0.0
220
1.0
230
-0.0000000000000002
  0
LINE
  5
45CA
  8
0
  6
VERDECKT
 62
     1
 10
-30.0566571291091407
 20
52.0000000000000213
 30
-0.0000000000000115
 11
-30.0566571291091407
 21
60.0000000000000284
 31
-0.0000000000000133
210
0.0
220
1.0
230
-0.0000000000000002
  0
LINE
  5
45CB
  8
0
  6
VERDECKT
 62
     1
 10
-38.2154629608540688
 20
52.0000000000000426
 30
-0.0000000000000115
 11
-38.2154629608540688
 21
60.0000000000000284
 31
-0.0000000000000133
210
0.0
220
1.0
230
-0.0000000000000002
  0
LINE
  5
45CC
  8
0
  6
VERDECKT
 62
     1
 10
-43.7699481458553521
 20
52.0000000000000213
 30
-0.0000000000000115
 11
-43.7699481458553521
 21
60.0000000000000284
 31
-0.0000000000000133
210
0.0
220
1.0
230
-0.0000000000000002
  0
LINE
  5
45CD
  8
0
  6
VERDECKT
 62
     1
 10
-46.341583697975949
 20
52.0000000000000426
 30
-0.0000000000000115
 11
-46.341583697975949
 21
60.0000000000000284
 31
-0.0000000000000133
210
0.0
220
1.0
230
-0.0000000000000002
  0
LINE
  5
45CE
  8
0
  6
VERDECKT
 62
     1
 10
-19.8495397849898687
 20
40.0
 30
-0.0000000000000089
 11
-19.8495397849898687
 21
48.0000000000000071
 31
-0.0000000000000107
210
0.0
220
1.0
230
-0.0000000000000002
  0
LINE
  5
45CF
  8
0
  6
VERDECKT
 62
     1
 10
-19.8495397849898687
 20
40.0000000000000071
 30
-0.0000000000000089
 11
-20.8528165821591891
 21
40.0000000000000071
 31
-0.0000000000000089
210
0.0
220
1.0
230
-0.0000000000000002
  0
LINE
  5
45D0
  8
0
  6
VERDECKT
 62
     1
 10
-19.8495397849898687
 20
48.0000000000000213
 30
-0.0000000000000107
 11
-20.8528165821591891
 21
48.0000000000000213
 31
-0.0000000000000107
210
0.0
220
1.0
230
-0.0000000000000002
  0
LINE
  5
45D1
  8
0
  6
VERDECKT
 62
     1
 10
43.7699481458553805
 20
47.9999999999999929
 30
-0.0000000000000107
 11
43.7699481458553805
 21
40.0
 31
-0.0000000000000089
210
0.0
220
1.0
230
-0.0000000000000002
  0
LINE
  5
45D2
  8
0
  6
VERDECKT
 62
     1
 10
43.7882408939981218
 20
47.9999999999999787
 30
-0.0000000000000107
 11
45.7081300844602225
 21
47.9999999999999787
 31
-0.0000000000000107
210
0.0
220
1.0
230
-0.0000000000000002
  0
LINE
  5
45D3
  8
0
  6
VERDECKT
 62
     1
 10
43.7882408939981218
 20
39.9999999999999929
 30
-0.0000000000000089
 11
45.7081300844602225
 21
39.9999999999999929
 31
-0.0000000000000089
210
0.0
220
1.0
230
-0.0000000000000002
  0
LINE
  5
45D4
  8
0
  6
VERDECKT
 62
     1
 10
38.2154629608540972
 20
47.9999999999999787
 30
-0.0000000000000107
 11
38.2154629608540972
 21
39.9999999999999787
 31
-0.0000000000000089
210
0.0
220
1.0
230
-0.0000000000000002
  0
LINE
  5
45D5
  8
0
  6
VERDECKT
 62
     1
 10
38.2154629608540972
 20
47.9999999999999787
 30
-0.0000000000000107
 11
39.9531893476063189
 21
47.9999999999999787
 31
-0.0000000000000107
210
0.0
220
1.0
230
-0.0000000000000002
  0
LINE
  5
45D6
  8
0
  6
VERDECKT
 62
     1
 10
38.2154629608540972
 20
40.0
 30
-0.0000000000000089
 11
39.9531893476063189
 21
40.0
 31
-0.0000000000000089
210
0.0
220
1.0
230
-0.0000000000000002
  0
LINE
  5
45D7
  8
0
  6
VERDECKT
 62
     1
 10
30.0566571291092011
 20
48.0000000000000071
 30
-0.0000000000000107
 11
30.0566571291092011
 21
40.0
 31
-0.0000000000000089
210
0.0
220
1.0
230
-0.0000000000000002
  0
LINE
  5
45D8
  8
0
  6
VERDECKT
 62
     1
 10
30.0566571291091904
 20
47.9999999999999929
 30
-0.0000000000000107
 11
31.4755047824802787
 21
47.9999999999999929
 31
-0.0000000000000107
210
0.0
220
1.0
230
-0.0000000000000002
  0
LINE
  5
45D9
  8
0
  6
VERDECKT
 62
     1
 10
30.0566571291091904
 20
40.0
 30
-0.0000000000000089
 11
31.4755047824802787
 21
40.0
 31
-0.0000000000000089
210
0.0
220
1.0
230
-0.0000000000000002
  0
LINE
  5
45DA
  8
0
  6
VERDECKT
 62
     1
 10
19.8495397849899113
 20
48.0000000000000071
 30
-0.0000000000000107
 11
19.8495397849899113
 21
40.0
 31
-0.0000000000000089
210
0.0
220
1.0
230
-0.0000000000000002
  0
LINE
  5
45DB
  8
0
  6
VERDECKT
 62
     1
 10
19.8495397849899113
 20
48.0
 30
-0.0000000000000107
 11
20.8528165821592317
 21
48.0
 31
-0.0000000000000107
210
0.0
220
1.0
230
-0.0000000000000002
  0
LINE
  5
45DC
  8
0
  6
VERDECKT
 62
     1
 10
19.8495397849899113
 20
40.0
 30
-0.0000000000000089
 11
20.8528165821592317
 21
40.0
 31
-0.0000000000000089
210
0.0
220
1.0
230
-0.0000000000000002
  0
LINE
  5
45DD
  8
0
  6
VERDECKT
 62
     1
 10
8.2897091074390516
 20
48.0000000000000071
 30
-0.0000000000000107
 11
8.2897091074390516
 21
40.0
 31
-0.0000000000000089
210
0.0
220
1.0
230
-0.0000000000000002
  0
LINE
  5
45DE
  8
0
  6
VERDECKT
 62
     1
 10
8.2897091074390552
 20
48.0
 30
-0.0000000000000107
 11
8.8090433926728071
 21
48.0
 31
-0.0000000000000107
210
0.0
220
1.0
230
-0.0000000000000002
  0
LINE
  5
45DF
  8
0
  6
VERDECKT
 62
     1
 10
8.2897091074390552
 20
40.0
 30
-0.0000000000000089
 11
8.8090433926728071
 21
40.0
 31
-0.0000000000000089
210
0.0
220
1.0
230
-0.0000000000000002
  0
LINE
  5
45E0
  8
0
  6
VERDECKT
 62
     1
 10
47.6932988427723785
 20
47.9999999999999787
 30
-0.0000000000000107
 11
48.3481372923145898
 21
47.9999999999999787
 31
-0.0000000000000107
210
0.0
220
1.0
230
-0.0000000000000002
  0
LINE
  5
45E1
  8
0
  6
VERDECKT
 62
     1
 10
-30.05665712910913
 20
48.0000000000000284
 30
-0.0000000000000107
 11
-31.4755047824802183
 21
48.0000000000000284
 31
-0.0000000000000107
210
0.0
220
1.0
230
-0.0000000000000002
  0
LINE
  5
45E2
  8
0
  6
VERDECKT
 62
     1
 10
-38.2154629608540688
 20
48.0000000000000284
 30
-0.0000000000000107
 11
-39.9531893476062905
 21
48.0000000000000284
 31
-0.0000000000000107
210
0.0
220
1.0
230
-0.0000000000000002
  0
LINE
  5
45E3
  8
0
  6
VERDECKT
 62
     1
 10
-43.7882408939981005
 20
48.0000000000000426
 30
-0.0000000000000107
 11
-45.708130084460187
 21
48.0000000000000426
 31
-0.0000000000000107
210
0.0
220
1.0
230
-0.0000000000000002
  0
LINE
  5
45E4
  8
0
  6
VERDECKT
 62
     1
 10
-47.6932988427723501
 20
48.0000000000000426
 30
-0.0000000000000107
 11
-48.3481372923145685
 21
48.0000000000000426
 31
-0.0000000000000107
210
0.0
220
1.0
230
-0.0000000000000002
  0
LINE
  5
45E5
  8
0
  6
VERDECKT
 62
     1
 10
46.341583697975949
 20
47.9999999999999787
 30
-0.0000000000000107
 11
46.341583697975949
 21
39.9999999999999787
 31
-0.0000000000000089
210
0.0
220
1.0
230
-0.0000000000000002
  0
LINE
  5
45E6
  8
0
  6
VERDECKT
 62
     1
 10
47.6932988427723785
 20
39.9999999999999929
 30
-0.0000000000000089
 11
48.3481372923145898
 21
39.9999999999999929
 31
-0.0000000000000089
210
0.0
220
1.0
230
-0.0000000000000002
  0
LINE
  5
45E7
  8
0
  6
VERDECKT
 62
     1
 10
-47.6932988427723501
 20
40.0000000000000213
 30
-0.0000000000000089
 11
-48.3481372923145685
 21
40.0000000000000213
 31
-0.0000000000000089
210
0.0
220
1.0
230
-0.0000000000000002
  0
LINE
  5
45E8
  8
0
  6
VERDECKT
 62
     1
 10
-43.7882408939981005
 20
40.0000000000000213
 30
-0.0000000000000089
 11
-45.708130084460187
 21
40.0000000000000213
 31
-0.0000000000000089
210
0.0
220
1.0
230
-0.0000000000000002
  0
LINE
  5
45E9
  8
0
  6
VERDECKT
 62
     1
 10
-38.2154629608540688
 20
40.0000000000000213
 30
-0.0000000000000089
 11
-39.9531893476062905
 21
40.0000000000000213
 31
-0.0000000000000089
210
0.0
220
1.0
230
-0.0000000000000002
  0
LINE
  5
45EA
  8
0
  6
VERDECKT
 62
     1
 10
-30.05665712910913
 20
40.0000000000000213
 30
-0.0000000000000089
 11
-31.4755047824802183
 21
40.0000000000000213
 31
-0.0000000000000089
210
0.0
220
1.0
230
-0.0000000000000002
  0
LINE
  5
45EB
  8
0
  6
VERDECKT
 62
     1
 10
-8.2897091074390001
 20
40.0000000000000071
 30
-0.0000000000000089
 11
-8.8090433926727592
 21
40.0000000000000071
 31
-0.0000000000000089
210
0.0
220
1.0
230
-0.0000000000000002
  0
LINE
  5
45EC
  8
0
  6
VERDECKT
 62
     1
 10
-8.2897091074389948
 20
40.0
 30
-0.0000000000000089
 11
-8.2897091074389948
 21
48.0000000000000071
 31
-0.0000000000000107
210
0.0
220
1.0
230
-0.0000000000000002
  0
LINE
  5
45ED
  8
0
  6
VERDECKT
 62
     1
 10
-8.2897091074390001
 20
48.0000000000000213
 30
-0.0000000000000107
 11
-8.8090433926727592
 21
48.0000000000000213
 31
-0.0000000000000107
210
0.0
220
1.0
230
-0.0000000000000002
  0
LINE
  5
45EE
  8
0
  6
VERDECKT
 62
     1
 10
-30.0566571291091407
 20
40.0000000000000213
 30
-0.0000000000000089
 11
-30.0566571291091407
 21
48.0000000000000284
 31
-0.0000000000000107
210
0.0
220
1.0
230
-0.0000000000000002
  0
LINE
  5
45EF
  8
0
  6
VERDECKT
 62
     1
 10
-38.2154629608540688
 20
40.0000000000000284
 30
-0.0000000000000089
 11
-38.2154629608540688
 21
48.0000000000000426
 31
-0.0000000000000107
210
0.0
220
1.0
230
-0.0000000000000002
  0
LINE
  5
45F0
  8
0
  6
VERDECKT
 62
     1
 10
-43.7699481458553521
 20
40.0000000000000213
 30
-0.0000000000000089
 11
-43.7699481458553521
 21
48.0000000000000284
 31
-0.0000000000000107
210
0.0
220
1.0
230
-0.0000000000000002
  0
LINE
  5
45F1
  8
0
  6
VERDECKT
 62
     1
 10
-46.341583697975949
 20
40.0000000000000284
 30
-0.0000000000000089
 11
-46.341583697975949
 21
48.0000000000000426
 31
-0.0000000000000107
210
0.0
220
1.0
230
-0.0000000000000002
  0
LINE
  5
45F2
  8
0
  6
VERDECKT
 62
     1
 10
-19.8495397849899398
 20
27.9999999999999787
 30
-0.0000000000000062
 11
-19.8495397849899398
 21
35.9999999999999787
 31
-0.000000000000008
210
0.0
220
1.0
230
-0.0000000000000002
  0
LINE
  5
45F3
  8
0
  6
VERDECKT
 62
     1
 10
-19.8495397849899398
 20
27.9999999999999893
 30
-0.0000000000000062
 11
-20.8528165821592708
 21
27.9999999999999893
 31
-0.0000000000000062
210
0.0
220
1.0
230
-0.0000000000000002
  0
LINE
  5
45F4
  8
0
  6
VERDECKT
 62
     1
 10
-19.8495397849899398
 20
35.9999999999999929
 30
-0.000000000000008
 11
-20.8528165821592708
 21
35.9999999999999929
 31
-0.000000000000008
210
0.0
220
1.0
230
-0.0000000000000002
  0
LINE
  5
45F5
  8
0
  6
VERDECKT
 62
     1
 10
43.7699481458553521
 20
35.9999999999999574
 30
-0.000000000000008
 11
43.7699481458553521
 21
27.9999999999999716
 31
-0.0000000000000062
210
0.0
220
1.0
230
-0.0000000000000002
  0
LINE
  5
45F6
  8
0
  6
VERDECKT
 62
     1
 10
43.7882408939981005
 20
35.9999999999999574
 30
-0.000000000000008
 11
45.7081300844602012
 21
35.9999999999999574
 31
-0.000000000000008
210
0.0
220
1.0
230
-0.0000000000000002
  0
LINE
  5
45F7
  8
0
  6
VERDECKT
 62
     1
 10
43.7882408939981005
 20
27.9999999999999609
 30
-0.0000000000000062
 11
45.7081300844602012
 21
27.9999999999999609
 31
-0.0000000000000062
210
0.0
220
1.0
230
-0.0000000000000002
  0
LINE
  5
45F8
  8
0
  6
VERDECKT
 62
     1
 10
38.2154629608540688
 20
35.9999999999999503
 30
-0.000000000000008
 11
38.2154629608540688
 21
27.9999999999999503
 31
-0.0000000000000062
210
0.0
220
1.0
230
-0.0000000000000002
  0
LINE
  5
45F9
  8
0
  6
VERDECKT
 62
     1
 10
38.2154629608540688
 20
35.9999999999999503
 30
-0.000000000000008
 11
39.9531893476063118
 21
35.9999999999999503
 31
-0.000000000000008
210
0.0
220
1.0
230
-0.0000000000000002
  0
LINE
  5
45FA
  8
0
  6
VERDECKT
 62
     1
 10
38.2154629608540688
 20
27.9999999999999609
 30
-0.0000000000000062
 11
39.9531893476063118
 21
27.9999999999999609
 31
-0.0000000000000062
210
0.0
220
1.0
230
-0.0000000000000002
  0
LINE
  5
45FB
  8
0
  6
VERDECKT
 62
     1
 10
30.0566571291091407
 20
35.9999999999999574
 30
-0.000000000000008
 11
30.0566571291091407
 21
27.9999999999999716
 31
-0.0000000000000062
210
0.0
220
1.0
230
-0.0000000000000002
  0
LINE
  5
45FC
  8
0
  6
VERDECKT
 62
     1
 10
30.0566571291091407
 20
35.9999999999999574
 30
-0.000000000000008
 11
31.4755047824802183
 21
35.9999999999999574
 31
-0.000000000000008
210
0.0
220
1.0
230
-0.0000000000000002
  0
LINE
  5
45FD
  8
0
  6
VERDECKT
 62
     1
 10
30.0566571291091407
 20
27.9999999999999716
 30
-0.0000000000000062
 11
31.4755047824802183
 21
27.9999999999999716
 31
-0.0000000000000062
210
0.0
220
1.0
230
-0.0000000000000002
  0
LINE
  5
45FE
  8
0
  6
VERDECKT
 62
     1
 10
19.8495397849898403
 20
35.9999999999999787
 30
-0.000000000000008
 11
19.8495397849898403
 21
27.9999999999999787
 31
-0.0000000000000062
210
0.0
220
1.0
230
-0.0000000000000002
  0
LINE
  5
45FF
  8
0
  6
VERDECKT
 62
     1
 10
19.8495397849898403
 20
35.9999999999999716
 30
-0.000000000000008
 11
20.8528165821591607
 21
35.9999999999999716
 31
-0.000000000000008
210
0.0
220
1.0
230
-0.0000000000000002
  0
LINE
  5
4600
  8
0
  6
VERDECKT
 62
     1
 10
19.8495397849898403
 20
27.9999999999999716
 30
-0.0000000000000062
 11
20.8528165821591607
 21
27.9999999999999716
 31
-0.0000000000000062
210
0.0
220
1.0
230
-0.0000000000000002
  0
LINE
  5
4601
  8
0
  6
VERDECKT
 62
     1
 10
8.2897091074389522
 20
35.9999999999999787
 30
-0.000000000000008
 11
8.2897091074389522
 21
27.9999999999999787
 31
-0.0000000000000062
210
0.0
220
1.0
230
-0.0000000000000002
  0
LINE
  5
4602
  8
0
  6
VERDECKT
 62
     1
 10
8.2897091074389593
 20
35.9999999999999716
 30
-0.000000000000008
 11
8.8090433926727165
 21
35.9999999999999716
 31
-0.000000000000008
210
0.0
220
1.0
230
-0.0000000000000002
  0
LINE
  5
4603
  8
0
  6
VERDECKT
 62
     1
 10
8.2897091074389593
 20
27.9999999999999787
 30
-0.0000000000000062
 11
8.8090433926727165
 21
27.9999999999999787
 31
-0.0000000000000062
210
0.0
220
1.0
230
-0.0000000000000002
  0
LINE
  5
4604
  8
0
  6
VERDECKT
 62
     1
 10
47.6932988427723501
 20
35.9999999999999574
 30
-0.000000000000008
 11
48.3481372923145898
 21
35.9999999999999574
 31
-0.000000000000008
210
0.0
220
1.0
230
-0.0000000000000002
  0
LINE
  5
4605
  8
0
  6
VERDECKT
 62
     1
 10
-30.0566571291091797
 20
36.0
 30
-0.000000000000008
 11
-31.4755047824802787
 21
36.0
 31
-0.000000000000008
210
0.0
220
1.0
230
-0.0000000000000002
  0
LINE
  5
4606
  8
0
  6
VERDECKT
 62
     1
 10
-38.2154629608540901
 20
36.0
 30
-0.000000000000008
 11
-39.9531893476063189
 21
36.0
 31
-0.000000000000008
210
0.0
220
1.0
230
-0.0000000000000002
  0
LINE
  5
4607
  8
0
  6
VERDECKT
 62
     1
 10
-43.7882408939981431
 20
36.0
 30
-0.000000000000008
 11
-45.708130084460187
 21
36.0
 31
-0.000000000000008
210
0.0
220
1.0
230
-0.0000000000000002
  0
LINE
  5
4608
  8
0
  6
VERDECKT
 62
     1
 10
-47.6932988427723501
 20
36.0
 30
-0.000000000000008
 11
-48.3481372923145685
 21
36.0
 31
-0.000000000000008
210
0.0
220
1.0
230
-0.0000000000000002
  0
LINE
  5
4609
  8
0
  6
VERDECKT
 62
     1
 10
46.341583697975949
 20
35.9999999999999574
 30
-0.000000000000008
 11
46.341583697975949
 21
27.9999999999999503
 31
-0.0000000000000062
210
0.0
220
1.0
230
-0.0000000000000002
  0
LINE
  5
460A
  8
0
  6
VERDECKT
 62
     1
 10
47.6932988427723501
 20
27.9999999999999609
 30
-0.0000000000000062
 11
48.3481372923145898
 21
27.9999999999999609
 31
-0.0000000000000062
210
0.0
220
1.0
230
-0.0000000000000002
  0
LINE
  5
460B
  8
0
  6
VERDECKT
 62
     1
 10
-47.6932988427723501
 20
28.0
 30
-0.0000000000000062
 11
-48.3481372923145685
 21
28.0
 31
-0.0000000000000062
210
0.0
220
1.0
230
-0.0000000000000002
  0
LINE
  5
460C
  8
0
  6
VERDECKT
 62
     1
 10
-43.7882408939981289
 20
28.0
 30
-0.0000000000000062
 11
-45.7081300844602012
 21
28.0
 31
-0.0000000000000062
210
0.0
220
1.0
230
-0.0000000000000002
  0
LINE
  5
460D
  8
0
  6
VERDECKT
 62
     1
 10
-38.2154629608540901
 20
28.0
 30
-0.0000000000000062
 11
-39.9531893476063189
 21
28.0
 31
-0.0000000000000062
210
0.0
220
1.0
230
-0.0000000000000002
  0
LINE
  5
460E
  8
0
  6
VERDECKT
 62
     1
 10
-30.0566571291091797
 20
28.0
 30
-0.0000000000000062
 11
-31.4755047824802787
 21
28.0
 31
-0.0000000000000062
210
0.0
220
1.0
230
-0.0000000000000002
  0
LINE
  5
460F
  8
0
  6
VERDECKT
 62
     1
 10
-8.2897091074390961
 20
27.9999999999999893
 30
-0.0000000000000062
 11
-8.8090433926728569
 21
27.9999999999999893
 31
-0.0000000000000062
210
0.0
220
1.0
230
-0.0000000000000002
  0
LINE
  5
4610
  8
0
  6
VERDECKT
 62
     1
 10
-8.2897091074391085
 20
27.9999999999999787
 30
-0.0000000000000062
 11
-8.2897091074391085
 21
35.9999999999999787
 31
-0.000000000000008
210
0.0
220
1.0
230
-0.0000000000000002
  0
LINE
  5
4611
  8
0
  6
VERDECKT
 62
     1
 10
-8.2897091074390961
 20
35.9999999999999929
 30
-0.000000000000008
 11
-8.8090433926728569
 21
35.9999999999999929
 31
-0.000000000000008
210
0.0
220
1.0
230
-0.0000000000000002
  0
LINE
  5
4612
  8
0
  6
VERDECKT
 62
     1
 10
-30.0566571291091797
 20
28.0
 30
-0.0000000000000062
 11
-30.0566571291091797
 21
36.0
 31
-0.000000000000008
210
0.0
220
1.0
230
-0.0000000000000002
  0
LINE
  5
4613
  8
0
  6
VERDECKT
 62
     1
 10
-38.2154629608540972
 20
28.0000000000000107
 30
-0.0000000000000062
 11
-38.2154629608540972
 21
36.0000000000000071
 31
-0.000000000000008
210
0.0
220
1.0
230
-0.0000000000000002
  0
LINE
  5
4614
  8
0
  6
VERDECKT
 62
     1
 10
-43.7699481458553521
 20
27.9999999999999893
 30
-0.0000000000000062
 11
-43.7699481458553521
 21
36.0
 31
-0.000000000000008
210
0.0
220
1.0
230
-0.0000000000000002
  0
LINE
  5
4615
  8
0
  6
VERDECKT
 62
     1
 10
-46.341583697975949
 20
28.0000000000000107
 30
-0.0000000000000062
 11
-46.341583697975949
 21
36.0000000000000071
 31
-0.000000000000008
210
0.0
220
1.0
230
-0.0000000000000002
  0
LINE
  5
4616
  8
0
  6
VERDECKT
 62
     1
 10
-19.8495397849899113
 20
15.9999999999999893
 30
-0.0000000000000036
 11
-19.8495397849899113
 21
23.9999999999999787
 31
-0.0000000000000053
210
0.0
220
1.0
230
-0.0000000000000002
  0
LINE
  5
4617
  8
0
  6
VERDECKT
 62
     1
 10
-19.8495397849899113
 20
15.9999999999999805
 30
-0.0000000000000036
 11
-20.8528165821592388
 21
15.9999999999999805
 31
-0.0000000000000036
210
0.0
220
1.0
230
-0.0000000000000002
  0
LINE
  5
4618
  8
0
  6
VERDECKT
 62
     1
 10
-19.8495397849899113
 20
23.9999999999999893
 30
-0.0000000000000053
 11
-20.8528165821592388
 21
23.9999999999999893
 31
-0.0000000000000053
210
0.0
220
1.0
230
-0.0000000000000002
  0
LINE
  5
4619
  8
0
  6
VERDECKT
 62
     1
 10
43.7699481458553521
 20
23.9999999999999609
 30
-0.0000000000000053
 11
43.7699481458553521
 21
15.9999999999999591
 31
-0.0000000000000036
210
0.0
220
1.0
230
-0.0000000000000002
  0
LINE
  5
461A
  8
0
  6
VERDECKT
 62
     1
 10
43.7882408939981289
 20
23.9999999999999609
 30
-0.0000000000000053
 11
45.7081300844602225
 21
23.9999999999999609
 31
-0.0000000000000053
210
0.0
220
1.0
230
-0.0000000000000002
  0
LINE
  5
461B
  8
0
  6
VERDECKT
 62
     1
 10
43.7882408939981289
 20
15.9999999999999591
 30
-0.0000000000000036
 11
45.7081300844602225
 21
15.9999999999999591
 31
-0.0000000000000036
210
0.0
220
1.0
230
-0.0000000000000002
  0
LINE
  5
461C
  8
0
  6
VERDECKT
 62
     1
 10
38.2154629608540688
 20
23.9999999999999503
 30
-0.0000000000000053
 11
38.2154629608540688
 21
15.9999999999999591
 31
-0.0000000000000036
210
0.0
220
1.0
230
-0.0000000000000002
  0
LINE
  5
461D
  8
0
  6
VERDECKT
 62
     1
 10
38.2154629608540972
 20
23.9999999999999503
 30
-0.0000000000000053
 11
39.9531893476063402
 21
23.9999999999999503
 31
-0.0000000000000053
210
0.0
220
1.0
230
-0.0000000000000002
  0
LINE
  5
461E
  8
0
  6
VERDECKT
 62
     1
 10
38.2154629608540972
 20
15.9999999999999591
 30
-0.0000000000000036
 11
39.9531893476063402
 21
15.9999999999999591
 31
-0.0000000000000036
210
0.0
220
1.0
230
-0.0000000000000002
  0
LINE
  5
461F
  8
0
  6
VERDECKT
 62
     1
 10
30.0566571291091691
 20
23.9999999999999609
 30
-0.0000000000000053
 11
30.0566571291091691
 21
15.9999999999999893
 31
-0.0000000000000036
210
0.0
220
1.0
230
-0.0000000000000002
  0
LINE
  5
4620
  8
0
  6
VERDECKT
 62
     1
 10
30.0566571291091584
 20
23.9999999999999609
 30
-0.0000000000000053
 11
31.4755047824802503
 21
23.9999999999999609
 31
-0.0000000000000053
210
0.0
220
1.0
230
-0.0000000000000002
  0
LINE
  5
4621
  8
0
  6
VERDECKT
 62
     1
 10
30.0566571291091584
 20
15.9999999999999591
 30
-0.0000000000000036
 11
31.4755047824802503
 21
15.9999999999999591
 31
-0.0000000000000036
210
0.0
220
1.0
230
-0.0000000000000002
  0
LINE
  5
4622
  8
0
  6
VERDECKT
 62
     1
 10
19.8495397849898687
 20
23.9999999999999787
 30
-0.0000000000000053
 11
19.8495397849898687
 21
15.9999999999999591
 31
-0.0000000000000036
210
0.0
220
1.0
230
-0.0000000000000002
  0
LINE
  5
4623
  8
0
  6
VERDECKT
 62
     1
 10
19.8495397849898687
 20
23.9999999999999716
 30
-0.0000000000000053
 11
20.8528165821591891
 21
23.9999999999999716
 31
-0.0000000000000053
210
0.0
220
1.0
230
-0.0000000000000002
  0
LINE
  5
4624
  8
0
  6
VERDECKT
 62
     1
 10
19.8495397849898687
 20
15.9999999999999698
 30
-0.0000000000000036
 11
20.8528165821591891
 21
15.9999999999999591
 31
-0.0000000000000036
210
0.0
220
1.0
230
-0.0000000000000002
  0
LINE
  5
4625
  8
0
  6
VERDECKT
 62
     1
 10
8.2897091074389948
 20
23.9999999999999787
 30
-0.0000000000000053
 11
8.2897091074389948
 21
15.9999999999999805
 31
-0.0000000000000036
210
0.0
220
1.0
230
-0.0000000000000002
  0
LINE
  5
4626
  8
0
  6
VERDECKT
 62
     1
 10
8.2897091074389984
 20
23.9999999999999787
 30
-0.0000000000000053
 11
8.8090433926727556
 21
23.9999999999999787
 31
-0.0000000000000053
210
0.0
220
1.0
230
-0.0000000000000002
  0
LINE
  5
4627
  8
0
  6
VERDECKT
 62
     1
 10
8.2897091074389984
 20
15.9999999999999698
 30
-0.0000000000000036
 11
8.8090433926727556
 21
15.9999999999999698
 31
-0.0000000000000036
210
0.0
220
1.0
230
-0.0000000000000002
  0
LINE
  5
4628
  8
0
  6
VERDECKT
 62
     1
 10
47.6932988427723501
 20
23.9999999999999503
 30
-0.0000000000000053
 11
48.3481372923145898
 21
23.9999999999999503
 31
-0.0000000000000053
210
0.0
220
1.0
230
-0.0000000000000002
  0
LINE
  5
4629
  8
0
  6
VERDECKT
 62
     1
 10
-30.0566571291091691
 20
23.9999999999999893
 30
-0.0000000000000053
 11
-31.4755047824802716
 21
23.9999999999999893
 31
-0.0000000000000053
210
0.0
220
1.0
230
-0.0000000000000002
  0
LINE
  5
462A
  8
0
  6
VERDECKT
 62
     1
 10
-38.215462960854083
 20
23.9999999999999893
 30
-0.0000000000000053
 11
-39.9531893476063118
 21
23.9999999999999893
 31
-0.0000000000000053
210
0.0
220
1.0
230
-0.0000000000000002
  0
LINE
  5
462B
  8
0
  6
VERDECKT
 62
     1
 10
-43.7882408939981076
 20
23.9999999999999893
 30
-0.0000000000000053
 11
-45.708130084460187
 21
23.9999999999999893
 31
-0.0000000000000053
210
0.0
220
1.0
230
-0.0000000000000002
  0
LINE
  5
462C
  8
0
  6
VERDECKT
 62
     1
 10
-47.6932988427723501
 20
24.0
 30
-0.0000000000000053
 11
-48.3481372923145685
 21
24.0
 31
-0.0000000000000053
210
0.0
220
1.0
230
-0.0000000000000002
  0
LINE
  5
462D
  8
0
  6
VERDECKT
 62
     1
 10
46.341583697975949
 20
23.9999999999999503
 30
-0.0000000000000053
 11
46.341583697975949
 21
15.9999999999999591
 31
-0.0000000000000036
210
0.0
220
1.0
230
-0.0000000000000002
  0
LINE
  5
462E
  8
0
  6
VERDECKT
 62
     1
 10
47.6932988427723501
 20
15.9999999999999503
 30
-0.0000000000000036
 11
48.3481372923145898
 21
15.9999999999999503
 31
-0.0000000000000036
210
0.0
220
1.0
230
-0.0000000000000002
  0
LINE
  5
462F
  8
0
  6
VERDECKT
 62
     1
 10
-47.6932988427723501
 20
15.9999999999999893
 30
-0.0000000000000036
 11
-48.3481372923145685
 21
15.9999999999999893
 31
-0.0000000000000036
210
0.0
220
1.0
230
-0.0000000000000002
  0
LINE
  5
4630
  8
0
  6
VERDECKT
 62
     1
 10
-43.7882408939981076
 20
15.9999999999999893
 30
-0.0000000000000036
 11
-45.708130084460187
 21
15.9999999999999893
 31
-0.0000000000000036
210
0.0
220
1.0
230
-0.0000000000000002
  0
LINE
  5
4631
  8
0
  6
VERDECKT
 62
     1
 10
-38.215462960854083
 20
15.9999999999999893
 30
-0.0000000000000036
 11
-39.9531893476063118
 21
15.9999999999999893
 31
-0.0000000000000036
210
0.0
220
1.0
230
-0.0000000000000002
  0
LINE
  5
4632
  8
0
  6
VERDECKT
 62
     1
 10
-30.0566571291091691
 20
15.9999999999999893
 30
-0.0000000000000036
 11
-31.4755047824802716
 21
15.9999999999999893
 31
-0.0000000000000036
210
0.0
220
1.0
230
-0.0000000000000002
  0
LINE
  5
4633
  8
0
  6
VERDECKT
 62
     1
 10
-8.2897091074390552
 20
15.9999999999999805
 30
-0.0000000000000036
 11
-8.8090433926728178
 21
15.9999999999999805
 31
-0.0000000000000036
210
0.0
220
1.0
230
-0.0000000000000002
  0
LINE
  5
4634
  8
0
  6
VERDECKT
 62
     1
 10
-8.2897091074390516
 20
15.9999999999999805
 30
-0.0000000000000036
 11
-8.2897091074390516
 21
23.9999999999999787
 31
-0.0000000000000053
210
0.0
220
1.0
230
-0.0000000000000002
  0
LINE
  5
4635
  8
0
  6
VERDECKT
 62
     1
 10
-8.2897091074390552
 20
23.9999999999999787
 30
-0.0000000000000053
 11
-8.8090433926728178
 21
23.9999999999999787
 31
-0.0000000000000053
210
0.0
220
1.0
230
-0.0000000000000002
  0
LINE
  5
4636
  8
0
  6
VERDECKT
 62
     1
 10
-30.0566571291091691
 20
15.9999999999999805
 30
-0.0000000000000036
 11
-30.0566571291091691
 21
23.9999999999999893
 31
-0.0000000000000053
210
0.0
220
1.0
230
-0.0000000000000002
  0
LINE
  5
4637
  8
0
  6
VERDECKT
 62
     1
 10
-38.2154629608540688
 20
15.9999999999999893
 30
-0.0000000000000036
 11
-38.2154629608540688
 21
23.9999999999999893
 31
-0.0000000000000053
210
0.0
220
1.0
230
-0.0000000000000002
  0
LINE
  5
4638
  8
0
  6
VERDECKT
 62
     1
 10
-43.7699481458553521
 20
15.9999999999999893
 30
-0.0000000000000036
 11
-43.7699481458553521
 21
23.9999999999999893
 31
-0.0000000000000053
210
0.0
220
1.0
230
-0.0000000000000002
  0
LINE
  5
4639
  8
0
  6
VERDECKT
 62
     1
 10
-46.341583697975949
 20
15.9999999999999893
 30
-0.0000000000000036
 11
-46.341583697975949
 21
23.9999999999999893
 31
-0.0000000000000053
210
0.0
220
1.0
230
-0.0000000000000002
  0
LINE
  5
463A
  8
0
  6
VERDECKT
 62
     1
 10
-19.8495397849898687
 20
4.0000000000000462
 30
-0.0000000000000009
 11
-19.8495397849898687
 21
12.0000000000000497
 31
-0.0000000000000027
210
0.0
220
1.0
230
-0.0000000000000002
  0
LINE
  5
463B
  8
0
  6
VERDECKT
 62
     1
 10
-19.8495397849898687
 20
4.0000000000000409
 30
-0.0000000000000009
 11
-20.8528165821591891
 21
4.0000000000000409
 31
-0.0000000000000009
210
0.0
220
1.0
230
-0.0000000000000002
  0
LINE
  5
463C
  8
0
  6
VERDECKT
 62
     1
 10
-19.8495397849898687
 20
12.0000000000000409
 30
-0.0000000000000027
 11
-20.8528165821591891
 21
12.0000000000000409
 31
-0.0000000000000027
210
0.0
220
1.0
230
-0.0000000000000002
  0
LINE
  5
463D
  8
0
  6
VERDECKT
 62
     1
 10
43.7699481458553521
 20
12.0000000000000195
 30
-0.0000000000000027
 11
43.7699481458553521
 21
4.000000000000016
 31
-0.0000000000000009
210
0.0
220
1.0
230
-0.0000000000000002
  0
LINE
  5
463E
  8
0
  6
VERDECKT
 62
     1
 10
43.7882408939981218
 20
12.0000000000000107
 30
-0.0000000000000027
 11
45.7081300844602225
 21
12.0000000000000107
 31
-0.0000000000000027
210
0.0
220
1.0
230
-0.0000000000000002
  0
LINE
  5
463F
  8
0
  6
VERDECKT
 62
     1
 10
43.7882408939981218
 20
4.0000000000000107
 30
-0.0000000000000009
 11
45.7081300844602225
 21
4.0000000000000098
 31
-0.0000000000000009
210
0.0
220
1.0
230
-0.0000000000000002
  0
LINE
  5
4640
  8
0
  6
VERDECKT
 62
     1
 10
38.2154629608540972
 20
12.0
 30
-0.0000000000000027
 11
38.2154629608540972
 21
4.000000000000016
 31
-0.0000000000000009
210
0.0
220
1.0
230
-0.0000000000000002
  0
LINE
  5
4641
  8
0
  6
VERDECKT
 62
     1
 10
38.2154629608540972
 20
12.0
 30
-0.0000000000000027
 11
39.9531893476063189
 21
12.0
 31
-0.0000000000000027
210
0.0
220
1.0
230
-0.0000000000000002
  0
LINE
  5
4642
  8
0
  6
VERDECKT
 62
     1
 10
38.2154629608540972
 20
4.0000000000000142
 30
-0.0000000000000009
 11
39.9531893476063189
 21
4.0000000000000133
 31
-0.0000000000000009
210
0.0
220
1.0
230
-0.0000000000000002
  0
LINE
  5
4643
  8
0
  6
VERDECKT
 62
     1
 10
30.0566571291092011
 20
12.0000000000000302
 30
-0.0000000000000027
 11
30.0566571291092011
 21
4.0000000000000311
 31
-0.0000000000000009
210
0.0
220
1.0
230
-0.0000000000000002
  0
LINE
  5
4644
  8
0
  6
VERDECKT
 62
     1
 10
30.0566571291091904
 20
12.0000000000000195
 30
-0.0000000000000027
 11
31.4755047824802787
 21
12.0000000000000195
 31
-0.0000000000000027
210
0.0
220
1.0
230
-0.0000000000000002
  0
LINE
  5
4645
  8
0
  6
VERDECKT
 62
     1
 10
30.0566571291091904
 20
4.0000000000000169
 30
-0.0000000000000009
 11
31.4755047824802787
 21
4.000000000000016
 31
-0.0000000000000009
210
0.0
220
1.0
230
-0.0000000000000002
  0
LINE
  5
4646
  8
0
  6
VERDECKT
 62
     1
 10
19.8495397849899113
 20
12.0000000000000195
 30
-0.0000000000000027
 11
19.8495397849899113
 21
4.000000000000016
 31
-0.0000000000000009
210
0.0
220
1.0
230
-0.0000000000000002
  0
LINE
  5
4647
  8
0
  6
VERDECKT
 62
     1
 10
19.8495397849899113
 20
12.0000000000000195
 30
-0.0000000000000027
 11
20.8528165821592317
 21
12.0000000000000195
 31
-0.0000000000000027
210
0.0
220
1.0
230
-0.0000000000000002
  0
LINE
  5
4648
  8
0
  6
VERDECKT
 62
     1
 10
19.8495397849899113
 20
4.0000000000000222
 30
-0.0000000000000009
 11
20.8528165821592317
 21
4.0000000000000222
 31
-0.0000000000000009
210
0.0
220
1.0
230
-0.0000000000000002
  0
LINE
  5
4649
  8
0
  6
VERDECKT
 62
     1
 10
8.2897091074390516
 20
12.0000000000000302
 30
-0.0000000000000027
 11
8.2897091074390516
 21
4.000000000000032
 31
-0.0000000000000009
210
0.0
220
1.0
230
-0.0000000000000002
  0
LINE
  5
464A
  8
0
  6
VERDECKT
 62
     1
 10
8.2897091074390552
 20
12.0000000000000302
 30
-0.0000000000000027
 11
8.8090433926728071
 21
12.0000000000000302
 31
-0.0000000000000027
210
0.0
220
1.0
230
-0.0000000000000002
  0
LINE
  5
464B
  8
0
  6
VERDECKT
 62
     1
 10
8.2897091074390552
 20
4.0000000000000258
 30
-0.0000000000000009
 11
8.8090433926728071
 21
4.0000000000000258
 31
-0.0000000000000009
210
0.0
220
1.0
230
-0.0000000000000002
  0
LINE
  5
464C
  8
0
  6
VERDECKT
 62
     1
 10
47.6932988427723785
 20
12.0000000000000107
 30
-0.0000000000000027
 11
48.3481372923145898
 21
12.0000000000000107
 31
-0.0000000000000027
210
0.0
220
1.0
230
-0.0000000000000002
  0
LINE
  5
464D
  8
0
  6
VERDECKT
 62
     1
 10
-30.05665712910913
 20
12.0000000000000497
 30
-0.0000000000000027
 11
-31.4755047824802183
 21
12.0000000000000497
 31
-0.0000000000000027
210
0.0
220
1.0
230
-0.0000000000000002
  0
LINE
  5
464E
  8
0
  6
VERDECKT
 62
     1
 10
-38.2154629608540688
 20
12.0000000000000497
 30
-0.0000000000000027
 11
-39.9531893476062905
 21
12.0000000000000497
 31
-0.0000000000000027
210
0.0
220
1.0
230
-0.0000000000000002
  0
LINE
  5
464F
  8
0
  6
VERDECKT
 62
     1
 10
-43.7882408939981005
 20
12.0000000000000497
 30
-0.0000000000000027
 11
-45.708130084460187
 21
12.0000000000000497
 31
-0.0000000000000027
210
0.0
220
1.0
230
-0.0000000000000002
  0
LINE
  5
4650
  8
0
  6
VERDECKT
 62
     1
 10
-47.6932988427723501
 20
12.0000000000000497
 30
-0.0000000000000027
 11
-48.3481372923145685
 21
12.0000000000000497
 31
-0.0000000000000027
210
0.0
220
1.0
230
-0.0000000000000002
  0
LINE
  5
4651
  8
0
  6
VERDECKT
 62
     1
 10
46.341583697975949
 20
12.0000000000000195
 30
-0.0000000000000027
 11
46.341583697975949
 21
4.0000000000000151
 31
-0.0000000000000009
210
0.0
220
1.0
230
-0.0000000000000002
  0
LINE
  5
4652
  8
0
  6
VERDECKT
 62
     1
 10
47.6932988427723785
 20
4.0000000000000089
 30
-0.0000000000000009
 11
48.3481372923145898
 21
4.000000000000008
 31
-0.0000000000000009
210
0.0
220
1.0
230
-0.0000000000000002
  0
LINE
  5
4653
  8
0
  6
VERDECKT
 62
     1
 10
-47.6932988427723501
 20
4.000000000000048
 30
-0.0000000000000009
 11
-48.3481372923145685
 21
4.0000000000000488
 31
-0.0000000000000009
210
0.0
220
1.0
230
-0.0000000000000002
  0
LINE
  5
4654
  8
0
  6
VERDECKT
 62
     1
 10
-43.7882408939981005
 20
4.0000000000000551
 30
-0.0000000000000009
 11
-45.708130084460187
 21
4.000000000000056
 31
-0.0000000000000009
210
0.0
220
1.0
230
-0.0000000000000002
  0
LINE
  5
4655
  8
0
  6
VERDECKT
 62
     1
 10
-38.2154629608540688
 20
4.0000000000000471
 30
-0.0000000000000009
 11
-39.9531893476062905
 21
4.000000000000048
 31
-0.0000000000000009
210
0.0
220
1.0
230
-0.0000000000000002
  0
LINE
  5
4656
  8
0
  6
VERDECKT
 62
     1
 10
-30.05665712910913
 20
4.0000000000000444
 30
-0.0000000000000009
 11
-31.4755047824802183
 21
4.0000000000000453
 31
-0.0000000000000009
210
0.0
220
1.0
230
-0.0000000000000002
  0
LINE
  5
4657
  8
0
  6
VERDECKT
 62
     1
 10
-8.2897091074390001
 20
4.0000000000000373
 30
-0.0000000000000009
 11
-8.8090433926727592
 21
4.0000000000000373
 31
-0.0000000000000009
210
0.0
220
1.0
230
-0.0000000000000002
  0
LINE
  5
4658
  8
0
  6
VERDECKT
 62
     1
 10
-8.2897091074389948
 20
4.0000000000000311
 30
-0.0000000000000009
 11
-8.2897091074389948
 21
12.0000000000000302
 31
-0.0000000000000027
210
0.0
220
1.0
230
-0.0000000000000002
  0
LINE
  5
4659
  8
0
  6
VERDECKT
 62
     1
 10
-8.2897091074390001
 20
12.0000000000000409
 30
-0.0000000000000027
 11
-8.8090433926727592
 21
12.0000000000000409
 31
-0.0000000000000027
210
0.0
220
1.0
230
-0.0000000000000002
  0
LINE
  5
465A
  8
0
  6
VERDECKT
 62
     1
 10
-30.0566571291091407
 20
4.0000000000000311
 30
-0.0000000000000009
 11
-30.0566571291091407
 21
12.0000000000000302
 31
-0.0000000000000027
210
0.0
220
1.0
230
-0.0000000000000002
  0
LINE
  5
465B
  8
0
  6
VERDECKT
 62
     1
 10
-38.2154629608540688
 20
4.0000000000000453
 30
-0.0000000000000009
 11
-38.2154629608540688
 21
12.0000000000000497
 31
-0.0000000000000027
210
0.0
220
1.0
230
-0.0000000000000002
  0
LINE
  5
465C
  8
0
  6
VERDECKT
 62
     1
 10
-43.7699481458553521
 20
4.0000000000000444
 30
-0.0000000000000009
 11
-43.7699481458553521
 21
12.0000000000000409
 31
-0.0000000000000027
210
0.0
220
1.0
230
-0.0000000000000002
  0
LINE
  5
465D
  8
0
  6
VERDECKT
 62
     1
 10
-46.341583697975949
 20
4.0000000000000426
 30
-0.0000000000000009
 11
-46.341583697975949
 21
12.0000000000000409
 31
-0.0000000000000027
210
0.0
220
1.0
230
-0.0000000000000002
  0
LINE
  5
465E
  8
0
  6
VERDECKT
 62
     1
 10
-19.8495397849903306
 20
160.0
 30
-0.0000000000000355
 11
-19.8495397849903306
 21
168.0
 31
-0.0000000000000373
210
0.0
220
1.0
230
-0.0000000000000002
  0
LINE
  5
465F
  8
0
  6
VERDECKT
 62
     1
 10
-19.8495397849903412
 20
160.0
 30
-0.0000000000000355
 11
-20.8528165821596616
 21
160.0
 31
-0.0000000000000355
210
0.0
220
1.0
230
-0.0000000000000002
  0
LINE
  5
4660
  8
0
  6
VERDECKT
 62
     1
 10
-19.8495397849903412
 20
168.0
 30
-0.0000000000000373
 11
-20.8528165821596616
 21
168.0
 31
-0.0000000000000373
210
0.0
220
1.0
230
-0.0000000000000002
  0
LINE
  5
4661
  8
0
  6
VERDECKT
 62
     1
 10
43.7699481458553166
 20
167.9999999999998863
 30
-0.0000000000000373
 11
43.7699481458553166
 21
159.9999999999998863
 31
-0.0000000000000355
210
0.0
220
1.0
230
-0.0000000000000002
  0
LINE
  5
4662
  8
0
  6
VERDECKT
 62
     1
 10
43.7882408939980223
 20
167.9999999999998863
 30
-0.0000000000000373
 11
45.7081300844601799
 21
167.9999999999998863
 31
-0.0000000000000373
210
0.0
220
1.0
230
-0.0000000000000002
  0
LINE
  5
4663
  8
0
  6
VERDECKT
 62
     1
 10
43.7882408939980223
 20
159.9999999999998863
 30
-0.0000000000000355
 11
45.7081300844601799
 21
159.9999999999998863
 31
-0.0000000000000355
210
0.0
220
1.0
230
-0.0000000000000002
  0
LINE
  5
4664
  8
0
  6
VERDECKT
 62
     1
 10
38.2154629608539622
 20
167.9999999999998863
 30
-0.0000000000000373
 11
38.2154629608539622
 21
159.9999999999998863
 31
-0.0000000000000355
210
0.0
220
1.0
230
-0.0000000000000002
  0
LINE
  5
4665
  8
0
  6
VERDECKT
 62
     1
 10
38.2154629608539267
 20
167.9999999999998863
 30
-0.0000000000000373
 11
39.9531893476061626
 21
167.9999999999998863
 31
-0.0000000000000373
210
0.0
220
1.0
230
-0.0000000000000002
  0
LINE
  5
4666
  8
0
  6
VERDECKT
 62
     1
 10
38.2154629608539267
 20
159.9999999999998863
 30
-0.0000000000000355
 11
39.9531893476061626
 21
159.9999999999998863
 31
-0.0000000000000355
210
0.0
220
1.0
230
-0.0000000000000002
  0
LINE
  5
4667
  8
0
  6
VERDECKT
 62
     1
 10
30.05665712910886
 20
168.0
 30
-0.0000000000000373
 11
30.05665712910886
 21
160.0
 31
-0.0000000000000355
210
0.0
220
1.0
230
-0.0000000000000002
  0
LINE
  5
4668
  8
0
  6
VERDECKT
 62
     1
 10
30.05665712910886
 20
168.0
 30
-0.0000000000000373
 11
31.475504782479959
 21
167.9999999999998863
 31
-0.0000000000000373
210
0.0
220
1.0
230
-0.0000000000000002
  0
LINE
  5
4669
  8
0
  6
VERDECKT
 62
     1
 10
30.05665712910886
 20
160.0
 30
-0.0000000000000355
 11
31.475504782479959
 21
159.9999999999998863
 31
-0.0000000000000355
210
0.0
220
1.0
230
-0.0000000000000002
  0
LINE
  5
466A
  8
0
  6
VERDECKT
 62
     1
 10
19.8495397849894388
 20
167.9999999999998863
 30
-0.0000000000000373
 11
19.8495397849894388
 21
159.9999999999998863
 31
-0.0000000000000355
210
0.0
220
1.0
230
-0.0000000000000002
  0
LINE
  5
466B
  8
0
  6
VERDECKT
 62
     1
 10
19.8495397849894495
 20
168.0
 30
-0.0000000000000373
 11
20.8528165821587699
 21
168.0
 31
-0.0000000000000373
210
0.0
220
1.0
230
-0.0000000000000002
  0
LINE
  5
466C
  8
0
  6
VERDECKT
 62
     1
 10
19.8495397849894495
 20
160.0
 30
-0.0000000000000355
 11
20.8528165821587699
 21
160.0
 31
-0.0000000000000355
210
0.0
220
1.0
230
-0.0000000000000002
  0
LINE
  5
466D
  8
0
  6
VERDECKT
 62
     1
 10
8.289709107438469
 20
168.0
 30
-0.0000000000000373
 11
8.289709107438469
 21
160.0
 31
-0.0000000000000355
210
0.0
220
1.0
230
-0.0000000000000002
  0
LINE
  5
466E
  8
0
  6
VERDECKT
 62
     1
 10
8.2897091074384868
 20
168.0
 30
-0.0000000000000373
 11
8.8090433926722458
 21
168.0
 31
-0.0000000000000373
210
0.0
220
1.0
230
-0.0000000000000002
  0
LINE
  5
466F
  8
0
  6
VERDECKT
 62
     1
 10
8.2897091074384868
 20
160.0
 30
-0.0000000000000355
 11
8.8090433926722458
 21
160.0
 31
-0.0000000000000355
210
0.0
220
1.0
230
-0.0000000000000002
  0
LINE
  5
4670
  8
0
  6
VERDECKT
 62
     1
 10
47.6932988427723501
 20
167.9999999999998863
 30
-0.0000000000000373
 11
48.3481372923145898
 21
167.9999999999998863
 31
-0.0000000000000373
210
0.0
220
1.0
230
-0.0000000000000002
  0
LINE
  5
4671
  8
0
  6
VERDECKT
 62
     1
 10
-30.0566571291094604
 20
168.0
 30
-0.0000000000000373
 11
-31.4755047824805487
 21
168.0
 31
-0.0000000000000373
210
0.0
220
1.0
230
-0.0000000000000002
  0
LINE
  5
4672
  8
0
  6
VERDECKT
 62
     1
 10
-38.2154629608542109
 20
168.0
 30
-0.0000000000000373
 11
-39.9531893476064468
 21
168.0
 31
-0.0000000000000373
210
0.0
220
1.0
230
-0.0000000000000002
  0
LINE
  5
4673
  8
0
  6
VERDECKT
 62
     1
 10
-43.7882408939982213
 20
168.0
 30
-0.0000000000000373
 11
-45.7081300844602367
 21
168.0
 31
-0.0000000000000373
210
0.0
220
1.0
230
-0.0000000000000002
  0
LINE
  5
4674
  8
0
  6
VERDECKT
 62
     1
 10
-47.6932988427723785
 20
168.0
 30
-0.0000000000000373
 11
-48.3481372923145685
 21
168.0
 31
-0.0000000000000373
210
0.0
220
1.0
230
-0.0000000000000002
  0
LINE
  5
4675
  8
0
  6
VERDECKT
 62
     1
 10
46.341583697975949
 20
167.9999999999998863
 30
-0.0000000000000373
 11
46.341583697975949
 21
159.9999999999998863
 31
-0.0000000000000355
210
0.0
220
1.0
230
-0.0000000000000002
  0
LINE
  5
4676
  8
0
  6
VERDECKT
 62
     1
 10
47.6932988427723501
 20
159.9999999999998863
 30
-0.0000000000000355
 11
48.3481372923145898
 21
159.9999999999998863
 31
-0.0000000000000355
210
0.0
220
1.0
230
-0.0000000000000002
  0
LINE
  5
4677
  8
0
  6
VERDECKT
 62
     1
 10
-47.6932988427723785
 20
160.0
 30
-0.0000000000000355
 11
-48.3481372923145685
 21
160.0
 31
-0.0000000000000355
210
0.0
220
1.0
230
-0.0000000000000002
  0
LINE
  5
4678
  8
0
  6
VERDECKT
 62
     1
 10
-43.7882408939982213
 20
160.0
 30
-0.0000000000000355
 11
-45.7081300844602367
 21
160.0
 31
-0.0000000000000355
210
0.0
220
1.0
230
-0.0000000000000002
  0
LINE
  5
4679
  8
0
  6
VERDECKT
 62
     1
 10
-38.2154629608542109
 20
160.0
 30
-0.0000000000000355
 11
-39.9531893476064468
 21
160.0
 31
-0.0000000000000355
210
0.0
220
1.0
230
-0.0000000000000002
  0
LINE
  5
467A
  8
0
  6
VERDECKT
 62
     1
 10
-30.0566571291094604
 20
160.0
 30
-0.0000000000000355
 11
-31.4755047824805487
 21
160.0
 31
-0.0000000000000355
210
0.0
220
1.0
230
-0.0000000000000002
  0
LINE
  5
467B
  8
0
  6
VERDECKT
 62
     1
 10
-8.2897091074395721
 20
160.0
 30
-0.0000000000000355
 11
-8.8090433926733311
 21
160.0
 31
-0.0000000000000355
210
0.0
220
1.0
230
-0.0000000000000002
  0
LINE
  5
467C
  8
0
  6
VERDECKT
 62
     1
 10
-8.2897091074395775
 20
160.0
 30
-0.0000000000000355
 11
-8.2897091074395775
 21
168.0
 31
-0.0000000000000373
210
0.0
220
1.0
230
-0.0000000000000002
  0
LINE
  5
467D
  8
0
  6
VERDECKT
 62
     1
 10
-8.2897091074395721
 20
168.0
 30
-0.0000000000000373
 11
-8.8090433926733311
 21
168.0
 31
-0.0000000000000373
210
0.0
220
1.0
230
-0.0000000000000002
  0
LINE
  5
467E
  8
0
  6
VERDECKT
 62
     1
 10
-30.0566571291094498
 20
160.0
 30
-0.0000000000000355
 11
-30.0566571291094498
 21
168.0
 31
-0.0000000000000373
210
0.0
220
1.0
230
-0.0000000000000002
  0
LINE
  5
467F
  8
0
  6
VERDECKT
 62
     1
 10
-38.2154629608542109
 20
160.0
 30
-0.0000000000000355
 11
-38.2154629608542109
 21
168.0
 31
-0.0000000000000373
210
0.0
220
1.0
230
-0.0000000000000002
  0
LINE
  5
4680
  8
0
  6
VERDECKT
 62
     1
 10
-43.7699481458553805
 20
160.0
 30
-0.0000000000000355
 11
-43.7699481458553805
 21
168.0
 31
-0.0000000000000373
210
0.0
220
1.0
230
-0.0000000000000002
  0
LINE
  5
4681
  8
0
  6
VERDECKT
 62
     1
 10
-46.341583697975949
 20
160.0
 30
-0.0000000000000355
 11
-46.341583697975949
 21
168.0
 31
-0.0000000000000373
210
0.0
220
1.0
230
-0.0000000000000002
  0
LINE
  5
4682
  8
0
  6
VERDECKT
 62
     1
 10
-19.8495397849903092
 20
148.0
 30
-0.0000000000000329
 11
-19.8495397849903092
 21
156.0
 31
-0.0000000000000346
210
0.0
220
1.0
230
-0.0000000000000002
  0
LINE
  5
4683
  8
0
  6
VERDECKT
 62
     1
 10
-19.8495397849903199
 20
148.0
 30
-0.0000000000000329
 11
-20.8528165821596403
 21
148.0
 31
-0.0000000000000329
210
0.0
220
1.0
230
-0.0000000000000002
  0
LINE
  5
4684
  8
0
  6
VERDECKT
 62
     1
 10
-19.8495397849903199
 20
156.0
 30
-0.0000000000000346
 11
-20.8528165821596403
 21
156.0
 31
-0.0000000000000346
210
0.0
220
1.0
230
-0.0000000000000002
  0
LINE
  5
4685
  8
0
  6
VERDECKT
 62
     1
 10
43.7699481458553166
 20
156.0
 30
-0.0000000000000346
 11
43.7699481458553166
 21
148.0
 31
-0.0000000000000329
210
0.0
220
1.0
230
-0.0000000000000002
  0
LINE
  5
4686
  8
0
  6
VERDECKT
 62
     1
 10
43.7882408939980223
 20
156.0
 30
-0.0000000000000346
 11
45.7081300844601799
 21
156.0
 31
-0.0000000000000346
210
0.0
220
1.0
230
-0.0000000000000002
  0
LINE
  5
4687
  8
0
  6
VERDECKT
 62
     1
 10
43.7882408939980223
 20
148.0
 30
-0.0000000000000329
 11
45.7081300844601799
 21
148.0
 31
-0.0000000000000329
210
0.0
220
1.0
230
-0.0000000000000002
  0
LINE
  5
4688
  8
0
  6
VERDECKT
 62
     1
 10
38.2154629608539622
 20
156.0
 30
-0.0000000000000346
 11
38.2154629608539622
 21
148.0
 31
-0.0000000000000329
210
0.0
220
1.0
230
-0.0000000000000002
  0
LINE
  5
4689
  8
0
  6
VERDECKT
 62
     1
 10
38.2154629608539622
 20
156.0
 30
-0.0000000000000346
 11
39.953189347606191
 21
156.0
 31
-0.0000000000000346
210
0.0
220
1.0
230
-0.0000000000000002
  0
LINE
  5
468A
  8
0
  6
VERDECKT
 62
     1
 10
38.2154629608539622
 20
148.0
 30
-0.0000000000000329
 11
39.953189347606191
 21
148.0
 31
-0.0000000000000329
210
0.0
220
1.0
230
-0.0000000000000002
  0
LINE
  5
468B
  8
0
  6
VERDECKT
 62
     1
 10
30.0566571291088884
 20
156.0
 30
-0.0000000000000346
 11
30.0566571291088884
 21
148.0
 31
-0.0000000000000329
210
0.0
220
1.0
230
-0.0000000000000002
  0
LINE
  5
468C
  8
0
  6
VERDECKT
 62
     1
 10
30.0566571291088884
 20
156.0
 30
-0.0000000000000346
 11
31.4755047824799803
 21
156.0
 31
-0.0000000000000346
210
0.0
220
1.0
230
-0.0000000000000002
  0
LINE
  5
468D
  8
0
  6
VERDECKT
 62
     1
 10
30.0566571291088884
 20
148.0
 30
-0.0000000000000329
 11
31.4755047824799803
 21
148.0
 31
-0.0000000000000329
210
0.0
220
1.0
230
-0.0000000000000002
  0
LINE
  5
468E
  8
0
  6
VERDECKT
 62
     1
 10
19.8495397849894708
 20
156.0
 30
-0.0000000000000346
 11
19.8495397849894708
 21
148.0
 31
-0.0000000000000329
210
0.0
220
1.0
230
-0.0000000000000002
  0
LINE
  5
468F
  8
0
  6
VERDECKT
 62
     1
 10
19.8495397849894708
 20
156.0
 30
-0.0000000000000346
 11
20.8528165821587912
 21
156.0
 31
-0.0000000000000346
210
0.0
220
1.0
230
-0.0000000000000002
  0
LINE
  5
4690
  8
0
  6
VERDECKT
 62
     1
 10
19.8495397849894708
 20
148.0
 30
-0.0000000000000329
 11
20.8528165821587912
 21
148.0
 31
-0.0000000000000329
210
0.0
220
1.0
230
-0.0000000000000002
  0
LINE
  5
4691
  8
0
  6
VERDECKT
 62
     1
 10
8.2897091074384974
 20
156.0
 30
-0.0000000000000346
 11
8.2897091074384974
 21
148.0
 31
-0.0000000000000329
210
0.0
220
1.0
230
-0.0000000000000002
  0
LINE
  5
4692
  8
0
  6
VERDECKT
 62
     1
 10
8.2897091074385116
 20
156.0
 30
-0.0000000000000346
 11
8.8090433926722689
 21
156.0
 31
-0.0000000000000346
210
0.0
220
1.0
230
-0.0000000000000002
  0
LINE
  5
4693
  8
0
  6
VERDECKT
 62
     1
 10
8.2897091074385116
 20
148.0
 30
-0.0000000000000329
 11
8.8090433926722689
 21
148.0
 31
-0.0000000000000329
210
0.0
220
1.0
230
-0.0000000000000002
  0
LINE
  5
4694
  8
0
  6
VERDECKT
 62
     1
 10
47.6932988427723501
 20
156.0
 30
-0.0000000000000346
 11
48.3481372923145898
 21
156.0
 31
-0.0000000000000346
210
0.0
220
1.0
230
-0.0000000000000002
  0
LINE
  5
4695
  8
0
  6
VERDECKT
 62
     1
 10
-30.0566571291094498
 20
156.0
 30
-0.0000000000000346
 11
-31.475504782480531
 21
156.0
 31
-0.0000000000000346
210
0.0
220
1.0
230
-0.0000000000000002
  0
LINE
  5
4696
  8
0
  6
VERDECKT
 62
     1
 10
-38.215462960854218
 20
156.0
 30
-0.0000000000000346
 11
-39.9531893476064468
 21
156.0
 31
-0.0000000000000346
210
0.0
220
1.0
230
-0.0000000000000002
  0
LINE
  5
4697
  8
0
  6
VERDECKT
 62
     1
 10
-43.7882408939982284
 20
156.0
 30
-0.0000000000000346
 11
-45.7081300844602296
 21
156.0
 31
-0.0000000000000346
210
0.0
220
1.0
230
-0.0000000000000002
  0
LINE
  5
4698
  8
0
  6
VERDECKT
 62
     1
 10
-47.6932988427723785
 20
156.0
 30
-0.0000000000000346
 11
-48.3481372923145685
 21
156.0
 31
-0.0000000000000346
210
0.0
220
1.0
230
-0.0000000000000002
  0
LINE
  5
4699
  8
0
  6
VERDECKT
 62
     1
 10
46.341583697975949
 20
156.0
 30
-0.0000000000000346
 11
46.341583697975949
 21
148.0
 31
-0.0000000000000329
210
0.0
220
1.0
230
-0.0000000000000002
  0
LINE
  5
469A
  8
0
  6
VERDECKT
 62
     1
 10
47.6932988427723501
 20
148.0
 30
-0.0000000000000329
 11
48.3481372923145898
 21
148.0
 31
-0.0000000000000329
210
0.0
220
1.0
230
-0.0000000000000002
  0
LINE
  5
469B
  8
0
  6
VERDECKT
 62
     1
 10
-47.6932988427723785
 20
148.0
 30
-0.0000000000000329
 11
-48.3481372923145685
 21
148.0
 31
-0.0000000000000329
210
0.0
220
1.0
230
-0.0000000000000002
  0
LINE
  5
469C
  8
0
  6
VERDECKT
 62
     1
 10
-43.7882408939982284
 20
148.0
 30
-0.0000000000000329
 11
-45.7081300844602367
 21
148.0
 31
-0.0000000000000329
210
0.0
220
1.0
230
-0.0000000000000002
  0
LINE
  5
469D
  8
0
  6
VERDECKT
 62
     1
 10
-38.215462960854218
 20
148.0
 30
-0.0000000000000329
 11
-39.9531893476064468
 21
148.0
 31
-0.0000000000000329
210
0.0
220
1.0
230
-0.0000000000000002
  0
LINE
  5
469E
  8
0
  6
VERDECKT
 62
     1
 10
-30.0566571291094498
 20
148.0
 30
-0.0000000000000329
 11
-31.475504782480531
 21
148.0
 31
-0.0000000000000329
210
0.0
220
1.0
230
-0.0000000000000002
  0
LINE
  5
469F
  8
0
  6
VERDECKT
 62
     1
 10
-8.2897091074395473
 20
148.0
 30
-0.0000000000000329
 11
-8.8090433926733063
 21
148.0
 31
-0.0000000000000329
210
0.0
220
1.0
230
-0.0000000000000002
  0
LINE
  5
46A0
  8
0
  6
VERDECKT
 62
     1
 10
-8.289709107439549
 20
148.0
 30
-0.0000000000000329
 11
-8.289709107439549
 21
156.0
 31
-0.0000000000000346
210
0.0
220
1.0
230
-0.0000000000000002
  0
LINE
  5
46A1
  8
0
  6
VERDECKT
 62
     1
 10
-8.2897091074395473
 20
156.0
 30
-0.0000000000000346
 11
-8.8090433926733063
 21
156.0
 31
-0.0000000000000346
210
0.0
220
1.0
230
-0.0000000000000002
  0
LINE
  5
46A2
  8
0
  6
VERDECKT
 62
     1
 10
-30.0566571291094284
 20
148.0
 30
-0.0000000000000329
 11
-30.0566571291094284
 21
156.0
 31
-0.0000000000000346
210
0.0
220
1.0
230
-0.0000000000000002
  0
LINE
  5
46A3
  8
0
  6
VERDECKT
 62
     1
 10
-38.2154629608542109
 20
148.0
 30
-0.0000000000000329
 11
-38.2154629608542109
 21
156.0
 31
-0.0000000000000346
210
0.0
220
1.0
230
-0.0000000000000002
  0
LINE
  5
46A4
  8
0
  6
VERDECKT
 62
     1
 10
-43.7699481458553805
 20
148.0
 30
-0.0000000000000329
 11
-43.7699481458553805
 21
156.0
 31
-0.0000000000000346
210
0.0
220
1.0
230
-0.0000000000000002
  0
LINE
  5
46A5
  8
0
  6
VERDECKT
 62
     1
 10
-46.341583697975949
 20
148.0
 30
-0.0000000000000329
 11
-46.341583697975949
 21
156.0
 31
-0.0000000000000346
210
0.0
220
1.0
230
-0.0000000000000002
  0
LINE
  5
46A6
  8
0
  6
VERDECKT
 62
     1
 10
43.7699481458553521
 20
144.0
 30
-0.000000000000032
 11
43.7699481458553521
 21
136.0
 31
-0.0000000000000302
210
0.0
220
1.0
230
-0.0000000000000002
  0
LINE
  5
46A7
  8
0
  6
VERDECKT
 62
     1
 10
43.7882408939980223
 20
144.0
 30
-0.000000000000032
 11
45.7081300844601728
 21
144.0
 31
-0.000000000000032
210
0.0
220
1.0
230
-0.0000000000000002
  0
LINE
  5
46A8
  8
0
  6
VERDECKT
 62
     1
 10
43.7882408939980223
 20
136.0
 30
-0.0000000000000302
 11
45.7081300844601728
 21
136.0
 31
-0.0000000000000302
210
0.0
220
1.0
230
-0.0000000000000002
  0
LINE
  5
46A9
  8
0
  6
VERDECKT
 62
     1
 10
38.2154629608539622
 20
144.0
 30
-0.000000000000032
 11
38.2154629608539622
 21
136.0
 31
-0.0000000000000302
210
0.0
220
1.0
230
-0.0000000000000002
  0
LINE
  5
46AA
  8
0
  6
VERDECKT
 62
     1
 10
38.2154629608539622
 20
144.0
 30
-0.000000000000032
 11
39.953189347606191
 21
144.0
 31
-0.000000000000032
210
0.0
220
1.0
230
-0.0000000000000002
  0
LINE
  5
46AB
  8
0
  6
VERDECKT
 62
     1
 10
38.2154629608539622
 20
136.0
 30
-0.0000000000000302
 11
39.953189347606191
 21
136.0
 31
-0.0000000000000302
210
0.0
220
1.0
230
-0.0000000000000002
  0
LINE
  5
46AC
  8
0
  6
VERDECKT
 62
     1
 10
30.0566571291089204
 20
144.0
 30
-0.000000000000032
 11
30.0566571291089204
 21
136.0
 31
-0.0000000000000302
210
0.0
220
1.0
230
-0.0000000000000002
  0
LINE
  5
46AD
  8
0
  6
VERDECKT
 62
     1
 10
30.0566571291089204
 20
144.0
 30
-0.000000000000032
 11
31.4755047824800016
 21
144.0
 31
-0.000000000000032
210
0.0
220
1.0
230
-0.0000000000000002
  0
LINE
  5
46AE
  8
0
  6
VERDECKT
 62
     1
 10
30.0566571291089204
 20
136.0
 30
-0.0000000000000302
 11
31.4755047824800016
 21
136.0
 31
-0.0000000000000302
210
0.0
220
1.0
230
-0.0000000000000002
  0
LINE
  5
46AF
  8
0
  6
VERDECKT
 62
     1
 10
19.8495397849894992
 20
144.0
 30
-0.000000000000032
 11
19.8495397849894992
 21
136.0
 31
-0.0000000000000302
210
0.0
220
1.0
230
-0.0000000000000002
  0
LINE
  5
46B0
  8
0
  6
VERDECKT
 62
     1
 10
19.8495397849895099
 20
144.0
 30
-0.000000000000032
 11
20.8528165821588303
 21
144.0
 31
-0.000000000000032
210
0.0
220
1.0
230
-0.0000000000000002
  0
LINE
  5
46B1
  8
0
  6
VERDECKT
 62
     1
 10
19.8495397849895099
 20
136.0
 30
-0.0000000000000302
 11
20.8528165821588303
 21
136.0
 31
-0.0000000000000302
210
0.0
220
1.0
230
-0.0000000000000002
  0
LINE
  5
46B2
  8
0
  6
VERDECKT
 62
     1
 10
8.2897091074385685
 20
144.0
 30
-0.000000000000032
 11
8.2897091074385685
 21
136.0
 31
-0.0000000000000302
210
0.0
220
1.0
230
-0.0000000000000002
  0
LINE
  5
46B3
  8
0
  6
VERDECKT
 62
     1
 10
8.2897091074385667
 20
144.0
 30
-0.000000000000032
 11
8.8090433926723222
 21
144.0
 31
-0.000000000000032
210
0.0
220
1.0
230
-0.0000000000000002
  0
LINE
  5
46B4
  8
0
  6
VERDECKT
 62
     1
 10
8.2897091074385667
 20
136.0
 30
-0.0000000000000302
 11
8.8090433926723222
 21
136.0
 31
-0.0000000000000302
210
0.0
220
1.0
230
-0.0000000000000002
  0
LINE
  5
46B5
  8
0
  6
VERDECKT
 62
     1
 10
47.6932988427723501
 20
144.0
 30
-0.000000000000032
 11
48.3481372923145898
 21
144.0
 31
-0.000000000000032
210
0.0
220
1.0
230
-0.0000000000000002
  0
LINE
  5
46B6
  8
0
  6
VERDECKT
 62
     1
 10
-8.2897091074394922
 20
144.0
 30
-0.000000000000032
 11
-8.8090433926732512
 21
144.0
 31
-0.000000000000032
210
0.0
220
1.0
230
-0.0000000000000002
  0
LINE
  5
46B7
  8
0
  6
VERDECKT
 62
     1
 10
-19.8495397849902702
 20
144.0
 30
-0.000000000000032
 11
-20.8528165821595906
 21
144.0
 31
-0.000000000000032
210
0.0
220
1.0
230
-0.0000000000000002
  0
LINE
  5
46B8
  8
0
  6
VERDECKT
 62
     1
 10
-30.0566571291094213
 20
144.0
 30
-0.000000000000032
 11
-31.475504782480499
 21
144.0
 31
-0.000000000000032
210
0.0
220
1.0
230
-0.0000000000000002
  0
LINE
  5
46B9
  8
0
  6
VERDECKT
 62
     1
 10
-38.2154629608542109
 20
144.0
 30
-0.000000000000032
 11
-39.9531893476064397
 21
144.0
 31
-0.000000000000032
210
0.0
220
1.0
230
-0.0000000000000002
  0
LINE
  5
46BA
  8
0
  6
VERDECKT
 62
     1
 10
-43.7882408939982071
 20
144.0
 30
-0.000000000000032
 11
-45.7081300844602225
 21
144.0
 31
-0.000000000000032
210
0.0
220
1.0
230
-0.0000000000000002
  0
LINE
  5
46BB
  8
0
  6
VERDECKT
 62
     1
 10
-47.6932988427723501
 20
144.0
 30
-0.000000000000032
 11
-48.3481372923145685
 21
144.0
 31
-0.000000000000032
210
0.0
220
1.0
230
-0.0000000000000002
  0
LINE
  5
46BC
  8
0
  6
VERDECKT
 62
     1
 10
46.341583697975949
 20
144.0
 30
-0.000000000000032
 11
46.341583697975949
 21
136.0
 31
-0.0000000000000302
210
0.0
220
1.0
230
-0.0000000000000002
  0
LINE
  5
46BD
  8
0
  6
VERDECKT
 62
     1
 10
47.6932988427723501
 20
136.0
 30
-0.0000000000000302
 11
48.3481372923145898
 21
136.0
 31
-0.0000000000000302
210
0.0
220
1.0
230
-0.0000000000000002
  0
LINE
  5
46BE
  8
0
  6
VERDECKT
 62
     1
 10
-47.6932988427723501
 20
136.0
 30
-0.0000000000000302
 11
-48.3481372923145685
 21
136.0
 31
-0.0000000000000302
210
0.0
220
1.0
230
-0.0000000000000002
  0
LINE
  5
46BF
  8
0
  6
VERDECKT
 62
     1
 10
-43.7882408939982213
 20
136.0
 30
-0.0000000000000302
 11
-45.7081300844602225
 21
136.0
 31
-0.0000000000000302
210
0.0
220
1.0
230
-0.0000000000000002
  0
LINE
  5
46C0
  8
0
  6
VERDECKT
 62
     1
 10
-38.2154629608542109
 20
136.0
 30
-0.0000000000000302
 11
-39.9531893476064397
 21
136.0
 31
-0.0000000000000302
210
0.0
220
1.0
230
-0.0000000000000002
  0
LINE
  5
46C1
  8
0
  6
VERDECKT
 62
     1
 10
-30.0566571291094213
 20
136.0
 30
-0.0000000000000302
 11
-31.475504782480499
 21
136.0
 31
-0.0000000000000302
210
0.0
220
1.0
230
-0.0000000000000002
  0
LINE
  5
46C2
  8
0
  6
VERDECKT
 62
     1
 10
-19.8495397849902702
 20
136.0
 30
-0.0000000000000302
 11
-20.8528165821595906
 21
136.0
 31
-0.0000000000000302
210
0.0
220
1.0
230
-0.0000000000000002
  0
LINE
  5
46C3
  8
0
  6
VERDECKT
 62
     1
 10
-8.2897091074394922
 20
136.0
 30
-0.0000000000000302
 11
-8.8090433926732512
 21
136.0
 31
-0.0000000000000302
210
0.0
220
1.0
230
-0.0000000000000002
  0
LINE
  5
46C4
  8
0
  6
VERDECKT
 62
     1
 10
-8.2897091074394922
 20
136.0
 30
-0.0000000000000302
 11
-8.2897091074394922
 21
144.0
 31
-0.000000000000032
210
0.0
220
1.0
230
-0.0000000000000002
  0
LINE
  5
46C5
  8
0
  6
VERDECKT
 62
     1
 10
-19.8495397849902702
 20
136.0
 30
-0.0000000000000302
 11
-19.8495397849902702
 21
144.0
 31
-0.000000000000032
210
0.0
220
1.0
230
-0.0000000000000002
  0
LINE
  5
46C6
  8
0
  6
VERDECKT
 62
     1
 10
-30.0566571291094
 20
136.0
 30
-0.0000000000000302
 11
-30.0566571291094
 21
144.0
 31
-0.000000000000032
210
0.0
220
1.0
230
-0.0000000000000002
  0
LINE
  5
46C7
  8
0
  6
VERDECKT
 62
     1
 10
-38.2154629608541825
 20
136.0
 30
-0.0000000000000302
 11
-38.2154629608541825
 21
144.0
 31
-0.000000000000032
210
0.0
220
1.0
230
-0.0000000000000002
  0
LINE
  5
46C8
  8
0
  6
VERDECKT
 62
     1
 10
-43.7699481458553805
 20
136.0
 30
-0.0000000000000302
 11
-43.7699481458553805
 21
144.0
 31
-0.000000000000032
210
0.0
220
1.0
230
-0.0000000000000002
  0
LINE
  5
46C9
  8
0
  6
VERDECKT
 62
     1
 10
-46.341583697975949
 20
136.0
 30
-0.0000000000000302
 11
-46.341583697975949
 21
144.0
 31
-0.000000000000032
210
0.0
220
1.0
230
-0.0000000000000002
  0
LINE
  5
46CA
  8
0
  6
VERDECKT
 62
     1
 10
-19.8495397849902417
 20
124.0
 30
-0.0000000000000275
 11
-19.8495397849902417
 21
132.0
 31
-0.0000000000000293
210
0.0
220
1.0
230
-0.0000000000000002
  0
LINE
  5
46CB
  8
0
  6
VERDECKT
 62
     1
 10
-19.8495397849902417
 20
124.0
 30
-0.0000000000000275
 11
-20.8528165821595586
 21
124.0
 31
-0.0000000000000275
210
0.0
220
1.0
230
-0.0000000000000002
  0
LINE
  5
46CC
  8
0
  6
VERDECKT
 62
     1
 10
-19.8495397849902417
 20
132.0
 30
-0.0000000000000293
 11
-20.8528165821595586
 21
132.0
 31
-0.0000000000000293
210
0.0
220
1.0
230
-0.0000000000000002
  0
LINE
  5
46CD
  8
0
  6
VERDECKT
 62
     1
 10
43.7699481458553521
 20
132.0
 30
-0.0000000000000293
 11
43.7699481458553521
 21
124.0
 31
-0.0000000000000275
210
0.0
220
1.0
230
-0.0000000000000002
  0
LINE
  5
46CE
  8
0
  6
VERDECKT
 62
     1
 10
43.7882408939980365
 20
132.0
 30
-0.0000000000000293
 11
45.7081300844601799
 21
132.0
 31
-0.0000000000000293
210
0.0
220
1.0
230
-0.0000000000000002
  0
LINE
  5
46CF
  8
0
  6
VERDECKT
 62
     1
 10
43.7882408939980365
 20
124.0
 30
-0.0000000000000275
 11
45.7081300844601799
 21
124.0
 31
-0.0000000000000275
210
0.0
220
1.0
230
-0.0000000000000002
  0
LINE
  5
46D0
  8
0
  6
VERDECKT
 62
     1
 10
38.2154629608539622
 20
132.0
 30
-0.0000000000000293
 11
38.2154629608539622
 21
124.0
 31
-0.0000000000000275
210
0.0
220
1.0
230
-0.0000000000000002
  0
LINE
  5
46D1
  8
0
  6
VERDECKT
 62
     1
 10
38.2154629608539622
 20
132.0
 30
-0.0000000000000293
 11
39.9531893476062123
 21
132.0
 31
-0.0000000000000293
210
0.0
220
1.0
230
-0.0000000000000002
  0
LINE
  5
46D2
  8
0
  6
VERDECKT
 62
     1
 10
38.2154629608539622
 20
124.0
 30
-0.0000000000000275
 11
39.9531893476062123
 21
124.0
 31
-0.0000000000000275
210
0.0
220
1.0
230
-0.0000000000000002
  0
LINE
  5
46D3
  8
0
  6
VERDECKT
 62
     1
 10
30.0566571291089417
 20
132.0
 30
-0.0000000000000293
 11
30.0566571291089417
 21
124.0
 31
-0.0000000000000275
210
0.0
220
1.0
230
-0.0000000000000002
  0
LINE
  5
46D4
  8
0
  6
VERDECKT
 62
     1
 10
30.0566571291089417
 20
132.0
 30
-0.0000000000000293
 11
31.4755047824800407
 21
132.0
 31
-0.0000000000000293
210
0.0
220
1.0
230
-0.0000000000000002
  0
LINE
  5
46D5
  8
0
  6
VERDECKT
 62
     1
 10
30.0566571291089417
 20
124.0
 30
-0.0000000000000275
 11
31.4755047824800407
 21
124.0
 31
-0.0000000000000275
210
0.0
220
1.0
230
-0.0000000000000002
  0
LINE
  5
46D6
  8
0
  6
VERDECKT
 62
     1
 10
19.8495397849895312
 20
132.0
 30
-0.0000000000000293
 11
19.8495397849895312
 21
124.0
 31
-0.0000000000000275
210
0.0
220
1.0
230
-0.0000000000000002
  0
LINE
  5
46D7
  8
0
  6
VERDECKT
 62
     1
 10
19.8495397849895383
 20
132.0
 30
-0.0000000000000293
 11
20.8528165821588587
 21
132.0
 31
-0.0000000000000293
210
0.0
220
1.0
230
-0.0000000000000002
  0
LINE
  5
46D8
  8
0
  6
VERDECKT
 62
     1
 10
19.8495397849895383
 20
124.0
 30
-0.0000000000000275
 11
20.8528165821588587
 21
124.0
 31
-0.0000000000000275
210
0.0
220
1.0
230
-0.0000000000000002
  0
LINE
  5
46D9
  8
0
  6
VERDECKT
 62
     1
 10
8.2897091074385951
 20
132.0
 30
-0.0000000000000293
 11
8.2897091074385951
 21
124.0
 31
-0.0000000000000275
210
0.0
220
1.0
230
-0.0000000000000002
  0
LINE
  5
46DA
  8
0
  6
VERDECKT
 62
     1
 10
8.2897091074386093
 20
132.0
 30
-0.0000000000000293
 11
8.8090433926723648
 21
132.0
 31
-0.0000000000000293
210
0.0
220
1.0
230
-0.0000000000000002
  0
LINE
  5
46DB
  8
0
  6
VERDECKT
 62
     1
 10
8.2897091074386093
 20
124.0
 30
-0.0000000000000275
 11
8.8090433926723648
 21
124.0
 31
-0.0000000000000275
210
0.0
220
1.0
230
-0.0000000000000002
  0
LINE
  5
46DC
  8
0
  6
VERDECKT
 62
     1
 10
47.6932988427723501
 20
132.0
 30
-0.0000000000000293
 11
48.3481372923145898
 21
132.0
 31
-0.0000000000000293
210
0.0
220
1.0
230
-0.0000000000000002
  0
LINE
  5
46DD
  8
0
  6
VERDECKT
 62
     1
 10
-30.0566571291093894
 20
132.0
 30
-0.0000000000000293
 11
-31.4755047824804812
 21
132.0
 31
-0.0000000000000293
210
0.0
220
1.0
230
-0.0000000000000002
  0
LINE
  5
46DE
  8
0
  6
VERDECKT
 62
     1
 10
-38.2154629608541896
 20
132.0
 30
-0.0000000000000293
 11
-39.9531893476064326
 21
132.0
 31
-0.0000000000000293
210
0.0
220
1.0
230
-0.0000000000000002
  0
LINE
  5
46DF
  8
0
  6
VERDECKT
 62
     1
 10
-43.7882408939982213
 20
132.0
 30
-0.0000000000000293
 11
-45.7081300844602225
 21
132.0
 31
-0.0000000000000293
210
0.0
220
1.0
230
-0.0000000000000002
  0
LINE
  5
46E0
  8
0
  6
VERDECKT
 62
     1
 10
-47.6932988427723501
 20
132.0
 30
-0.0000000000000293
 11
-48.3481372923145685
 21
132.0
 31
-0.0000000000000293
210
0.0
220
1.0
230
-0.0000000000000002
  0
LINE
  5
46E1
  8
0
  6
VERDECKT
 62
     1
 10
46.341583697975949
 20
132.0
 30
-0.0000000000000293
 11
46.341583697975949
 21
124.0
 31
-0.0000000000000275
210
0.0
220
1.0
230
-0.0000000000000002
  0
LINE
  5
46E2
  8
0
  6
VERDECKT
 62
     1
 10
47.6932988427723501
 20
124.0
 30
-0.0000000000000275
 11
48.3481372923145898
 21
124.0
 31
-0.0000000000000275
210
0.0
220
1.0
230
-0.0000000000000002
  0
LINE
  5
46E3
  8
0
  6
VERDECKT
 62
     1
 10
-47.6932988427723501
 20
124.0
 30
-0.0000000000000275
 11
-48.3481372923145685
 21
124.0
 31
-0.0000000000000275
210
0.0
220
1.0
230
-0.0000000000000002
  0
LINE
  5
46E4
  8
0
  6
VERDECKT
 62
     1
 10
-43.7882408939982213
 20
124.0
 30
-0.0000000000000275
 11
-45.7081300844602225
 21
124.0
 31
-0.0000000000000275
210
0.0
220
1.0
230
-0.0000000000000002
  0
LINE
  5
46E5
  8
0
  6
VERDECKT
 62
     1
 10
-38.2154629608541896
 20
124.0
 30
-0.0000000000000275
 11
-39.9531893476064326
 21
124.0
 31
-0.0000000000000275
210
0.0
220
1.0
230
-0.0000000000000002
  0
LINE
  5
46E6
  8
0
  6
VERDECKT
 62
     1
 10
-30.0566571291093894
 20
124.0
 30
-0.0000000000000275
 11
-31.4755047824804812
 21
124.0
 31
-0.0000000000000275
210
0.0
220
1.0
230
-0.0000000000000002
  0
LINE
  5
46E7
  8
0
  6
VERDECKT
 62
     1
 10
-8.2897091074394513
 20
124.0
 30
-0.0000000000000275
 11
-8.8090433926732086
 21
124.0
 31
-0.0000000000000275
210
0.0
220
1.0
230
-0.0000000000000002
  0
LINE
  5
46E8
  8
0
  6
VERDECKT
 62
     1
 10
-8.2897091074394496
 20
124.0
 30
-0.0000000000000275
 11
-8.2897091074394496
 21
132.0
 31
-0.0000000000000293
210
0.0
220
1.0
230
-0.0000000000000002
  0
LINE
  5
46E9
  8
0
  6
VERDECKT
 62
     1
 10
-8.2897091074394513
 20
132.0
 30
-0.0000000000000293
 11
-8.8090433926732086
 21
132.0
 31
-0.0000000000000293
210
0.0
220
1.0
230
-0.0000000000000002
  0
LINE
  5
46EA
  8
0
  6
VERDECKT
 62
     1
 10
-30.0566571291094
 20
124.0
 30
-0.0000000000000275
 11
-30.0566571291094
 21
132.0
 31
-0.0000000000000293
210
0.0
220
1.0
230
-0.0000000000000002
  0
LINE
  5
46EB
  8
0
  6
VERDECKT
 62
     1
 10
-38.2154629608541825
 20
124.0
 30
-0.0000000000000275
 11
-38.2154629608541825
 21
132.0
 31
-0.0000000000000293
210
0.0
220
1.0
230
-0.0000000000000002
  0
LINE
  5
46EC
  8
0
  6
VERDECKT
 62
     1
 10
-43.7699481458553805
 20
124.0
 30
-0.0000000000000275
 11
-43.7699481458553805
 21
132.0
 31
-0.0000000000000293
210
0.0
220
1.0
230
-0.0000000000000002
  0
LINE
  5
46ED
  8
0
  6
VERDECKT
 62
     1
 10
-46.341583697975949
 20
124.0
 30
-0.0000000000000275
 11
-46.341583697975949
 21
132.0
 31
-0.0000000000000293
210
0.0
220
1.0
230
-0.0000000000000002
  0
ARC
  5
46EE
  8
0
  6
VERDECKT
 62
     1
 10
-45.9999999999996803
 20
175.5169574822492962
 30
0.0
 40
3.0000000000001772
210
0.0
220
-0.0000000000000002
230
-1.0
 50
180.0000000000009948
 51
213.6900675259757918
  0
ARC
  5
46EF
  8
0
  6
VERDECKT
 62
     1
 10
45.9999999999994031
 20
175.5169574822492962
 30
0.0
 40
3.000000000000282
210
0.0
220
-0.0000000000000002
230
-1.0
 50
326.3099324740248903
 51
359.9999999999993747
  0
LINE
  5
46F0
  8
0
  6
VERDECKT
 62
     1
 10
-46.6671798822647617
 20
171.1094003924503966
 30
-0.000000000000038
 11
-48.4961508830133212
 21
173.8528568935736871
 31
-0.0000000000000386
210
0.0
220
1.0
230
-0.0000000000000002
  0
LINE
  5
46F1
  8
0
  6
VERDECKT
 62
     1
 10
46.6671798822649322
 20
171.1094003924503966
 30
-0.000000000000038
 11
48.4961508830134775
 21
173.8528568935736871
 31
-0.0000000000000386
210
0.0
220
1.0
230
-0.0000000000000002
  0
LINE
  5
46F2
  8
0
  6
VERDECKT
 62
     1
 10
46.6671798822649535
 20
171.1094003924503966
 30
-0.000000000000038
 11
48.3312804709405626
 21
170.0000000000001137
 31
-0.0000000000000377
210
0.0
220
1.0
230
-0.0000000000000002
  0
LINE
  5
46F3
  8
0
  6
VERDECKT
 62
     1
 10
-46.667179882264783
 20
171.1094003924503966
 30
-0.000000000000038
 11
-48.3312804709403991
 21
170.0000000000001137
 31
-0.0000000000000377
210
0.0
220
1.0
230
-0.0000000000000002
  0
LINE
  5
46F4
  8
0
  6
VERDECKT
 62
     1
 10
-48.9999999999998579
 20
175.5169574822492962
 30
-0.000000000000039
 11
-48.9999999999998579
 21
185.0000000000001137
 31
-0.0000000000000411
210
0.0
220
1.0
230
-0.0000000000000002
  0
LINE
  5
46F5
  8
0
  6
VERDECKT
 62
     1
 10
-48.9999999999998579
 20
192.0000000000001137
 30
-0.0000000000000426
 11
-48.9999999999998579
 21
200.0000000000001137
 31
-0.0000000000000444
210
0.0
220
1.0
230
-0.0000000000000002
  0
LINE
  5
46F6
  8
0
  6
VERDECKT
 62
     1
 10
49.0000000000000284
 20
175.5169574822492109
 30
-0.000000000000039
 11
49.0000000000000284
 21
200.0000000000001137
 31
-0.0000000000000444
210
0.0
220
1.0
230
-0.0000000000000002
  0
LINE
  5
46F7
  8
0
  6
VERDECKT
 62
     1
 10
46.4999999999999076
 20
170.0000000000001137
 30
-0.0000000000000377
 11
46.4999999999999076
 21
168.0
 31
-0.0000000000000373
210
0.0
220
1.0
230
-0.0000000000000002
  0
LINE
  5
46F8
  8
0
  6
VERDECKT
 62
     1
 10
46.4999999999999076
 20
160.0
 30
-0.0000000000000355
 11
46.4999999999999076
 21
156.0
 31
-0.0000000000000346
210
0.0
220
1.0
230
-0.0000000000000002
  0
LINE
  5
46F9
  8
0
  6
VERDECKT
 62
     1
 10
46.4999999999999076
 20
148.0
 30
-0.0000000000000329
 11
46.4999999999999076
 21
144.0
 31
-0.000000000000032
210
0.0
220
1.0
230
-0.0000000000000002
  0
LINE
  5
46FA
  8
0
  6
VERDECKT
 62
     1
 10
46.4999999999999076
 20
136.0
 30
-0.0000000000000302
 11
46.4999999999999076
 21
132.0
 31
-0.0000000000000293
210
0.0
220
1.0
230
-0.0000000000000002
  0
LINE
  5
46FB
  8
0
  6
VERDECKT
 62
     1
 10
46.4999999999999076
 20
124.0
 30
-0.0000000000000275
 11
46.4999999999999076
 21
120.0
 31
-0.0000000000000266
210
0.0
220
1.0
230
-0.0000000000000002
  0
LINE
  5
46FC
  8
0
  6
VERDECKT
 62
     1
 10
46.4999999999999076
 20
112.0
 30
-0.0000000000000249
 11
46.4999999999999076
 21
108.0
 31
-0.000000000000024
210
0.0
220
1.0
230
-0.0000000000000002
  0
LINE
  5
46FD
  8
0
  6
VERDECKT
 62
     1
 10
46.4999999999999076
 20
100.0
 30
-0.0000000000000222
 11
46.4999999999999076
 21
96.0000000000000568
 31
-0.0000000000000213
210
0.0
220
1.0
230
-0.0000000000000002
  0
LINE
  5
46FE
  8
0
  6
VERDECKT
 62
     1
 10
46.4999999999999076
 20
88.0000000000000426
 30
-0.0000000000000195
 11
46.4999999999999076
 21
84.0000000000000142
 31
-0.0000000000000187
210
0.0
220
1.0
230
-0.0000000000000002
  0
LINE
  5
46FF
  8
0
  6
VERDECKT
 62
     1
 10
46.4999999999999076
 20
76.0000000000000142
 30
-0.0000000000000169
 11
46.4999999999999076
 21
72.0000000000000142
 31
-0.000000000000016
210
0.0
220
1.0
230
-0.0000000000000002
  0
LINE
  5
4700
  8
0
  6
VERDECKT
 62
     1
 10
46.4999999999999076
 20
64.0000000000000426
 30
-0.0000000000000142
 11
46.4999999999999076
 21
60.0000000000000071
 31
-0.0000000000000133
210
0.0
220
1.0
230
-0.0000000000000002
  0
LINE
  5
4701
  8
0
  6
VERDECKT
 62
     1
 10
46.4999999999999076
 20
52.0000000000000071
 30
-0.0000000000000115
 11
46.4999999999999076
 21
48.0000000000000071
 31
-0.0000000000000107
210
0.0
220
1.0
230
-0.0000000000000002
  0
LINE
  5
4702
  8
0
  6
VERDECKT
 62
     1
 10
46.4999999999999076
 20
40.0
 30
-0.0000000000000089
 11
46.4999999999999076
 21
35.9999999999999787
 31
-0.000000000000008
210
0.0
220
1.0
230
-0.0000000000000002
  0
LINE
  5
4703
  8
0
  6
VERDECKT
 62
     1
 10
46.4999999999999076
 20
27.9999999999999787
 30
-0.0000000000000062
 11
46.4999999999999076
 21
23.9999999999999787
 31
-0.0000000000000053
210
0.0
220
1.0
230
-0.0000000000000002
  0
LINE
  5
4704
  8
0
  6
VERDECKT
 62
     1
 10
46.4999999999999076
 20
15.9999999999999698
 30
-0.0000000000000036
 11
46.4999999999999076
 21
12.0000000000000302
 31
-0.0000000000000027
210
0.0
220
1.0
230
-0.0000000000000002
  0
LINE
  5
4705
  8
0
  6
VERDECKT
 62
     1
 10
46.4999999999999076
 20
4.0000000000000293
 30
-0.0000000000000009
 11
46.4999999999999076
 21
0.0
 31
0.0
210
0.0
220
1.0
230
-0.0000000000000002
  0
LINE
  5
4706
  8
0
  6
VERDECKT
 62
     1
 10
-46.4999999999999076
 20
170.0000000000001137
 30
-0.0000000000000377
 11
-46.4999999999999076
 21
168.0
 31
-0.0000000000000373
210
0.0
220
1.0
230
-0.0000000000000002
  0
LINE
  5
4707
  8
0
  6
VERDECKT
 62
     1
 10
-46.4999999999999076
 20
160.0
 30
-0.0000000000000355
 11
-46.4999999999999076
 21
156.0
 31
-0.0000000000000346
210
0.0
220
1.0
230
-0.0000000000000002
  0
LINE
  5
4708
  8
0
  6
VERDECKT
 62
     1
 10
-46.4999999999999076
 20
148.0
 30
-0.0000000000000329
 11
-46.4999999999999076
 21
144.0
 31
-0.000000000000032
210
0.0
220
1.0
230
-0.0000000000000002
  0
LINE
  5
4709
  8
0
  6
VERDECKT
 62
     1
 10
-46.4999999999999076
 20
136.0
 30
-0.0000000000000302
 11
-46.4999999999999076
 21
132.0
 31
-0.0000000000000293
210
0.0
220
1.0
230
-0.0000000000000002
  0
LINE
  5
470A
  8
0
  6
VERDECKT
 62
     1
 10
-46.4999999999999076
 20
124.0
 30
-0.0000000000000275
 11
-46.4999999999999076
 21
120.0
 31
-0.0000000000000266
210
0.0
220
1.0
230
-0.0000000000000002
  0
LINE
  5
470B
  8
0
  6
VERDECKT
 62
     1
 10
-46.4999999999999076
 20
112.0
 30
-0.0000000000000249
 11
-46.4999999999999076
 21
108.0
 31
-0.000000000000024
210
0.0
220
1.0
230
-0.0000000000000002
  0
LINE
  5
470C
  8
0
  6
VERDECKT
 62
     1
 10
-46.4999999999999076
 20
100.0000000000000995
 30
-0.0000000000000222
 11
-46.4999999999999076
 21
96.0000000000000568
 31
-0.0000000000000213
210
0.0
220
1.0
230
-0.0000000000000002
  0
LINE
  5
470D
  8
0
  6
VERDECKT
 62
     1
 10
-46.4999999999999076
 20
88.0000000000000426
 30
-0.0000000000000195
 11
-46.4999999999999076
 21
84.0000000000000142
 31
-0.0000000000000187
210
0.0
220
1.0
230
-0.0000000000000002
  0
LINE
  5
470E
  8
0
  6
VERDECKT
 62
     1
 10
-46.4999999999999076
 20
76.0000000000000142
 30
-0.0000000000000169
 11
-46.4999999999999076
 21
72.0000000000000142
 31
-0.000000000000016
210
0.0
220
1.0
230
-0.0000000000000002
  0
LINE
  5
470F
  8
0
  6
VERDECKT
 62
     1
 10
-46.4999999999999076
 20
64.0000000000000426
 30
-0.0000000000000142
 11
-46.4999999999999076
 21
60.0000000000000071
 31
-0.0000000000000133
210
0.0
220
1.0
230
-0.0000000000000002
  0
LINE
  5
4710
  8
0
  6
VERDECKT
 62
     1
 10
-46.4999999999999076
 20
52.0000000000000071
 30
-0.0000000000000115
 11
-46.4999999999999076
 21
48.0000000000000071
 31
-0.0000000000000107
210
0.0
220
1.0
230
-0.0000000000000002
  0
LINE
  5
4711
  8
0
  6
VERDECKT
 62
     1
 10
-46.4999999999999076
 20
40.0
 30
-0.0000000000000089
 11
-46.4999999999999076
 21
35.9999999999999787
 31
-0.000000000000008
210
0.0
220
1.0
230
-0.0000000000000002
  0
LINE
  5
4712
  8
0
  6
VERDECKT
 62
     1
 10
-46.4999999999999076
 20
27.9999999999999787
 30
-0.0000000000000062
 11
-46.4999999999999076
 21
23.9999999999999787
 31
-0.0000000000000053
210
0.0
220
1.0
230
-0.0000000000000002
  0
LINE
  5
4713
  8
0
  6
VERDECKT
 62
     1
 10
-46.4999999999999076
 20
15.9999999999999698
 30
-0.0000000000000036
 11
-46.4999999999999076
 21
12.0000000000000302
 31
-0.0000000000000027
210
0.0
220
1.0
230
-0.0000000000000002
  0
LINE
  5
4714
  8
0
  6
VERDECKT
 62
     1
 10
-46.4999999999999076
 20
4.0000000000000293
 30
-0.0000000000000009
 11
-46.4999999999999076
 21
0.0
 31
0.0
210
0.0
220
1.0
230
-0.0000000000000002
  0
ENDBLK
  5
4716
  8
0
  0
BLOCK
  8
0
  2
A$C616F703A
 70
     0
 10
0.0
 20
0.0
 30
0.0
  3
A$C616F703A
  1

  0
LINE
  5
471A
  8
0
  6
CONTINUOUS
 62
     3
 10
29.8792073683409605
 20
-38.8359751652983078
 30
0.0
 11
46.1683901029043184
 21
-16.4158385501941098
 31
0.0000000000000036
  0
LINE
  5
471B
  8
0
  6
CONTINUOUS
 62
     3
 10
-27.7020243923631391
 20
-40.4177911885953094
 30
0.0
 11
-1.34557307888167
 21
-48.9815213431490903
 31
0.0000000000000059
  0
LINE
  5
471C
  8
0
  6
CONTINUOUS
 62
     3
 10
46.1683901029042971
 20
16.4158385501941488
 30
0.0
 11
29.8792073683409498
 21
38.8359751652983505
 31
-0.0000000000000036
  0
LINE
  5
471D
  8
0
  6
CONTINUOUS
 62
     3
 10
-1.345573078881672
 20
48.9815213431491117
 30
0.0
 11
-27.7020243923631391
 21
40.4177911885953165
 31
-0.0000000000000059
  0
LINE
  5
471E
  8
0
  6
CONTINUOUS
 62
     3
 10
-46.9999999999998721
 20
13.8564064605504207
 30
0.0
 11
-46.9999999999998721
 21
-13.8564064605503905
 31
0.0
  0
CIRCLE
  5
471F
  8
0
  6
CONTINUOUS
 62
     3
 10
0.0000000000001233
 20
0.0000000000000105
 30
0.0
 40
46.6671798822648611
  0
CIRCLE
  5
4720
  8
0
  6
CONTINUOUS
 62
     3
 10
0.0000000000001297
 20
0.0000000000000122
 30
0.0
 40
51.0
  0
CIRCLE
  5
4721
  8
0
  6
CONTINUOUS
 62
     3
 10
0.0000000000001297
 20
0.0000000000000122
 30
0.0
 40
49.0000000000000497
  0
CIRCLE
  5
4722
  8
0
  6
CONTINUOUS
 62
     3
 10
0.0000000000000377
 20
0.0000000000000104
 30
0.0
 40
46.4999999999999076
  0
CIRCLE
  5
4723
  8
0
  6
VERDECKT
 62
     1
 10
0.000000000000123
 20
0.0000000000000104
 30
0.0
 40
48.3312804709404773
  0
LINE
  5
4724
  8
0
  6
VERDECKT
 62
     1
 10
26.3862444778540706
 20
-43.6436261366412168
 30
0.0
 11
29.8792073683407189
 21
-38.8359751652986631
 31
0.0000000000000008
  0
LINE
  5
4725
  8
0
  6
VERDECKT
 62
     1
 10
46.1683901029045671
 20
-16.4158385501937794
 30
0.0
 11
49.6613529933912474
 21
-11.6081875788511901
 31
0.0000000000000008
  0
LINE
  5
4726
  8
0
  6
VERDECKT
 62
     1
 10
49.6613529933912119
 20
11.6081875788512594
 30
0.0
 11
46.16839010290456
 21
16.4158385501938113
 31
-0.0000000000000008
  0
LINE
  5
4727
  8
0
  6
VERDECKT
 62
     1
 10
29.8792073683407011
 20
38.8359751652986986
 30
0.0
 11
26.3862444778540599
 21
43.6436261366412523
 31
-0.0000000000000008
  0
LINE
  5
4728
  8
0
  6
VERDECKT
 62
     1
 10
-1.345573078881287
 20
-48.9815213431492325
 30
0.0
 11
4.3061595993681996
 21
-50.8178806081556331
 31
0.0000000000000013
  0
LINE
  5
4729
  8
0
  6
VERDECKT
 62
     1
 10
-33.3537570706129927
 20
-38.5814319235888021
 30
0.0
 11
-27.7020243923635014
 21
-40.4177911885952028
 31
0.0000000000000013
  0
LINE
  5
472A
  8
0
  6
VERDECKT
 62
     1
 10
-46.9999999999998721
 20
19.7989898732231211
 30
0.0
 11
-46.9999999999998721
 21
13.8564064605508293
 31
0.0
  0
LINE
  5
472B
  8
0
  6
VERDECKT
 62
     1
 10
-46.9999999999998721
 20
-13.8564064605508097
 30
0.0
 11
-46.9999999999998721
 21
-19.7989898732230998
 31
0.0
  0
LINE
  5
472C
  8
0
  6
VERDECKT
 62
     1
 10
-27.7020243923635405
 20
40.4177911885952099
 30
0.0
 11
-33.3537570706130282
 21
38.5814319235888021
 31
-0.0000000000000013
  0
LINE
  5
472D
  8
0
  6
VERDECKT
 62
     1
 10
4.306159599368196
 20
50.8178806081556615
 30
0.0
 11
-1.3455730788812901
 21
48.9815213431492467
 31
-0.0000000000000013
  0
LINE
  5
472E
  8
0
  6
VERDECKT
 62
     1
 10
-15.6984597750588808
 20
-43.7699481458551602
 30
0.0
 11
-16.2177940602926398
 21
-45.708130084459988
 31
-0.0000000000000001
  0
LINE
  5
472F
  8
0
  6
VERDECKT
 62
     1
 10
-19.8495397849902986
 20
-42.0505145072456585
 30
0.0
 11
-20.852816582159619
 21
-43.7882408939978802
 31
-0.0000000000000002
  0
LINE
  5
4730
  8
0
  6
VERDECKT
 62
     1
 10
3.8350515463913211
 20
-46.3415836979759774
 30
0.0
 11
3.8350515463913211
 21
-48.3481372923146182
 31
0.0
  0
LINE
  5
4731
  8
0
  6
VERDECKT
 62
     1
 10
43.7699481458553521
 20
-15.6984597750584403
 30
0.0
 11
45.7081300844602083
 21
-16.2177940602921993
 31
0.0000000000000004
  0
LINE
  5
4732
  8
0
  6
VERDECKT
 62
     1
 10
38.2154629608539622
 20
-26.4920439129862686
 30
0.0
 11
39.9531893476061981
 21
-27.495320710155589
 31
0.0000000000000004
  0
LINE
  5
4733
  8
0
  6
VERDECKT
 62
     1
 10
30.0566571291088991
 20
-35.4802390384165918
 30
0.0
 11
31.4755047824800016
 21
-36.8990866917876801
 31
0.0000000000000003
  0
LINE
  5
4734
  8
0
  6
VERDECKT
 62
     1
 10
19.8495397849894815
 20
-42.0505145072460778
 30
0.0
 11
20.8528165821587983
 21
-43.7882408939983208
 31
0.0000000000000002
  0
LINE
  5
4735
  8
0
  6
VERDECKT
 62
     1
 10
8.2897091074385241
 20
-45.7551169041675934
 30
0.0
 11
8.8090433926722831
 21
-47.6932988427724567
 31
0.0000000000000001
  0
LINE
  5
4736
  8
0
  6
VERDECKT
 62
     1
 10
-35.4802390384165776
 20
-30.0566571291088387
 30
0.0
 11
-36.8990866917876801
 21
-31.4755047824799306
 31
-0.0000000000000003
  0
LINE
  5
4737
  8
0
  6
VERDECKT
 62
     1
 10
-42.0505145072459712
 20
-19.8495397849895987
 30
0.0
 11
-43.7882408939981929
 21
-20.8528165821589084
 31
-0.0000000000000004
  0
LINE
  5
4738
  8
0
  6
VERDECKT
 62
     1
 10
-45.755116904167501
 20
-8.289709107438874
 30
0.0
 11
-47.6932988427723501
 21
-8.8090433926726295
 31
-0.0000000000000004
  0
LINE
  5
4739
  8
0
  6
VERDECKT
 62
     1
 10
-46.3415836979759135
 20
3.8350515463917709
 30
0.0
 11
-48.3481372923145472
 21
3.8350515463917718
 31
-0.0000000000000004
  0
LINE
  5
473A
  8
0
  6
VERDECKT
 62
     1
 10
-43.7699481458554089
 20
15.6984597750581507
 30
0.0
 11
-45.7081300844602367
 21
16.2177940602919115
 31
-0.0000000000000004
  0
LINE
  5
473B
  8
0
  6
VERDECKT
 62
     1
 10
-38.2154629608542606
 20
26.4920439129857712
 30
0.0
 11
-39.9531893476064823
 21
27.4953207101550809
 31
-0.0000000000000004
  0
LINE
  5
473C
  8
0
  6
VERDECKT
 62
     1
 10
-30.0566571291094888
 20
35.4802390384160518
 30
0.0
 11
-31.4755047824805807
 21
36.899086691787133
 31
-0.0000000000000003
  0
LINE
  5
473D
  8
0
  6
VERDECKT
 62
     1
 10
-19.849539784990391
 20
42.0505145072456301
 30
0.0
 11
-20.8528165821597185
 21
43.7882408939978731
 31
-0.0000000000000002
  0
LINE
  5
473E
  8
0
  6
VERDECKT
 62
     1
 10
-8.2897091074395988
 20
45.7551169041674228
 30
0.0
 11
-8.8090433926733542
 21
47.6932988427722506
 31
-0.0000000000000001
  0
LINE
  5
473F
  8
0
  6
VERDECKT
 62
     1
 10
3.8350515463911781
 20
46.3415836979759987
 30
0.0
 11
3.8350515463911772
 21
48.3481372923146395
 31
0.0
  0
LINE
  5
4740
  8
0
  6
VERDECKT
 62
     1
 10
15.6984597750577795
 20
43.7699481458555795
 30
0.0
 11
16.2177940602915385
 21
45.7081300844604215
 31
0.0000000000000001
  0
LINE
  5
4741
  8
0
  6
VERDECKT
 62
     1
 10
26.4920439129856611
 20
38.2154629608544099
 30
0.0
 11
27.4953207101549602
 21
39.9531893476066315
 31
0.0000000000000002
  0
LINE
  5
4742
  8
0
  6
VERDECKT
 62
     1
 10
35.4802390384161015
 20
30.0566571291095315
 30
0.0
 11
36.8990866917871827
 21
31.4755047824806091
 31
0.0000000000000003
  0
LINE
  5
4743
  8
0
  6
VERDECKT
 62
     1
 10
42.0505145072457722
 20
19.8495397849902204
 30
0.0
 11
43.7882408939980081
 21
20.8528165821595302
 31
0.0000000000000004
  0
LINE
  5
4744
  8
0
  6
VERDECKT
 62
     1
 10
45.755116904167501
 20
8.2897091074391991
 30
0.0
 11
47.6932988427723572
 21
8.8090433926729563
 31
0.0000000000000004
  0
LINE
  5
4745
  8
0
  6
VERDECKT
 62
     1
 10
46.3415836979759774
 20
3.8350515463918771
 30
0.0
 11
48.3481372923146324
 21
3.8350515463918771
 31
0.0000000000000004
  0
LINE
  5
4746
  8
0
  6
VERDECKT
 62
     1
 10
46.3415836979759774
 20
-3.8350515463917558
 30
0.0
 11
48.3481372923146324
 21
-3.8350515463917558
 31
0.0000000000000004
  0
LINE
  5
4747
  8
0
  6
VERDECKT
 62
     1
 10
45.7551169041675223
 20
-8.2897091074390765
 30
0.0
 11
47.6932988427723785
 21
-8.8090433926728355
 31
0.0000000000000004
  0
LINE
  5
4748
  8
0
  6
VERDECKT
 62
     1
 10
42.0505145072458006
 20
-19.8495397849900712
 30
0.0
 11
43.7882408939980508
 21
-20.8528165821593987
 31
0.0000000000000004
  0
LINE
  5
4749
  8
0
  6
VERDECKT
 62
     1
 10
35.4802390384161725
 20
-30.0566571291094213
 30
0.0
 11
36.8990866917872609
 21
-31.4755047824805203
 31
0.0000000000000003
  0
LINE
  5
474A
  8
0
  6
VERDECKT
 62
     1
 10
26.4920439129857392
 20
-38.2154629608543317
 30
0.0
 11
27.495320710155049
 21
-39.9531893476065605
 31
0.0000000000000002
  0
LINE
  5
474B
  8
0
  6
VERDECKT
 62
     1
 10
15.6984597750579198
 20
-43.7699481458555297
 30
0.0
 11
16.2177940602916699
 21
-45.7081300844603575
 31
0.0000000000000001
  0
LINE
  5
474C
  8
0
  6
VERDECKT
 62
     1
 10
-30.0566571291094284
 20
-35.4802390384161015
 30
0.0
 11
-31.4755047824805203
 21
-36.8990866917871898
 31
-0.0000000000000003
  0
LINE
  5
474D
  8
0
  6
VERDECKT
 62
     1
 10
-38.2154629608541825
 20
-26.4920439129858316
 30
0.0
 11
-39.9531893476064184
 21
-27.4953207101551484
 31
-0.0000000000000004
  0
LINE
  5
474E
  8
0
  6
VERDECKT
 62
     1
 10
-43.7699481458553521
 20
-15.6984597750582502
 30
0.0
 11
-45.7081300844602083
 21
-16.2177940602920003
 31
-0.0000000000000004
  0
LINE
  5
474F
  8
0
  6
VERDECKT
 62
     1
 10
-46.3415836979758993
 20
-3.835051546391862
 30
0.0
 11
-48.34813729231454
 21
-3.8350515463918611
 31
-0.0000000000000004
  0
LINE
  5
4750
  8
0
  6
VERDECKT
 62
     1
 10
-45.755116904167501
 20
8.2897091074387745
 30
0.0
 11
-47.6932988427723572
 21
8.8090433926725318
 31
-0.0000000000000004
  0
LINE
  5
4751
  8
0
  6
VERDECKT
 62
     1
 10
-42.0505145072459996
 20
19.8495397849895205
 30
0.0
 11
-43.7882408939982426
 21
20.8528165821588409
 31
-0.0000000000000004
  0
LINE
  5
4752
  8
0
  6
VERDECKT
 62
     1
 10
-35.4802390384166628
 20
30.0566571291087712
 30
0.0
 11
-36.8990866917877511
 21
31.4755047824798595
 31
-0.0000000000000003
  0
LINE
  5
4753
  8
0
  6
VERDECKT
 62
     1
 10
-26.4920439129865493
 20
38.2154629608537419
 30
0.0
 11
-27.4953207101558696
 21
39.9531893476059778
 31
-0.0000000000000002
  0
LINE
  5
4754
  8
0
  6
VERDECKT
 62
     1
 10
-15.6984597750589394
 20
43.7699481458551531
 30
0.0
 11
-16.2177940602927002
 21
45.708130084459988
 31
-0.0000000000000001
  0
LINE
  5
4755
  8
0
  6
VERDECKT
 62
     1
 10
-3.8350515463923118
 20
48.3481372923145472
 30
0.0
 11
-3.8350515463923118
 21
46.3415836979758993
 31
0.0
  0
LINE
  5
4756
  8
0
  6
VERDECKT
 62
     1
 10
8.2897091074383837
 20
45.7551169041676218
 30
0.0
 11
8.8090433926721392
 21
47.6932988427724709
 31
0.0000000000000001
  0
LINE
  5
4757
  8
0
  6
VERDECKT
 62
     1
 10
19.8495397849893784
 20
42.0505145072461275
 30
0.0
 11
20.8528165821587095
 21
43.7882408939983705
 31
0.0000000000000002
  0
LINE
  5
4758
  8
0
  6
VERDECKT
 62
     1
 10
30.0566571291088387
 20
35.4802390384166912
 30
0.0
 11
31.4755047824799092
 21
36.8990866917877582
 31
0.0000000000000003
  0
LINE
  5
4759
  8
0
  6
VERDECKT
 62
     1
 10
38.2154629608539125
 20
26.4920439129864
 30
0.0
 11
39.9531893476061413
 21
27.4953207101557204
 31
0.0000000000000004
  0
LINE
  5
475A
  8
0
  6
VERDECKT
 62
     1
 10
43.7699481458553308
 20
15.6984597750585699
 30
0.0
 11
45.708130084460187
 21
16.2177940602923201
 31
0.0000000000000004
  0
LINE
  5
475B
  8
0
  6
VERDECKT
 62
     1
 10
-26.4920439129864818
 20
-38.2154629608537633
 30
0.0
 11
-27.4953207101557986
 21
-39.9531893476059921
 31
-0.0000000000000002
  0
LINE
  5
475C
  8
0
  6
VERDECKT
 62
     1
 10
-3.8350515463923118
 20
-46.3415836979758922
 30
0.0
 11
-3.8350515463923118
 21
-48.3481372923145329
 31
0.0
  0
LINE
  5
475D
  8
0
  6
VERDECKT
 62
     1
 10
-8.2897091074395366
 20
-45.7551169041674086
 30
0.0
 11
-8.8090433926732956
 21
-47.6932988427722506
 31
-0.0000000000000001
  0
CIRCLE
  5
475E
  8
0
  6
VERDECKT
 62
     1
 10
0.0000000000000377
 20
0.0000000000000104
 30
0.0
 40
48.4999999999998082
  0
ENDBLK
  5
4760
  8
0
  0
ENDSEC
  0
SECTION
  2
ENTITIES
  0
TEXT
  5
8F
  8
VOLL
 10
78.076754716981128
 20
31.025947764705851
 30
0.0
 40
1.8
  1

  7
GREEKS
  0
TEXT
  5
21B3
  8
VOLL
 10
78.076754716981128
 20
31.025947764705851
 30
0.0
 40
1.8
  1

  7
GREEKS
  0
TEXT
  5
21C2
  8
TEXT35
 10
253.0700146553600121
 20
252.5107486555118896
 30
0.0
 40
3.5
  1

 41
0.8
  0
INSERT
  5
337A
  8
ADSK_ASSOC_ENTITY_BACKUPS
  2
*S10
 10
0.0
 20
0.0
 30
0.0
  0
INSERT
  5
4717
  8
STEMPEL
  2
A$C08D80D92
 10
0.0
 20
0.0
 30
0.0
  0
INSERT
  5
4761
  8
STEMPEL
  2
A$C616F703A
 10
0.0
 20
-101.0
 30
0.0
  0
VIEWPORT
  5
2A83
 67
     1
  8
0
 10
253.2087875959871894
 20
8.7463895988119305
 30
0.0
 40
557.6830774365820389
 41
298.5140186915887739
 68
     1
 69
     1
1001
ACAD
1000
MVIEW
1002
{
1070
    16
1010
0.0
1020
0.0
1030
0.0
1010
0.0
1020
0.0
1030
1.0
1040
0.0
1040
298.5140186915887739
1040
253.2087875959871894
1040
8.7463895988119305
1040
50.0
1040
0.0
1040
0.0
1070
     0
1070
  1500
1070
     1
1070
     1
1070
     0
1070
     0
1070
     0
1070
     0
1040
0.0
1040
0.0
1040
0.0
1040
10.0
1040
10.0
1040
10.0
1040
10.0
1070
     0
1002
{
1002
}
1002
}
  0
ENDSEC
  0
EOF
