  0
SECTION
  2
HEADER
  9
$ACADVER
  1
AC1009
  9
$INSBASE
 10
0.0
 20
0.0
 30
0.0
  9
$EXTMIN
 10
-72.4999999999999858
 20
-195.0
 30
-0.0000000000000222
  9
$EXTMAX
 10
72.4999999999999858
 20
100.0
 30
100.0
  9
$LIMMIN
 10
0.0
 20
0.0
  9
$LIMMAX
 10
210.0
 20
297.0000000000001137
  9
$ORTHOMODE
 70
     1
  9
$REGENMODE
 70
     1
  9
$FILLMODE
 70
     1
  9
$QTEXTMODE
 70
     0
  9
$MIRRTEXT
 70
     1
  9
$DRAGMODE
 70
     2
  9
$LTSCALE
 40
10.0
  9
$OSMODE
 70
   511
  9
$ATTMODE
 70
     1
  9
$TEXTSIZE
 40
3.5
  9
$TRACEWID
 40
0.5
  9
$TEXTSTYLE
  7
STANDARD
  9
$CLAYER
  8
STEMPEL
  9
$CELTYPE
  6
BYLAYER
  9
$CECOLOR
 62
   256
  9
$DIMSCALE
 40
1.0
  9
$DIMASZ
 40
3.5
  9
$DIMEXO
 40
1.0
  9
$DIMDLI
 40
0.38
  9
$DIMRND
 40
0.0
  9
$DIMDLE
 40
0.0
  9
$DIMEXE
 40
1.0
  9
$DIMTP
 40
0.0
  9
$DIMTM
 40
0.000000001
  9
$DIMTXT
 40
3.5
  9
$DIMCEN
 40
0.09
  9
$DIMTSZ
 40
0.0
  9
$DIMTOL
 70
     0
  9
$DIMLIM
 70
     0
  9
$DIMTIH
 70
     0
  9
$DIMTOH
 70
     0
  9
$DIMSE1
 70
     0
  9
$DIMSE2
 70
     0
  9
$DIMTAD
 70
     1
  9
$DIMZIN
 70
     8
  9
$DIMBLK
  1

  9
$DIMASO
 70
     1
  9
$DIMSHO
 70
     0
  9
$DIMPOST
  1

  9
$DIMAPOST
  1

  9
$DIMALT
 70
     0
  9
$DIMALTD
 70
     2
  9
$DIMALTF
 40
25.3999999999999986
  9
$DIMLFAC
 40
2.0
  9
$DIMTOFL
 70
     1
  9
$DIMTVP
 40
0.0
  9
$DIMTIX
 70
     0
  9
$DIMSOXD
 70
     0
  9
$DIMSAH
 70
     0
  9
$DIMBLK1
  1

  9
$DIMBLK2
  1

  9
$DIMSTYLE
  2
LORO
  9
$DIMCLRD
 70
     0
  9
$DIMCLRE
 70
     0
  9
$DIMCLRT
 70
     1
  9
$DIMTFAC
 40
0.5
  9
$DIMGAP
 40
1.5
  9
$LUNITS
 70
     2
  9
$LUPREC
 70
     2
  9
$SKETCHINC
 40
1.0
  9
$FILLETRAD
 40
5.0
  9
$AUNITS
 70
     0
  9
$AUPREC
 70
     0
  9
$MENU
  1
ACAD
  9
$ELEVATION
 40
0.0
  9
$PELEVATION
 40
0.0
  9
$THICKNESS
 40
0.0
  9
$LIMCHECK
 70
     0
  9
$BLIPMODE
 70
     0
  9
$CHAMFERA
 40
0.0
  9
$CHAMFERB
 40
0.0
  9
$SKPOLY
 70
     0
  9
$TDCREATE
 40
2455397.8646990740671754
  9
$TDUPDATE
 40
2459382.3324189819395542
  9
$TDINDWG
 40
0.3004573843
  9
$TDUSRTIMER
 40
0.3004573843
  9
$USRTIMER
 70
     1
  9
$ANGBASE
 50
0.0
  9
$ANGDIR
 70
     0
  9
$PDMODE
 70
     0
  9
$PDSIZE
 40
0.0
  9
$PLINEWID
 40
0.0
  9
$COORDS
 70
     1
  9
$SPLFRAME
 70
     0
  9
$SPLINETYPE
 70
     6
  9
$SPLINESEGS
 70
     8
  9
$ATTDIA
 70
     1
  9
$ATTREQ
 70
     1
  9
$HANDLING
 70
     1
  9
$HANDSEED
  5
38AC
  9
$SURFTAB1
 70
     6
  9
$SURFTAB2
 70
     6
  9
$SURFTYPE
 70
     6
  9
$SURFU
 70
     6
  9
$SURFV
 70
     6
  9
$UCSNAME
  2

  9
$UCSORG
 10
0.0
 20
0.0
 30
0.0
  9
$UCSXDIR
 10
1.0
 20
0.0
 30
0.0
  9
$UCSYDIR
 10
0.0
 20
1.0
 30
0.0
  9
$PUCSNAME
  2

  9
$PUCSORG
 10
0.0
 20
0.0
 30
0.0
  9
$PUCSXDIR
 10
1.0
 20
0.0
 30
0.0
  9
$PUCSYDIR
 10
0.0
 20
1.0
 30
0.0
  9
$USERI1
 70
     0
  9
$USERI2
 70
     0
  9
$USERI3
 70
     0
  9
$USERI4
 70
     0
  9
$USERI5
 70
     0
  9
$USERR1
 40
0.0
  9
$USERR2
 40
0.0
  9
$USERR3
 40
0.0
  9
$USERR4
 40
0.0
  9
$USERR5
 40
0.0
  9
$WORLDVIEW
 70
     1
  9
$SHADEDGE
 70
     3
  9
$SHADEDIF
 70
    70
  9
$TILEMODE
 70
     1
  9
$MAXACTVP
 70
    16
  9
$PLIMCHECK
 70
     0
  9
$PEXTMIN
 10
1.0000000000000000E+20
 20
1.0000000000000000E+20
 30
1.0000000000000000E+20
  9
$PEXTMAX
 10
-1.0000000000000000E+20
 20
-1.0000000000000000E+20
 30
-1.0000000000000000E+20
  9
$PLIMMIN
 10
-5.6237978470997509
 20
-3.0468602558462972
  9
$PLIMMAX
 10
204.376202152900305
 20
293.9531397441537024
  9
$UNITMODE
 70
     0
  9
$VISRETAIN
 70
     0
  9
$PLINEGEN
 70
     0
  9
$PSLTSCALE
 70
     0
  0
ENDSEC
  0
SECTION
  2
TABLES
  0
TABLE
  2
VPORT
 70
     1
  0
VPORT
  2
*ACTIVE
 70
     0
 10
0.0
 20
0.0
 11
1.0
 21
1.0
 12
-46.3045097179846081
 22
93.9421602385852736
 13
0.0
 23
0.0
 14
1.0
 24
1.0
 15
10.0
 25
10.0
 16
-0.0000000000003482
 26
0.0
 36
1564.1104984604000947
 17
46.3045097179845797
 27
-141.4421602385851884
 37
49.9999999999999929
 40
296.5038232795242266
 41
1.865646258503401
 42
50.0
 43
0.0
 44
0.0
 50
0.0
 51
0.0
 71
     0
 72
  1500
 73
     1
 74
     0
 75
     0
 76
     0
 77
     0
 78
     0
  0
ENDTAB
  0
TABLE
  2
LTYPE
 70
     4
  0
LTYPE
  2
CONTINUOUS
 70
     0
  3
Solid line
 72
    65
 73
     0
 40
0.0
  0
LTYPE
  2
STRICHPUNKT
 70
     0
  3
__ . __ . __ . __ . __ . __ . __ . __ . __ . __
 72
    65
 73
     4
 40
1.0
 49
0.5
 49
-0.25
 49
0.0
 49
-0.25
  0
LTYPE
  2
RAND
 70
     0
  3
__ __ . __ __ . __ __ . __ __ . __ __ . __ __
 72
    65
 73
     6
 40
1.75
 49
0.5
 49
-0.25
 49
0.5
 49
-0.25
 49
0.0
 49
-0.25
  0
LTYPE
  2
VERDECKT
 70
     0
  3
Verdeckt __ __ __ __ __ __ __ __ __ __ __ __ __
 72
    65
 73
     2
 40
0.375
 49
0.25
 49
-0.125
  0
ENDTAB
  0
TABLE
  2
LAYER
 70
     7
  0
LAYER
  2
0
 70
     0
 62
     7
  6
CONTINUOUS
  0
LAYER
  2
VOLL
 70
     0
 62
     1
  6
CONTINUOUS
  0
LAYER
  2
STEMPEL
 70
     0
 62
     3
  6
CONTINUOUS
  0
LAYER
  2
TEXT
 70
     0
 62
     7
  6
CONTINUOUS
  0
LAYER
  2
DEFPOINTS
 70
     0
 62
     4
  6
RAND
  0
LAYER
  2
ADSK_ASSOC_ENTITY_BACKUPS
 70
     1
 62
    -7
  6
CONTINUOUS
  0
ENDTAB
  0
TABLE
  2
STYLE
 70
     3
  0
STYLE
  2
STANDARD
 70
     0
 40
0.0
 41
0.8
 50
0.0
 71
     0
 42
3.5
  3
simplex.shx
  4

  0
STYLE
  2
GREEKS
 70
     0
 40
0.0
 41
0.8
 50
0.0
 71
     0
 42
2.5
  3
SIMPLEX.shx
  4

  0
ENDTAB
  0
TABLE
  2
VIEW
 70
     0
  0
ENDTAB
  0
TABLE
  2
UCS
 70
     0
  0
ENDTAB
  0
TABLE
  2
APPID
 70
    19
  0
APPID
  2
ACAD
 70
     0
  0
APPID
  2
ACAD_NAV_VCDISPLAY
 70
     0
  0
APPID
  2
ACAD_PSEXT
 70
     0
  0
APPID
  2
ACAECLAYERSTANDARD
 70
     0
  0
APPID
  2
ACDBDYNAMICBLOCKGUID
 70
     0
  0
APPID
  2
ACAD_EXEMPT_FROM_CAD_STANDARDS
 70
     0
  0
APPID
  2
ACADANNOPO
 70
     0
  0
APPID
  2
ACAD_DSTYLE_DIMJAG
 70
     0
  0
APPID
  2
ACAD_DSTYLE_DIMBREAK
 70
     0
  0
APPID
  2
ACAD_DSTYLE_DIMTALN
 70
     0
  0
APPID
  2
ACCMTRANSPARENCY
 70
     0
  0
APPID
  2
ACAD_STEPID
 70
     0
  0
APPID
  2
ACSYNERGY
 70
     0
  0
APPID
  2
SYNERGY_BODY_TBR_ID
 70
     0
  0
APPID
  2
ACAD_VIEW_EDGE_ID
 70
     0
  0
APPID
  2
ACSYNERGYSKETCH
 70
     0
  0
APPID
  2
ACAD_MODELDOC_XFORM
 70
     0
  0
APPID
  2
ACADANNOMONITORALERTICONDI
 70
     0
  0
APPID
  2
ACAD_MLEADERVER
 70
     0
  0
ENDTAB
  0
TABLE
  2
DIMSTYLE
 70
     2
  0
DIMSTYLE
  2
STANDARD
 70
     0
  3

  4

  5

  6

  7

 40
1.0
 41
0.18
 42
0.0625
 43
0.38
 44
0.18
 45
0.0
 46
0.0
 47
0.0
 48
0.0
140
0.18
141
0.09
142
0.0
143
25.3999999999999986
144
1.0
145
0.0
146
1.0
147
0.09
 71
     0
 72
     0
 73
     1
 74
     1
 75
     0
 76
     0
 77
     0
 78
     0
170
     0
171
     2
172
     0
173
     0
174
     0
175
     0
176
     0
177
     0
178
     0
  0
DIMSTYLE
  2
LORO
 70
     0
  3

  4

  5

  6

  7

 40
1.0
 41
3.5
 42
1.0
 43
0.38
 44
1.0
 45
0.0
 46
0.0
 47
0.0
 48
0.000000001
140
3.5
141
0.09
142
0.0
143
25.3999999999999986
144
2.0
145
0.0
146
0.5
147
1.5
 71
     0
 72
     0
 73
     0
 74
     0
 75
     0
 76
     0
 77
     1
 78
     8
170
     0
171
     2
172
     1
173
     0
174
     0
175
     0
176
     0
177
     0
178
     1
  0
ENDTAB
  0
ENDSEC
  0
SECTION
  2
BLOCKS
  0
BLOCK
  8
0
  2
$MODEL_SPACE
 70
     0
 10
0.0
 20
0.0
 30
0.0
  3
$MODEL_SPACE
  1

  0
ENDBLK
  5
36
  8
0
  0
BLOCK
 67
     1
  8
0
  2
$PAPER_SPACE
 70
     0
 10
0.0
 20
0.0
 30
0.0
  3
$PAPER_SPACE
  1

  0
ENDBLK
  5
34
 67
     1
  8
0
  0
BLOCK
  8
0
  2
*S0
 70
     1
 10
0.0
 20
0.0
 30
0.0
  3
*S0
  1

  0
ENDBLK
  5
24D1
  8
0
  0
BLOCK
  8
0
  2
A$CC6A6F7E7
 70
     0
 10
0.0
 20
0.0
 30
0.0
  3
A$CC6A6F7E7
  1

  0
LINE
  5
37FE
  8
0
  6
CONTINUOUS
 62
     3
 10
72.4999999999999858
 20
100.0
 30
-0.0000000000000222
 11
0.0
 21
100.0
 31
-0.0000000000000222
210
0.0
220
1.0
230
-0.0000000000000002
  0
LINE
  5
37FF
  8
0
  6
CONTINUOUS
 62
     3
 10
-0.0000000000000126
 20
100.0
 30
-0.0000000000000222
 11
-72.4999999999999858
 21
100.0
 31
-0.0000000000000222
210
0.0
220
1.0
230
-0.0000000000000002
  0
LINE
  5
3800
  8
0
  6
CONTINUOUS
 62
     3
 10
51.1844852208223315
 20
83.9999999999999858
 30
-0.0000000000000187
 11
51.1844852208223315
 21
89.9999999999999858
 31
-0.00000000000002
210
0.0
220
1.0
230
-0.0000000000000002
  0
LINE
  5
3801
  8
0
  6
CONTINUOUS
 62
     3
 10
70.05907130899908
 20
89.9999999999999858
 30
-0.00000000000002
 11
70.05907130899908
 21
83.9999999999999858
 31
-0.0000000000000187
210
0.0
220
1.0
230
-0.0000000000000002
  0
LINE
  5
3802
  8
0
  6
CONTINUOUS
 62
     3
 10
70.0590713089991084
 20
89.9999999999999858
 30
-0.00000000000002
 11
51.1844852208223315
 21
89.9999999999999858
 31
-0.00000000000002
210
0.0
220
1.0
230
-0.0000000000000002
  0
LINE
  5
3803
  8
0
  6
CONTINUOUS
 62
     3
 10
-18.8745860881767591
 20
83.9999999999999858
 30
-0.0000000000000187
 11
-18.8745860881767591
 21
89.9999999999999858
 31
-0.00000000000002
210
0.0
220
1.0
230
-0.0000000000000002
  0
LINE
  5
3804
  8
0
  6
CONTINUOUS
 62
     3
 10
18.8745860881767591
 20
89.9999999999999858
 30
-0.00000000000002
 11
18.8745860881767591
 21
83.9999999999999858
 31
-0.0000000000000187
210
0.0
220
1.0
230
-0.0000000000000002
  0
LINE
  5
3805
  8
0
  6
CONTINUOUS
 62
     3
 10
18.8745860881768017
 20
89.9999999999999858
 30
-0.00000000000002
 11
-18.8745860881767591
 21
89.9999999999999858
 31
-0.00000000000002
210
0.0
220
1.0
230
-0.0000000000000002
  0
LINE
  5
3806
  8
0
  6
CONTINUOUS
 62
     3
 10
-70.05907130899908
 20
83.9999999999999858
 30
-0.0000000000000187
 11
-70.05907130899908
 21
89.9999999999999858
 31
-0.00000000000002
210
0.0
220
1.0
230
-0.0000000000000002
  0
LINE
  5
3807
  8
0
  6
CONTINUOUS
 62
     3
 10
-51.1844852208223529
 20
89.9999999999999858
 30
-0.00000000000002
 11
-51.1844852208223529
 21
83.9999999999999858
 31
-0.0000000000000187
210
0.0
220
1.0
230
-0.0000000000000002
  0
LINE
  5
3808
  8
0
  6
CONTINUOUS
 62
     3
 10
-51.1844852208223102
 20
89.9999999999999858
 30
-0.00000000000002
 11
-70.0590713089991084
 21
89.9999999999999858
 31
-0.00000000000002
210
0.0
220
1.0
230
-0.0000000000000002
  0
LINE
  5
3809
  8
0
  6
CONTINUOUS
 62
     3
 10
-70.0590713089991084
 20
83.9999999999999858
 30
-0.0000000000000187
 11
-51.1844852208223173
 21
83.9999999999999858
 31
-0.0000000000000187
210
0.0
220
1.0
230
-0.0000000000000002
  0
LINE
  5
380A
  8
0
  6
CONTINUOUS
 62
     3
 10
-18.8745860881767591
 20
83.9999999999999858
 30
-0.0000000000000187
 11
18.8745860881767911
 21
83.9999999999999858
 31
-0.0000000000000187
210
0.0
220
1.0
230
-0.0000000000000002
  0
LINE
  5
380B
  8
0
  6
CONTINUOUS
 62
     3
 10
51.1844852208223315
 20
83.9999999999999858
 30
-0.0000000000000187
 11
70.0590713089991084
 21
83.9999999999999858
 31
-0.0000000000000187
210
0.0
220
1.0
230
-0.0000000000000002
  0
LINE
  5
380C
  8
0
  6
CONTINUOUS
 62
     3
 10
-68.7000000000000028
 20
0.0000000000000018
 30
0.0
 11
68.7000000000000028
 21
0.0000000000000018
 31
0.0
210
0.0
220
1.0
230
-0.0000000000000002
  0
ARC
  5
380D
  8
0
  6
CONTINUOUS
 62
     3
 10
68.5000000000049312
 20
8.0498756211207461
 30
0.0
 40
0.9999999999950688
210
0.0
220
-0.0000000000000002
230
-1.0
 50
354.2894068624837018
 51
0.0000000000116027
  0
ARC
  5
380E
  8
0
  6
CONTINUOUS
 62
     3
 10
-68.5000000000049312
 20
8.0498756211207461
 30
0.0
 40
0.9999999999950688
210
0.0
220
-0.0000000000000002
230
-1.0
 50
179.9999999999884039
 51
185.7105931375162982
  0
LINE
  5
380F
  8
0
  6
CONTINUOUS
 62
     3
 10
69.5
 20
69.5596934910894191
 30
-0.0000000000000154
 11
69.5
 21
8.0498756211209486
 31
-0.0000000000000018
210
0.0
220
1.0
230
-0.0000000000000002
  0
LINE
  5
3810
  8
0
  6
CONTINUOUS
 62
     3
 10
-69.5
 20
69.5596934910894191
 30
-0.0000000000000154
 11
-69.5
 21
8.0498756211209486
 31
-0.0000000000000018
210
0.0
220
1.0
230
-0.0000000000000002
  0
LINE
  5
3811
  8
0
  6
CONTINUOUS
 62
     3
 10
-68.6999999999999886
 20
0.0000000000000018
 30
0.0
 11
-69.4950371902099846
 21
7.950371902099949
 31
-0.0000000000000018
210
0.0
220
1.0
230
-0.0000000000000002
  0
LINE
  5
3812
  8
0
  6
CONTINUOUS
 62
     3
 10
68.6999999999999886
 20
0.0000000000000018
 30
0.0
 11
69.4950371902099846
 21
7.950371902099949
 31
-0.0000000000000018
210
0.0
220
1.0
230
-0.0000000000000002
  0
ARC
  5
3813
  8
0
  6
CONTINUOUS
 62
     3
 10
67.5000000000005116
 20
80.7338441815174548
 30
0.0
 40
4.9999999999994733
210
0.0
220
-0.0000000000000002
230
-1.0
 50
343.300755766005409
 51
0.0000000000008142
  0
ARC
  5
3814
  8
0
  6
CONTINUOUS
 62
     3
 10
-67.5000000000005116
 20
80.7338441815174548
 30
0.0
 40
4.9999999999994742
210
0.0
220
-0.0000000000000002
230
-1.0
 50
179.9999999999992042
 51
196.6992442339945057
  0
LINE
  5
3815
  8
0
  6
CONTINUOUS
 62
     3
 10
-69.6265211443365359
 20
70.4217371477884768
 30
-0.0000000000000156
 11
-72.2891314261057403
 21
79.2971047536858151
 31
-0.0000000000000176
210
0.0
220
1.0
230
-0.0000000000000002
  0
LINE
  5
3816
  8
0
  6
CONTINUOUS
 62
     3
 10
69.6265211443365359
 20
70.4217371477884768
 30
-0.0000000000000156
 11
72.2891314261057403
 21
79.2971047536858151
 31
-0.0000000000000176
210
0.0
220
1.0
230
-0.0000000000000002
  0
LINE
  5
3817
  8
0
  6
CONTINUOUS
 62
     3
 10
72.4999999999999858
 20
100.0
 30
-0.0000000000000222
 11
72.4999999999999858
 21
80.7338441815175401
 31
-0.0000000000000179
210
0.0
220
1.0
230
-0.0000000000000002
  0
LINE
  5
3818
  8
0
  6
CONTINUOUS
 62
     3
 10
-72.4999999999999858
 20
100.0
 30
-0.0000000000000222
 11
-72.4999999999999858
 21
80.7338441815175401
 31
-0.0000000000000179
210
0.0
220
1.0
230
-0.0000000000000002
  0
ARC
  5
3819
  8
0
  6
CONTINUOUS
 62
     3
 10
72.4999999999998437
 20
69.5596934910894333
 30
0.0
 40
2.9999999999998699
210
0.0
220
-0.0000000000000002
230
-1.0
 50
163.3007557660056932
 51
180.0000000000005116
  0
ARC
  5
381A
  8
0
  6
CONTINUOUS
 62
     3
 10
-72.4999999999998437
 20
69.5596934910894333
 30
0.0
 40
2.9999999999998712
210
0.0
220
-0.0000000000000002
230
-1.0
 50
359.9999999999993747
 51
16.6992442339942286
  0
LINE
  5
381B
  8
0
  6
VERDECKT
 62
     1
 10
-49.1864666465800511
 20
83.9999999999999858
 30
-0.0000000000000187
 11
-51.1844852208223173
 21
83.9999999999999858
 31
-0.0000000000000187
210
0.0
220
1.0
230
-0.0000000000000002
  0
LINE
  5
381C
  8
0
  6
VERDECKT
 62
     1
 10
51.1844852208223173
 20
83.9999999999999858
 30
-0.0000000000000187
 11
49.1864666465800084
 21
83.9999999999999858
 31
-0.0000000000000187
210
0.0
220
1.0
230
-0.0000000000000002
  0
LINE
  5
381D
  8
0
  6
VERDECKT
 62
     1
 10
67.7269628643191766
 20
83.9999999999999858
 30
-0.0000000000000187
 11
67.7269628643191766
 21
89.9999999999999858
 31
-0.00000000000002
210
0.0
220
1.0
230
-0.0000000000000002
  0
LINE
  5
381E
  8
0
  6
VERDECKT
 62
     1
 10
49.1864666465799871
 20
89.9999999999999858
 30
-0.00000000000002
 11
49.1864666465799871
 21
83.9999999999999858
 31
-0.0000000000000187
210
0.0
220
1.0
230
-0.0000000000000002
  0
LINE
  5
381F
  8
0
  6
VERDECKT
 62
     1
 10
49.1864666465800227
 20
89.9999999999999858
 30
-0.00000000000002
 11
51.1844852208223173
 21
89.9999999999999858
 31
-0.00000000000002
210
0.0
220
1.0
230
-0.0000000000000002
  0
LINE
  5
3820
  8
0
  6
VERDECKT
 62
     1
 10
18.5404962177391788
 20
83.9999999999999858
 30
-0.0000000000000187
 11
18.5404962177391788
 21
89.9999999999999858
 31
-0.00000000000002
210
0.0
220
1.0
230
-0.0000000000000002
  0
LINE
  5
3821
  8
0
  6
VERDECKT
 62
     1
 10
-18.5404962177392107
 20
89.9999999999999858
 30
-0.00000000000002
 11
-18.5404962177392107
 21
83.9999999999999858
 31
-0.0000000000000187
210
0.0
220
1.0
230
-0.0000000000000002
  0
LINE
  5
3822
  8
0
  6
VERDECKT
 62
     1
 10
-49.1864666465800582
 20
83.9999999999999858
 30
-0.0000000000000187
 11
-49.1864666465800582
 21
89.9999999999999858
 31
-0.00000000000002
210
0.0
220
1.0
230
-0.0000000000000002
  0
LINE
  5
3823
  8
0
  6
VERDECKT
 62
     1
 10
-67.7269628643191766
 20
89.9999999999999858
 30
-0.00000000000002
 11
-67.7269628643191766
 21
83.9999999999999858
 31
-0.0000000000000187
210
0.0
220
1.0
230
-0.0000000000000002
  0
LINE
  5
3824
  8
0
  6
VERDECKT
 62
     1
 10
-51.1844852208223173
 20
89.9999999999999858
 30
-0.00000000000002
 11
-49.1864666465800369
 21
89.9999999999999858
 31
-0.00000000000002
210
0.0
220
1.0
230
-0.0000000000000002
  0
LINE
  5
3825
  8
0
  6
VERDECKT
 62
     1
 10
-66.2124070244749987
 20
0.2487592975524962
 30
-0.0000000000000001
 11
66.2124070244750271
 21
0.2487592975524962
 31
-0.0000000000000001
210
0.0
220
1.0
230
-0.0000000000000002
  0
ARC
  5
3826
  8
0
  6
VERDECKT
 62
     1
 10
66.0000000000049027
 20
8.1745646739227666
 30
0.0
 40
0.9999999999950973
210
0.0
220
-0.0000000000000002
230
-1.0
 50
354.2894068624837018
 51
0.0000000000115009
  0
ARC
  5
3827
  8
0
  6
VERDECKT
 62
     1
 10
-66.000000000004917
 20
8.1745646739227666
 30
0.0
 40
0.999999999995083
210
0.0
220
-0.0000000000000002
230
-1.0
 50
179.9999999999884892
 51
185.7105931375162129
  0
LINE
  5
3828
  8
0
  6
VERDECKT
 62
     1
 10
67.0
 20
69.6330779092411802
 30
-0.0000000000000155
 11
67.0
 21
8.1745646739229674
 31
-0.0000000000000018
210
0.0
220
1.0
230
-0.0000000000000002
  0
LINE
  5
3829
  8
0
  6
VERDECKT
 62
     1
 10
-67.0
 20
69.6330779092411802
 30
-0.0000000000000155
 11
-67.0
 21
8.1745646739229674
 31
-0.0000000000000018
210
0.0
220
1.0
230
-0.0000000000000002
  0
LINE
  5
382A
  8
0
  6
VERDECKT
 62
     1
 10
-66.2124070244750413
 20
0.2487592975524944
 30
-0.0000000000000001
 11
-66.9950371902099846
 21
8.0750609549019678
 31
-0.0000000000000018
210
0.0
220
1.0
230
-0.0000000000000002
  0
LINE
  5
382B
  8
0
  6
VERDECKT
 62
     1
 10
66.2124070244750413
 20
0.2487592975524971
 30
-0.0000000000000001
 11
66.9950371902099846
 21
8.0750609549019678
 31
-0.0000000000000018
210
0.0
220
1.0
230
-0.0000000000000002
  0
ARC
  5
382C
  8
0
  6
VERDECKT
 62
     1
 10
71.9999999999994884
 20
69.6330779092412513
 30
0.0
 40
4.9999999999994857
210
0.0
220
-0.0000000000000002
230
-1.0
 50
163.300755766005409
 51
180.0000000000007105
  0
ARC
  5
382D
  8
0
  6
VERDECKT
 62
     1
 10
-71.9999999999994884
 20
69.6330779092412513
 30
0.0
 40
4.9999999999994884
210
0.0
220
-0.0000000000000002
230
-1.0
 50
359.9999999999992042
 51
16.69924423399452
  0
LINE
  5
382E
  8
0
  6
VERDECKT
 62
     1
 10
-67.2108685738942455
 20
71.0698173370729052
 30
-0.0000000000000158
 11
-69.8734788556634641
 21
79.9451849429703003
 31
-0.0000000000000178
210
0.0
220
1.0
230
-0.0000000000000002
  0
LINE
  5
382F
  8
0
  6
VERDECKT
 62
     1
 10
67.2108685738942455
 20
71.0698173370729052
 30
-0.0000000000000158
 11
69.8734788556634641
 21
79.9451849429703003
 31
-0.0000000000000178
210
0.0
220
1.0
230
-0.0000000000000002
  0
ARC
  5
3830
  8
0
  6
VERDECKT
 62
     1
 10
67.0000000000004263
 20
80.807228599669287
 30
0.0
 40
2.9999999999995728
210
0.0
220
-0.0000000000000002
230
-1.0
 50
343.3007557660048974
 51
0.0000000000008002
  0
ARC
  5
3831
  8
0
  6
VERDECKT
 62
     1
 10
-67.0000000000004263
 20
80.807228599669287
 30
0.0
 40
2.9999999999995728
210
0.0
220
-0.0000000000000002
230
-1.0
 50
179.9999999999992042
 51
196.6992442339949889
  0
LINE
  5
3832
  8
0
  6
VERDECKT
 62
     1
 10
70.0
 20
100.0
 30
-0.0000000000000222
 11
70.0
 21
80.8072285996693154
 31
-0.0000000000000179
210
0.0
220
1.0
230
-0.0000000000000002
  0
LINE
  5
3833
  8
0
  6
VERDECKT
 62
     1
 10
-70.0
 20
100.0
 30
-0.0000000000000222
 11
-70.0
 21
80.8072285996693154
 31
-0.0000000000000179
210
0.0
220
1.0
230
-0.0000000000000002
  0
LINE
  5
3834
  8
0
  6
VERDECKT
 62
     1
 10
66.2124070244750271
 20
0.2487592975525015
 30
-0.0000000000000001
 11
68.7000000000000028
 21
0.0000000000000039
 31
0.0
210
0.0
220
1.0
230
-0.0000000000000002
  0
LINE
  5
3835
  8
0
  6
VERDECKT
 62
     1
 10
-66.2124070244750271
 20
0.2487592975525015
 30
-0.0000000000000001
 11
-68.7000000000000028
 21
0.0000000000000039
 31
0.0
210
0.0
220
1.0
230
-0.0000000000000002
  0
ENDBLK
  5
3837
  8
0
  0
BLOCK
  8
0
  2
A$CFA4A67FD
 70
     0
 10
0.0
 20
0.0
 30
0.0
  3
A$CFA4A67FD
  1

  0
CIRCLE
  5
383B
  8
0
  6
CONTINUOUS
 62
     3
 10
0.000000000000008
 20
-0.0000000000000064
 30
0.0
 40
70.0
  0
CIRCLE
  5
383C
  8
0
  6
CONTINUOUS
 62
     3
 10
0.0000000000000222
 20
-0.0000000000000131
 30
0.0
 40
72.4999999999999858
  0
LINE
  5
383D
  8
0
  6
CONTINUOUS
 62
     3
 10
67.7269628643191766
 20
-17.6934592766686301
 30
0.0000000000000142
 11
49.1864666465800084
 21
-49.8065407233314232
 31
0.0000000000000101
  0
LINE
  5
383E
  8
0
  6
CONTINUOUS
 62
     3
 10
-67.7269628643191766
 20
17.693459276668591
 30
-0.0000000000000142
 11
-49.1864666465800013
 21
49.8065407233314517
 31
-0.0000000000000101
  0
LINE
  5
383F
  8
0
  6
CONTINUOUS
 62
     3
 10
49.1864666465800013
 20
49.8065407233314588
 30
0.0000000000000142
 11
67.726962864319205
 21
17.6934592766686194
 31
0.0000000000000183
  0
LINE
  5
3840
  8
0
  6
CONTINUOUS
 62
     3
 10
18.5404962177391504
 20
-67.5
 30
0.0
 11
-18.5404962177391397
 21
-67.4999999999999858
 31
-0.0000000000000082
  0
LINE
  5
3841
  8
0
  6
CONTINUOUS
 62
     3
 10
-49.1864666465800227
 20
-49.8065407233313806
 30
-0.0000000000000142
 11
-67.7269628643191766
 21
-17.693459276668559
 31
-0.0000000000000183
  0
LINE
  5
3842
  8
0
  6
CONTINUOUS
 62
     3
 10
-18.5404962177391504
 20
67.4999999999999858
 30
0.0
 11
18.5404962177391788
 21
67.5
 31
0.0000000000000082
  0
CIRCLE
  5
3843
  8
0
  6
CONTINUOUS
 62
     3
 10
0.0000000000000155
 20
0.0000000000000043
 30
0.0
 40
67.0
  0
CIRCLE
  5
3844
  8
0
  6
CONTINUOUS
 62
     3
 10
0.0000000000000001
 20
0.0
 30
0.0
 40
66.2124070244750271
  0
LINE
  5
3845
  8
0
  6
VERDECKT
 62
     1
 10
70.0590713089991226
 20
-18.6541289617225488
 30
0.0000000000000142
 11
60.6217782649107235
 21
-35.0000000000000213
 31
0.0000000000000121
  0
LINE
  5
3846
  8
0
  6
VERDECKT
 62
     1
 10
60.6217782649107306
 20
-35.0000000000000213
 30
0.0000000000000142
 11
51.1844852208223529
 21
-51.3458710382774299
 31
0.0000000000000121
  0
LINE
  5
3847
  8
0
  6
VERDECKT
 62
     1
 10
-70.0590713089990942
 20
18.6541289617225488
 30
-0.0000000000000142
 11
-60.6217782649107235
 21
35.0
 31
-0.0000000000000121
  0
LINE
  5
3848
  8
0
  6
VERDECKT
 62
     1
 10
-60.6217782649107093
 20
35.0
 30
-0.0000000000000142
 11
-51.1844852208223315
 21
51.3458710382774299
 31
-0.0000000000000121
  0
LINE
  5
3849
  8
0
  6
VERDECKT
 62
     1
 10
51.1844852208223173
 20
51.3458710382774797
 30
0.0000000000000142
 11
60.6217782649107306
 21
35.0000000000000284
 31
0.0000000000000163
  0
LINE
  5
384A
  8
0
  6
VERDECKT
 62
     1
 10
60.6217782649107306
 20
35.0000000000000284
 30
0.0000000000000142
 11
70.0590713089991084
 21
18.6541289617225985
 31
0.0000000000000163
  0
LINE
  5
384B
  8
0
  6
VERDECKT
 62
     1
 10
18.8745860881768088
 20
-70.0000000000000142
 30
0.0
 11
0.0000000000000213
 21
-70.0000000000000142
 31
-0.0000000000000042
  0
LINE
  5
384C
  8
0
  6
VERDECKT
 62
     1
 10
0.00000000000002
 20
-70.0000000000000142
 30
0.0
 11
-18.8745860881767413
 21
-70.0000000000000142
 31
-0.0000000000000042
  0
LINE
  5
384D
  8
0
  6
VERDECKT
 62
     1
 10
-51.1844852208222889
 20
-51.3458710382774584
 30
-0.0000000000000142
 11
-60.621778264910688
 21
-35.0000000000000071
 31
-0.0000000000000163
  0
LINE
  5
384E
  8
0
  6
VERDECKT
 62
     1
 10
-60.621778264910688
 20
-35.0000000000000071
 30
-0.0000000000000142
 11
-70.05907130899908
 21
-18.6541289617225807
 31
-0.0000000000000163
  0
LINE
  5
384F
  8
0
  6
VERDECKT
 62
     1
 10
-18.8745860881767911
 20
70.0000000000000142
 30
0.0
 11
0.0000000000000213
 21
70.0000000000000142
 31
0.0000000000000042
  0
LINE
  5
3850
  8
0
  6
VERDECKT
 62
     1
 10
0.00000000000002
 20
70.0000000000000142
 30
0.0
 11
18.8745860881767591
 21
70.0000000000000142
 31
0.0000000000000042
  0
CIRCLE
  5
3851
  8
0
  6
VERDECKT
 62
     1
 10
0.0000000000000154
 20
0.0000000000000043
 30
0.0
 40
69.5
  0
CIRCLE
  5
3852
  8
0
  6
VERDECKT
 62
     1
 10
0.0
 20
0.0
 30
0.0
 40
68.7000000000000028
  0
ENDBLK
  5
3854
  8
0
  0
ENDSEC
  0
SECTION
  2
ENTITIES
  0
TEXT
  5
8F
  8
VOLL
 10
78.076754716981128
 20
31.025947764705851
 30
0.0
 40
1.8
  1

  7
GREEKS
  0
TEXT
  5
7D6
  8
TEXT
 10
112.5648195562657037
 20
31.1053167302616203
 30
0.0
 40
2.5
  1

 41
0.8
  7
GREEKS
  0
LINE
  5
24B1
  8
DEFPOINTS
  6
STRICHPUNKT
 62
     6
 10
0.0
 20
0.0
 30
0.0
 11
0.0
 21
0.0
 31
100.0
  0
INSERT
  5
24D3
  8
ADSK_ASSOC_ENTITY_BACKUPS
  2
*S0
 10
0.0
 20
0.0
 30
0.0
  0
INSERT
  5
3838
  8
STEMPEL
  2
A$CC6A6F7E7
 10
0.0
 20
0.0
 30
0.0
  0
INSERT
  5
3855
  8
STEMPEL
  2
A$CFA4A67FD
 10
-0.0000000000000266
 20
-122.4999999999999005
 30
0.0
  0
VIEWPORT
  5
2020
 67
     1
  8
0
 10
99.376202152900234
 20
145.4531397441537024
 30
0.0
 40
556.9215620827770863
 41
298.5140186915887739
 68
     1
 69
     1
1001
ACAD
1000
MVIEW
1002
{
1070
    16
1010
0.0
1020
0.0
1030
0.0
1010
0.0
1020
0.0
1030
1.0
1040
0.0
1040
298.5140186915887739
1040
99.376202152900234
1040
145.4531397441537024
1040
50.0
1040
0.0
1040
0.0
1070
     0
1070
  1500
1070
     1
1070
     1
1070
     0
1070
     0
1070
     0
1070
     0
1040
0.0
1040
0.0
1040
0.0
1040
10.0
1040
10.0
1040
10.0
1040
10.0
1070
     0
1002
{
1002
}
1002
}
  0
ENDSEC
  0
EOF
