  0
SECTION
  2
HEADER
  9
$ACADVER
  1
AC1009
  9
$INSBASE
 10
0.0
 20
0.0
 30
0.0
  9
$EXTMIN
 10
-61.0000000000000071
 20
-172.0
 30
-0.0000000000000222
  9
$EXTMAX
 10
61.0
 20
100.0
 30
0.0000000000000176
  9
$LIMMIN
 10
0.0
 20
0.0
  9
$LIMMAX
 10
210.0
 20
297.0000000000001137
  9
$ORTHOMODE
 70
     1
  9
$REGENMODE
 70
     1
  9
$FILLMODE
 70
     1
  9
$QTEXTMODE
 70
     0
  9
$MIRRTEXT
 70
     1
  9
$DRAGMODE
 70
     2
  9
$LTSCALE
 40
10.0
  9
$OSMODE
 70
   511
  9
$ATTMODE
 70
     1
  9
$TEXTSIZE
 40
3.5
  9
$TRACEWID
 40
0.5
  9
$TEXTSTYLE
  7
STANDARD
  9
$CLAYER
  8
STEMPEL
  9
$CELTYPE
  6
BYLAYER
  9
$CECOLOR
 62
   256
  9
$DIMSCALE
 40
1.0
  9
$DIMASZ
 40
3.5
  9
$DIMEXO
 40
1.0
  9
$DIMDLI
 40
0.38
  9
$DIMRND
 40
0.0
  9
$DIMDLE
 40
0.0
  9
$DIMEXE
 40
1.0
  9
$DIMTP
 40
0.0
  9
$DIMTM
 40
0.000000001
  9
$DIMTXT
 40
3.5
  9
$DIMCEN
 40
0.09
  9
$DIMTSZ
 40
0.0
  9
$DIMTOL
 70
     0
  9
$DIMLIM
 70
     0
  9
$DIMTIH
 70
     0
  9
$DIMTOH
 70
     0
  9
$DIMSE1
 70
     0
  9
$DIMSE2
 70
     0
  9
$DIMTAD
 70
     1
  9
$DIMZIN
 70
     8
  9
$DIMBLK
  1

  9
$DIMASO
 70
     1
  9
$DIMSHO
 70
     0
  9
$DIMPOST
  1

  9
$DIMAPOST
  1

  9
$DIMALT
 70
     0
  9
$DIMALTD
 70
     2
  9
$DIMALTF
 40
25.3999999999999986
  9
$DIMLFAC
 40
2.0
  9
$DIMTOFL
 70
     1
  9
$DIMTVP
 40
0.0
  9
$DIMTIX
 70
     0
  9
$DIMSOXD
 70
     0
  9
$DIMSAH
 70
     0
  9
$DIMBLK1
  1

  9
$DIMBLK2
  1

  9
$DIMSTYLE
  2
LORO
  9
$DIMCLRD
 70
     0
  9
$DIMCLRE
 70
     0
  9
$DIMCLRT
 70
     1
  9
$DIMTFAC
 40
0.5
  9
$DIMGAP
 40
1.5
  9
$LUNITS
 70
     2
  9
$LUPREC
 70
     2
  9
$SKETCHINC
 40
1.0
  9
$FILLETRAD
 40
0.0
  9
$AUNITS
 70
     0
  9
$AUPREC
 70
     0
  9
$MENU
  1
ACAD
  9
$ELEVATION
 40
0.0
  9
$PELEVATION
 40
0.0
  9
$THICKNESS
 40
0.0
  9
$LIMCHECK
 70
     0
  9
$BLIPMODE
 70
     0
  9
$CHAMFERA
 40
0.0
  9
$CHAMFERB
 40
0.0
  9
$SKPOLY
 70
     0
  9
$TDCREATE
 40
2455397.8646990740671754
  9
$TDUPDATE
 40
2459382.3314236109144986
  9
$TDINDWG
 40
0.2634950116
  9
$TDUSRTIMER
 40
0.2634950116
  9
$USRTIMER
 70
     1
  9
$ANGBASE
 50
0.0
  9
$ANGDIR
 70
     0
  9
$PDMODE
 70
     0
  9
$PDSIZE
 40
0.0
  9
$PLINEWID
 40
0.0
  9
$COORDS
 70
     1
  9
$SPLFRAME
 70
     0
  9
$SPLINETYPE
 70
     6
  9
$SPLINESEGS
 70
     8
  9
$ATTDIA
 70
     1
  9
$ATTREQ
 70
     1
  9
$HANDLING
 70
     1
  9
$HANDSEED
  5
34C1
  9
$SURFTAB1
 70
     6
  9
$SURFTAB2
 70
     6
  9
$SURFTYPE
 70
     6
  9
$SURFU
 70
     6
  9
$SURFV
 70
     6
  9
$UCSNAME
  2

  9
$UCSORG
 10
0.0
 20
0.0
 30
0.0
  9
$UCSXDIR
 10
1.0
 20
0.0
 30
0.0
  9
$UCSYDIR
 10
0.0
 20
1.0
 30
0.0
  9
$PUCSNAME
  2

  9
$PUCSORG
 10
0.0
 20
0.0
 30
0.0
  9
$PUCSXDIR
 10
1.0
 20
0.0
 30
0.0
  9
$PUCSYDIR
 10
0.0
 20
1.0
 30
0.0
  9
$USERI1
 70
     0
  9
$USERI2
 70
     0
  9
$USERI3
 70
     0
  9
$USERI4
 70
     0
  9
$USERI5
 70
     0
  9
$USERR1
 40
0.0
  9
$USERR2
 40
0.0
  9
$USERR3
 40
0.0
  9
$USERR4
 40
0.0
  9
$USERR5
 40
0.0
  9
$WORLDVIEW
 70
     1
  9
$SHADEDGE
 70
     3
  9
$SHADEDIF
 70
    70
  9
$TILEMODE
 70
     1
  9
$MAXACTVP
 70
    16
  9
$PLIMCHECK
 70
     0
  9
$PEXTMIN
 10
1.0000000000000000E+20
 20
1.0000000000000000E+20
 30
1.0000000000000000E+20
  9
$PEXTMAX
 10
-1.0000000000000000E+20
 20
-1.0000000000000000E+20
 30
-1.0000000000000000E+20
  9
$PLIMMIN
 10
-5.6237978470997509
 20
-3.0468602558462972
  9
$PLIMMAX
 10
204.376202152900305
 20
293.9531397441537024
  9
$UNITMODE
 70
     0
  9
$VISRETAIN
 70
     0
  9
$PLINEGEN
 70
     0
  9
$PSLTSCALE
 70
     0
  0
ENDSEC
  0
SECTION
  2
TABLES
  0
TABLE
  2
VPORT
 70
     1
  0
VPORT
  2
*ACTIVE
 70
     0
 10
0.0
 20
0.0
 11
1.0
 21
1.0
 12
0.0000000000000284
 22
-25.0
 13
0.0
 23
0.0
 14
1.0
 24
1.0
 15
10.0
 25
10.0
 16
-0.0000000000001249
 26
0.0
 36
562.278917800230829
 17
-0.0000000000000341
 27
-11.0
 37
49.9999999999999929
 40
273.3865760407816765
 41
1.865646258503401
 42
50.0
 43
0.0
 44
0.0
 50
0.0
 51
0.0
 71
     0
 72
  1500
 73
     1
 74
     0
 75
     0
 76
     0
 77
     0
 78
     0
  0
ENDTAB
  0
TABLE
  2
LTYPE
 70
     4
  0
LTYPE
  2
CONTINUOUS
 70
     0
  3
Solid line
 72
    65
 73
     0
 40
0.0
  0
LTYPE
  2
STRICHPUNKT
 70
     0
  3
__ . __ . __ . __ . __ . __ . __ . __ . __ . __
 72
    65
 73
     4
 40
1.0
 49
0.5
 49
-0.25
 49
0.0
 49
-0.25
  0
LTYPE
  2
RAND
 70
     0
  3
__ __ . __ __ . __ __ . __ __ . __ __ . __ __
 72
    65
 73
     6
 40
1.75
 49
0.5
 49
-0.25
 49
0.5
 49
-0.25
 49
0.0
 49
-0.25
  0
LTYPE
  2
VERDECKT
 70
     0
  3
Verdeckt __ __ __ __ __ __ __ __ __ __ __ __ __
 72
    65
 73
     2
 40
0.375
 49
0.25
 49
-0.125
  0
ENDTAB
  0
TABLE
  2
LAYER
 70
     7
  0
LAYER
  2
0
 70
     0
 62
     7
  6
CONTINUOUS
  0
LAYER
  2
VOLL
 70
     0
 62
     1
  6
CONTINUOUS
  0
LAYER
  2
STEMPEL
 70
     0
 62
     3
  6
CONTINUOUS
  0
LAYER
  2
TEXT
 70
     0
 62
     7
  6
CONTINUOUS
  0
LAYER
  2
DEFPOINTS
 70
     0
 62
     4
  6
RAND
  0
LAYER
  2
ADSK_ASSOC_ENTITY_BACKUPS
 70
     1
 62
    -7
  6
CONTINUOUS
  0
ENDTAB
  0
TABLE
  2
STYLE
 70
     3
  0
STYLE
  2
STANDARD
 70
     0
 40
0.0
 41
0.8
 50
0.0
 71
     0
 42
3.5
  3
simplex.shx
  4

  0
STYLE
  2
GREEKS
 70
     0
 40
0.0
 41
0.8
 50
0.0
 71
     0
 42
2.5
  3
SIMPLEX.shx
  4

  0
ENDTAB
  0
TABLE
  2
VIEW
 70
     0
  0
ENDTAB
  0
TABLE
  2
UCS
 70
     0
  0
ENDTAB
  0
TABLE
  2
APPID
 70
    19
  0
APPID
  2
ACAD
 70
     0
  0
APPID
  2
ACAD_NAV_VCDISPLAY
 70
     0
  0
APPID
  2
ACAD_PSEXT
 70
     0
  0
APPID
  2
ACAECLAYERSTANDARD
 70
     0
  0
APPID
  2
ACDBDYNAMICBLOCKGUID
 70
     0
  0
APPID
  2
ACAD_EXEMPT_FROM_CAD_STANDARDS
 70
     0
  0
APPID
  2
ACADANNOPO
 70
     0
  0
APPID
  2
ACAD_DSTYLE_DIMJAG
 70
     0
  0
APPID
  2
ACAD_DSTYLE_DIMBREAK
 70
     0
  0
APPID
  2
ACAD_DSTYLE_DIMTALN
 70
     0
  0
APPID
  2
ACCMTRANSPARENCY
 70
     0
  0
APPID
  2
ACAD_STEPID
 70
     0
  0
APPID
  2
ACSYNERGY
 70
     0
  0
APPID
  2
SYNERGY_BODY_TBR_ID
 70
     0
  0
APPID
  2
ACAD_VIEW_EDGE_ID
 70
     0
  0
APPID
  2
ACSYNERGYSKETCH
 70
     0
  0
APPID
  2
ACAD_MODELDOC_XFORM
 70
     0
  0
APPID
  2
ACADANNOMONITORALERTICONDI
 70
     0
  0
APPID
  2
ACAD_MLEADERVER
 70
     0
  0
ENDTAB
  0
TABLE
  2
DIMSTYLE
 70
     2
  0
DIMSTYLE
  2
STANDARD
 70
     0
  3

  4

  5

  6

  7

 40
1.0
 41
0.18
 42
0.0625
 43
0.38
 44
0.18
 45
0.0
 46
0.0
 47
0.0
 48
0.0
140
0.18
141
0.09
142
0.0
143
25.3999999999999986
144
1.0
145
0.0
146
1.0
147
0.09
 71
     0
 72
     0
 73
     1
 74
     1
 75
     0
 76
     0
 77
     0
 78
     0
170
     0
171
     2
172
     0
173
     0
174
     0
175
     0
176
     0
177
     0
178
     0
  0
DIMSTYLE
  2
LORO
 70
     0
  3

  4

  5

  6

  7

 40
1.0
 41
3.5
 42
1.0
 43
0.38
 44
1.0
 45
0.0
 46
0.0
 47
0.0
 48
0.000000001
140
3.5
141
0.09
142
0.0
143
25.3999999999999986
144
2.0
145
0.0
146
0.5
147
1.5
 71
     0
 72
     0
 73
     0
 74
     0
 75
     0
 76
     0
 77
     1
 78
     8
170
     0
171
     2
172
     1
173
     0
174
     0
175
     0
176
     0
177
     0
178
     1
  0
ENDTAB
  0
ENDSEC
  0
SECTION
  2
BLOCKS
  0
BLOCK
  8
0
  2
$MODEL_SPACE
 70
     0
 10
0.0
 20
0.0
 30
0.0
  3
$MODEL_SPACE
  1

  0
ENDBLK
  5
36
  8
0
  0
BLOCK
 67
     1
  8
0
  2
$PAPER_SPACE
 70
     0
 10
0.0
 20
0.0
 30
0.0
  3
$PAPER_SPACE
  1

  0
ENDBLK
  5
34
 67
     1
  8
0
  0
BLOCK
  8
0
  2
*S0
 70
     1
 10
0.0
 20
0.0
 30
0.0
  3
*S0
  1

  0
ENDBLK
  5
2243
  8
0
  0
BLOCK
  8
0
  2
A$C4E1152AF
 70
     0
 10
0.0
 20
0.0
 30
0.0
  3
A$C4E1152AF
  1

  0
LINE
  5
3413
  8
0
  6
CONTINUOUS
 62
     3
 10
60.9999999999999787
 20
100.0
 30
-0.0000000000000222
 11
0.0
 21
100.0
 31
-0.0000000000000222
210
0.0
220
1.0
230
-0.0000000000000002
  0
LINE
  5
3414
  8
0
  6
CONTINUOUS
 62
     3
 10
-0.0000000000000123
 20
100.0
 30
-0.0000000000000222
 11
-61.0000000000000071
 21
100.0
 31
-0.0000000000000222
210
0.0
220
1.0
230
-0.0000000000000002
  0
LINE
  5
3415
  8
0
  6
CONTINUOUS
 62
     3
 10
43.3495321308669901
 20
83.9999999999999858
 30
-0.0000000000000187
 11
43.3495321308669901
 21
89.9999999999999858
 31
-0.00000000000002
210
0.0
220
1.0
230
-0.0000000000000002
  0
LINE
  5
3416
  8
0
  6
CONTINUOUS
 62
     3
 10
58.8414655156967115
 20
89.9999999999999858
 30
-0.00000000000002
 11
58.8414655156967115
 21
83.9999999999999858
 31
-0.0000000000000187
210
0.0
220
1.0
230
-0.0000000000000002
  0
LINE
  5
3417
  8
0
  6
CONTINUOUS
 62
     3
 10
58.8414655156966901
 20
89.9999999999999858
 30
-0.00000000000002
 11
43.3495321308670114
 21
89.9999999999999858
 31
-0.00000000000002
210
0.0
220
1.0
230
-0.0000000000000002
  0
LINE
  5
3418
  8
0
  6
CONTINUOUS
 62
     3
 10
-15.4919333848296894
 20
83.9999999999999858
 30
-0.0000000000000187
 11
-15.4919333848296894
 21
89.9999999999999858
 31
-0.00000000000002
210
0.0
220
1.0
230
-0.0000000000000002
  0
LINE
  5
3419
  8
0
  6
CONTINUOUS
 62
     3
 10
15.4919333848296308
 20
89.9999999999999858
 30
-0.00000000000002
 11
15.4919333848296308
 21
83.9999999999999858
 31
-0.0000000000000187
210
0.0
220
1.0
230
-0.0000000000000002
  0
LINE
  5
341A
  8
0
  6
CONTINUOUS
 62
     3
 10
15.4919333848296201
 20
89.9999999999999858
 30
-0.00000000000002
 11
-15.4919333848297107
 21
89.9999999999999858
 31
-0.00000000000002
210
0.0
220
1.0
230
-0.0000000000000002
  0
LINE
  5
341B
  8
0
  6
CONTINUOUS
 62
     3
 10
-58.8414655156967115
 20
83.9999999999999858
 30
-0.0000000000000187
 11
-58.8414655156967115
 21
89.9999999999999858
 31
-0.00000000000002
210
0.0
220
1.0
230
-0.0000000000000002
  0
LINE
  5
341C
  8
0
  6
CONTINUOUS
 62
     3
 10
-43.3495321308670682
 20
89.9999999999999858
 30
-0.00000000000002
 11
-43.3495321308670682
 21
83.9999999999999858
 31
-0.0000000000000187
210
0.0
220
1.0
230
-0.0000000000000002
  0
LINE
  5
341D
  8
0
  6
CONTINUOUS
 62
     3
 10
-43.3495321308670682
 20
89.9999999999999858
 30
-0.00000000000002
 11
-58.8414655156967328
 21
89.9999999999999858
 31
-0.00000000000002
210
0.0
220
1.0
230
-0.0000000000000002
  0
LINE
  5
341E
  8
0
  6
CONTINUOUS
 62
     3
 10
-58.8414655156967186
 20
83.9999999999999858
 30
-0.0000000000000187
 11
-43.3495321308670825
 21
83.9999999999999858
 31
-0.0000000000000187
210
0.0
220
1.0
230
-0.0000000000000002
  0
LINE
  5
341F
  8
0
  6
CONTINUOUS
 62
     3
 10
-15.4919333848297107
 20
83.9999999999999858
 30
-0.0000000000000187
 11
15.4919333848296308
 21
83.9999999999999858
 31
-0.0000000000000187
210
0.0
220
1.0
230
-0.0000000000000002
  0
LINE
  5
3420
  8
0
  6
CONTINUOUS
 62
     3
 10
43.3495321308670114
 20
83.9999999999999858
 30
-0.0000000000000187
 11
58.8414655156967115
 21
83.9999999999999858
 31
-0.0000000000000187
210
0.0
220
1.0
230
-0.0000000000000002
  0
LINE
  5
3421
  8
0
  6
CONTINUOUS
 62
     3
 10
-57.6999999999999886
 20
0.0000000000000018
 30
0.0
 11
57.7000000000000028
 21
0.0000000000000018
 31
0.0
210
0.0
220
1.0
230
-0.0000000000000002
  0
ARC
  5
3422
  8
0
  6
CONTINUOUS
 62
     3
 10
57.4999999999964331
 20
8.0498756211209486
 30
0.0
 40
1.000000000003566
210
0.0
220
-0.0000000000000002
230
-1.0
 50
354.2894068625121236
 51
359.999999999991303
  0
ARC
  5
3423
  8
0
  6
CONTINUOUS
 62
     3
 10
-57.4999999999963904
 20
8.0498756211209503
 30
0.0
 40
1.0000000000036089
210
0.0
220
-0.0000000000000002
230
-1.0
 50
180.0000000000088107
 51
185.7105931374877912
  0
LINE
  5
3424
  8
0
  6
CONTINUOUS
 62
     3
 10
58.5
 20
69.6306831231470227
 30
-0.0000000000000155
 11
58.5
 21
8.0498756211207922
 31
-0.0000000000000018
210
0.0
220
1.0
230
-0.0000000000000002
  0
LINE
  5
3425
  8
0
  6
CONTINUOUS
 62
     3
 10
-58.5
 20
69.6306831231470227
 30
-0.0000000000000155
 11
-58.5
 21
8.0498756211207994
 31
-0.0000000000000018
210
0.0
220
1.0
230
-0.0000000000000002
  0
LINE
  5
3426
  8
0
  6
CONTINUOUS
 62
     3
 10
-57.7000000000000099
 20
0.0000000000000009
 30
0.0
 11
-58.4950371902099917
 21
7.950371902099798
 31
-0.0000000000000018
210
0.0
220
1.0
230
-0.0000000000000002
  0
LINE
  5
3427
  8
0
  6
CONTINUOUS
 62
     3
 10
57.7000000000000099
 20
-0.0000000000000013
 30
0.0
 11
58.4950371902099917
 21
7.950371902099798
 31
-0.0000000000000018
210
0.0
220
1.0
230
-0.0000000000000002
  0
ARC
  5
3428
  8
0
  6
CONTINUOUS
 62
     3
 10
56.0000000000005969
 20
80.6155281280882434
 30
0.0
 40
4.9999999999994031
210
0.0
220
-0.0000000000000002
230
-1.0
 50
345.9637565320725798
 51
0.0000000000008142
  0
ARC
  5
3429
  8
0
  6
CONTINUOUS
 62
     3
 10
-56.0000000000005969
 20
80.6155281280882434
 30
0.0
 40
4.9999999999994031
210
0.0
220
-0.0000000000000002
230
-1.0
 50
179.9999999999992042
 51
194.0362434679273065
  0
LINE
  5
342A
  8
0
  6
CONTINUOUS
 62
     3
 10
-58.5895724995639995
 20
70.3582899982560122
 30
-0.0000000000000156
 11
-60.8507125007266509
 21
79.4028500029066464
 31
-0.0000000000000176
210
0.0
220
1.0
230
-0.0000000000000002
  0
LINE
  5
342B
  8
0
  6
CONTINUOUS
 62
     3
 10
58.5895724995639995
 20
70.3582899982560122
 30
-0.0000000000000156
 11
60.8507125007266509
 21
79.4028500029066464
 31
-0.0000000000000176
210
0.0
220
1.0
230
-0.0000000000000002
  0
LINE
  5
342C
  8
0
  6
CONTINUOUS
 62
     3
 10
61.0
 20
100.0
 30
-0.0000000000000222
 11
61.0
 21
80.6155281280883145
 31
-0.0000000000000179
210
0.0
220
1.0
230
-0.0000000000000002
  0
LINE
  5
342D
  8
0
  6
CONTINUOUS
 62
     3
 10
-61.0
 20
100.0
 30
-0.0000000000000222
 11
-61.0
 21
80.6155281280883145
 31
-0.0000000000000179
210
0.0
220
1.0
230
-0.0000000000000002
  0
ARC
  5
342E
  8
0
  6
CONTINUOUS
 62
     3
 10
61.5000000000006395
 20
69.6306831231469516
 30
0.0
 40
3.000000000000647
210
0.0
220
-0.0000000000000002
230
-1.0
 50
165.9637565320753936
 51
179.9999999999986073
  0
ARC
  5
342F
  8
0
  6
CONTINUOUS
 62
     3
 10
-61.5000000000006395
 20
69.6306831231469516
 30
0.0
 40
3.0000000000006461
210
0.0
220
-0.0000000000000002
230
-1.0
 50
0.0000000000013613
 51
14.0362434679246206
  0
LINE
  5
3430
  8
0
  6
VERDECKT
 62
     1
 10
-41.7476749098490814
 20
83.9999999999999858
 30
-0.0000000000000187
 11
-43.3495321308670682
 21
83.9999999999999858
 31
-0.0000000000000187
210
0.0
220
1.0
230
-0.0000000000000002
  0
LINE
  5
3431
  8
0
  6
VERDECKT
 62
     1
 10
43.3495321308669972
 20
83.9999999999999858
 30
-0.0000000000000187
 11
41.7476749098491027
 21
83.9999999999999858
 31
-0.0000000000000187
210
0.0
220
1.0
230
-0.0000000000000002
  0
LINE
  5
3432
  8
0
  6
VERDECKT
 62
     1
 10
56.9792211215768774
 20
83.9999999999999858
 30
-0.0000000000000187
 11
56.9792211215768774
 21
89.9999999999999858
 31
-0.00000000000002
210
0.0
220
1.0
230
-0.0000000000000002
  0
LINE
  5
3433
  8
0
  6
VERDECKT
 62
     1
 10
41.7476749098491311
 20
89.9999999999999858
 30
-0.00000000000002
 11
41.7476749098491311
 21
83.9999999999999858
 31
-0.0000000000000187
210
0.0
220
1.0
230
-0.0000000000000002
  0
LINE
  5
3434
  8
0
  6
VERDECKT
 62
     1
 10
41.7476749098491027
 20
89.9999999999999858
 30
-0.00000000000002
 11
43.3495321308670114
 21
89.9999999999999858
 31
-0.00000000000002
210
0.0
220
1.0
230
-0.0000000000000002
  0
LINE
  5
3435
  8
0
  6
VERDECKT
 62
     1
 10
15.2315462117277995
 20
83.9999999999999858
 30
-0.0000000000000187
 11
15.2315462117277995
 21
89.9999999999999858
 31
-0.00000000000002
210
0.0
220
1.0
230
-0.0000000000000002
  0
LINE
  5
3436
  8
0
  6
VERDECKT
 62
     1
 10
-15.2315462117278297
 20
89.9999999999999858
 30
-0.00000000000002
 11
-15.2315462117278297
 21
83.9999999999999858
 31
-0.0000000000000187
210
0.0
220
1.0
230
-0.0000000000000002
  0
LINE
  5
3437
  8
0
  6
VERDECKT
 62
     1
 10
-41.7476749098490671
 20
83.9999999999999858
 30
-0.0000000000000187
 11
-41.7476749098490671
 21
89.9999999999999858
 31
-0.00000000000002
210
0.0
220
1.0
230
-0.0000000000000002
  0
LINE
  5
3438
  8
0
  6
VERDECKT
 62
     1
 10
-56.97922112157692
 20
89.9999999999999858
 30
-0.00000000000002
 11
-56.97922112157692
 21
83.9999999999999858
 31
-0.0000000000000187
210
0.0
220
1.0
230
-0.0000000000000002
  0
LINE
  5
3439
  8
0
  6
VERDECKT
 62
     1
 10
-43.3495321308670682
 20
89.9999999999999858
 30
-0.00000000000002
 11
-41.7476749098490814
 21
89.9999999999999858
 31
-0.00000000000002
210
0.0
220
1.0
230
-0.0000000000000002
  0
LINE
  5
343A
  8
0
  6
VERDECKT
 62
     1
 10
-55.7099256195800194
 20
0.1990074380419955
 30
0.0
 11
55.7099256195800194
 21
0.1990074380419955
 31
0.0
210
0.0
220
1.0
230
-0.0000000000000002
  0
ARC
  5
343B
  8
0
  6
VERDECKT
 62
     1
 10
55.4999999999964473
 20
8.1496268633628492
 30
0.0
 40
1.0000000000035449
210
0.0
220
-0.0000000000000002
230
-1.0
 50
354.2894068625118962
 51
359.999999999991303
  0
ARC
  5
343C
  8
0
  6
VERDECKT
 62
     1
 10
-55.4999999999964473
 20
8.1496268633628492
 30
0.0
 40
1.0000000000035449
210
0.0
220
-0.0000000000000002
230
-1.0
 50
180.000000000008697
 51
185.7105931374879901
  0
LINE
  5
343D
  8
0
  6
VERDECKT
 62
     1
 10
56.5
 20
69.6306831231469658
 30
-0.0000000000000155
 11
56.5
 21
8.1496268633627
 31
-0.0000000000000018
210
0.0
220
1.0
230
-0.0000000000000002
  0
LINE
  5
343E
  8
0
  6
VERDECKT
 62
     1
 10
-56.5
 20
69.6306831231469658
 30
-0.0000000000000155
 11
-56.5
 21
8.1496268633626912
 31
-0.0000000000000018
210
0.0
220
1.0
230
-0.0000000000000002
  0
LINE
  5
343F
  8
0
  6
VERDECKT
 62
     1
 10
-55.7099256195800194
 20
0.1990074380419955
 30
0.0
 11
-56.4950371902099917
 21
8.0501231443416987
 31
-0.0000000000000018
210
0.0
220
1.0
230
-0.0000000000000002
  0
LINE
  5
3440
  8
0
  6
VERDECKT
 62
     1
 10
55.7099256195800194
 20
0.1990074380419978
 30
0.0
 11
56.4950371902099917
 21
8.0501231443416987
 31
-0.0000000000000018
210
0.0
220
1.0
230
-0.0000000000000002
  0
ARC
  5
3441
  8
0
  6
VERDECKT
 62
     1
 10
61.4999999999994031
 20
69.6306831231470369
 30
0.0
 40
4.9999999999994031
210
0.0
220
-0.0000000000000002
230
-1.0
 50
165.9637565320726083
 51
180.0000000000007105
  0
ARC
  5
3442
  8
0
  6
VERDECKT
 62
     1
 10
-61.4999999999994031
 20
69.6306831231470369
 30
0.0
 40
4.9999999999994031
210
0.0
220
-0.0000000000000002
230
-1.0
 50
359.9999999999992042
 51
14.03624346792739
  0
LINE
  5
3443
  8
0
  6
VERDECKT
 62
     1
 10
-56.649287499273342
 20
70.8433612483286339
 30
-0.0000000000000157
 11
-58.9104275004359934
 21
79.8879212529792539
 31
-0.0000000000000177
210
0.0
220
1.0
230
-0.0000000000000002
  0
LINE
  5
3444
  8
0
  6
VERDECKT
 62
     1
 10
56.649287499273342
 20
70.8433612483286339
 30
-0.0000000000000157
 11
58.9104275004359934
 21
79.8879212529792539
 31
-0.0000000000000177
210
0.0
220
1.0
230
-0.0000000000000002
  0
ARC
  5
3445
  8
0
  6
VERDECKT
 62
     1
 10
55.9999999999997087
 20
80.6155281280883145
 30
0.0
 40
3.000000000000298
210
0.0
220
-0.0000000000000002
230
-1.0
 50
345.9637565320740009
 51
359.9999999999993747
  0
ARC
  5
3446
  8
0
  6
VERDECKT
 62
     1
 10
-55.9999999999997087
 20
80.6155281280883145
 30
0.0
 40
3.000000000000298
210
0.0
220
-0.0000000000000002
230
-1.0
 50
180.0000000000003979
 51
194.0362434679259138
  0
LINE
  5
3447
  8
0
  6
VERDECKT
 62
     1
 10
59.0
 20
100.0
 30
-0.0000000000000222
 11
59.0
 21
80.6155281280882861
 31
-0.0000000000000179
210
0.0
220
1.0
230
-0.0000000000000002
  0
LINE
  5
3448
  8
0
  6
VERDECKT
 62
     1
 10
-59.0
 20
100.0
 30
-0.0000000000000222
 11
-59.0
 21
80.6155281280882861
 31
-0.0000000000000179
210
0.0
220
1.0
230
-0.0000000000000002
  0
LINE
  5
3449
  8
0
  6
VERDECKT
 62
     1
 10
55.7099256195800194
 20
0.1990074380419941
 30
0.0
 11
57.7000000000000028
 21
-0.0000000000000042
 31
0.0
210
0.0
220
1.0
230
-0.0000000000000002
  0
LINE
  5
344A
  8
0
  6
VERDECKT
 62
     1
 10
-55.7099256195800194
 20
0.199007438041994
 30
0.0
 11
-57.7000000000000028
 21
-0.0000000000000041
 31
0.0
210
0.0
220
1.0
230
-0.0000000000000002
  0
ENDBLK
  5
344C
  8
0
  0
BLOCK
  8
0
  2
A$C631F7EDF
 70
     0
 10
0.0
 20
0.0
 30
0.0
  3
A$C631F7EDF
  1

  0
CIRCLE
  5
3450
  8
0
  6
CONTINUOUS
 62
     3
 10
0.0000000000000222
 20
-0.000000000000008
 30
0.0
 40
59.0000000000000071
  0
CIRCLE
  5
3451
  8
0
  6
CONTINUOUS
 62
     3
 10
0.000000000000008
 20
-0.0000000000000136
 30
0.0
 40
61.0
  0
LINE
  5
3452
  8
0
  6
CONTINUOUS
 62
     3
 10
56.9792211215769271
 20
-15.3090940417271195
 30
0.0000000000000142
 11
41.7476749098491098
 21
-41.6909059582729284
 31
0.0000000000000108
  0
LINE
  5
3453
  8
0
  6
CONTINUOUS
 62
     3
 10
-56.9792211215768916
 20
15.3090940417270804
 30
-0.0000000000000142
 11
-41.7476749098490671
 21
41.6909059582729213
 31
-0.0000000000000108
  0
LINE
  5
3454
  8
0
  6
CONTINUOUS
 62
     3
 10
41.7476749098491098
 20
41.6909059582729071
 30
0.0000000000000142
 11
56.9792211215769413
 21
15.3090940417270591
 31
0.0000000000000176
  0
LINE
  5
3455
  8
0
  6
CONTINUOUS
 62
     3
 10
15.2315462117277907
 20
-57.0000000000000213
 30
0.0
 11
-15.2315462117277907
 21
-57.0000000000000071
 31
-0.0000000000000068
  0
LINE
  5
3456
  8
0
  6
CONTINUOUS
 62
     3
 10
-41.7476749098490671
 20
-41.6909059582729284
 30
-0.0000000000000142
 11
-56.9792211215768987
 21
-15.3090940417270698
 31
-0.0000000000000176
  0
LINE
  5
3457
  8
0
  6
CONTINUOUS
 62
     3
 10
-15.2315462117278209
 20
56.9999999999999929
 30
0.0
 11
15.2315462117278404
 21
56.9999999999999929
 31
0.0000000000000068
  0
CIRCLE
  5
3458
  8
0
  6
CONTINUOUS
 62
     3
 10
0.0000000000000155
 20
-0.0000000000000099
 30
0.0
 40
56.5
  0
CIRCLE
  5
3459
  8
0
  6
CONTINUOUS
 62
     3
 10
0.0
 20
-0.0000000000000142
 30
0.0
 40
55.7099256195800194
  0
LINE
  5
345A
  8
0
  6
VERDECKT
 62
     1
 10
58.8414655156967115
 20
-16.0835921350013109
 30
0.0000000000000142
 11
51.0954988232818579
 21
-29.5000000000000391
 31
0.0000000000000125
  0
LINE
  5
345B
  8
0
  6
VERDECKT
 62
     1
 10
51.0954988232818579
 20
-29.5000000000000391
 30
0.0000000000000142
 11
43.3495321308670185
 21
-42.9164078649987601
 31
0.0000000000000125
  0
LINE
  5
345C
  8
0
  6
VERDECKT
 62
     1
 10
-58.841465515696683
 20
16.0835921350012789
 30
-0.0000000000000142
 11
-51.0954988232818366
 21
29.5000000000000213
 31
-0.0000000000000125
  0
LINE
  5
345D
  8
0
  6
VERDECKT
 62
     1
 10
-51.0954988232818366
 20
29.5000000000000213
 30
-0.0000000000000142
 11
-43.3495321308669972
 21
42.9164078649987388
 31
-0.0000000000000125
  0
LINE
  5
345E
  8
0
  6
VERDECKT
 62
     1
 10
43.3495321308670825
 20
42.9164078649987104
 30
0.0000000000000142
 11
51.0954988232819076
 21
29.4999999999999787
 31
0.0000000000000159
  0
LINE
  5
345F
  8
0
  6
VERDECKT
 62
     1
 10
51.0954988232819076
 20
29.4999999999999787
 30
0.0000000000000142
 11
58.8414655156967328
 21
16.0835921350012505
 31
0.0000000000000159
  0
LINE
  5
3460
  8
0
  6
VERDECKT
 62
     1
 10
15.4919333848296397
 20
-59.0000000000000071
 30
0.0
 11
-0.0000000000000142
 21
-59.0
 31
-0.0000000000000034
  0
LINE
  5
3461
  8
0
  6
VERDECKT
 62
     1
 10
-0.0000000000000138
 20
-59.0
 30
0.0
 11
-15.4919333848296805
 21
-58.9999999999999787
 31
-0.0000000000000034
  0
LINE
  5
3462
  8
0
  6
VERDECKT
 62
     1
 10
-43.3495321308670469
 20
-42.9164078649987104
 30
-0.0000000000000142
 11
-51.0954988232818721
 21
-29.4999999999999716
 31
-0.0000000000000159
  0
LINE
  5
3463
  8
0
  6
VERDECKT
 62
     1
 10
-51.0954988232818721
 20
-29.4999999999999716
 30
-0.0000000000000142
 11
-58.8414655156967115
 21
-16.0835921350012292
 31
-0.0000000000000159
  0
LINE
  5
3464
  8
0
  6
VERDECKT
 62
     1
 10
-15.4919333848296095
 20
58.9999999999999929
 30
0.0
 11
0.0000000000000373
 21
58.9999999999999787
 31
0.0000000000000034
  0
LINE
  5
3465
  8
0
  6
VERDECKT
 62
     1
 10
0.0000000000000377
 20
58.9999999999999787
 30
0.0
 11
15.4919333848296894
 21
58.9999999999999787
 31
0.0000000000000034
  0
CIRCLE
  5
3466
  8
0
  6
VERDECKT
 62
     1
 10
0.0000000000000155
 20
-0.0000000000000099
 30
0.0
 40
58.5
  0
CIRCLE
  5
3467
  8
0
  6
VERDECKT
 62
     1
 10
0.0
 20
-0.0000000000000142
 30
0.0
 40
57.7000000000000028
  0
ENDBLK
  5
3469
  8
0
  0
ENDSEC
  0
SECTION
  2
ENTITIES
  0
TEXT
  5
8F
  8
VOLL
 10
78.076754716981128
 20
31.025947764705851
 30
0.0
 40
1.8
  1

  7
GREEKS
  0
TEXT
  5
7D6
  8
TEXT
 10
112.5648195562657037
 20
31.1053167302616203
 30
0.0
 40
2.5
  1

 41
0.8
  7
GREEKS
  0
INSERT
  5
2245
  8
ADSK_ASSOC_ENTITY_BACKUPS
  2
*S0
 10
0.0
 20
0.0
 30
0.0
  0
INSERT
  5
344D
  8
STEMPEL
  2
A$C4E1152AF
 10
0.0
 20
0.0
 30
0.0
  0
INSERT
  5
346A
  8
STEMPEL
  2
A$C631F7EDF
 10
-0.0000000000000117
 20
-110.9999999999999005
 30
0.0
  0
VIEWPORT
  5
1CB0
 67
     1
  8
0
 10
99.376202152900234
 20
145.4531397441537024
 30
0.0
 40
556.9215620827770863
 41
298.5140186915887739
 68
     1
 69
     1
1001
ACAD
1000
MVIEW
1002
{
1070
    16
1010
0.0
1020
0.0
1030
0.0
1010
0.0
1020
0.0
1030
1.0
1040
0.0
1040
298.5140186915887739
1040
99.376202152900234
1040
145.4531397441537024
1040
50.0
1040
0.0
1040
0.0
1070
     0
1070
  1500
1070
     1
1070
     1
1070
     0
1070
     0
1070
     0
1070
     0
1040
0.0
1040
0.0
1040
0.0
1040
10.0
1040
10.0
1040
10.0
1040
10.0
1070
     0
1002
{
1002
}
1002
}
  0
ENDSEC
  0
EOF
