  0
SECTION
  2
HEADER
  9
$ACADVER
  1
AC1009
  9
$INSBASE
 10
0.0
 20
0.0
 30
0.0
  9
$EXTMIN
 10
-73.1500000000000199
 20
-173.1500000000000057
 30
-0.0000000000000098
  9
$EXTMAX
 10
73.1500000000000199
 20
44.0000000000000213
 30
0.0
  9
$LIMMIN
 10
0.0
 20
0.0
  9
$LIMMAX
 10
420.0
 20
297.0
  9
$ORTHOMODE
 70
     1
  9
$REGENMODE
 70
     1
  9
$FILLMODE
 70
     1
  9
$QTEXTMODE
 70
     0
  9
$MIRRTEXT
 70
     1
  9
$DRAGMODE
 70
     2
  9
$LTSCALE
 40
10.0
  9
$OSMODE
 70
   511
  9
$ATTMODE
 70
     2
  9
$TEXTSIZE
 40
3.5
  9
$TRACEWID
 40
1.0
  9
$TEXTSTYLE
  7
STANDARD
  9
$CLAYER
  8
STEMPEL
  9
$CELTYPE
  6
BYLAYER
  9
$CECOLOR
 62
   256
  9
$DIMSCALE
 40
1.0
  9
$DIMASZ
 40
3.5
  9
$DIMEXO
 40
1.0
  9
$DIMDLI
 40
0.38
  9
$DIMRND
 40
0.0
  9
$DIMDLE
 40
0.0
  9
$DIMEXE
 40
1.0
  9
$DIMTP
 40
0.0
  9
$DIMTM
 40
0.000000001
  9
$DIMTXT
 40
3.5
  9
$DIMCEN
 40
0.09
  9
$DIMTSZ
 40
0.0
  9
$DIMTOL
 70
     0
  9
$DIMLIM
 70
     0
  9
$DIMTIH
 70
     0
  9
$DIMTOH
 70
     0
  9
$DIMSE1
 70
     0
  9
$DIMSE2
 70
     0
  9
$DIMTAD
 70
     1
  9
$DIMZIN
 70
     8
  9
$DIMBLK
  1

  9
$DIMASO
 70
     1
  9
$DIMSHO
 70
     0
  9
$DIMPOST
  1

  9
$DIMAPOST
  1

  9
$DIMALT
 70
     0
  9
$DIMALTD
 70
     2
  9
$DIMALTF
 40
25.3999999999999986
  9
$DIMLFAC
 40
1.0
  9
$DIMTOFL
 70
     1
  9
$DIMTVP
 40
0.0
  9
$DIMTIX
 70
     0
  9
$DIMSOXD
 70
     0
  9
$DIMSAH
 70
     0
  9
$DIMBLK1
  1

  9
$DIMBLK2
  1

  9
$DIMSTYLE
  2
LORO
  9
$DIMCLRD
 70
     0
  9
$DIMCLRE
 70
     0
  9
$DIMCLRT
 70
     1
  9
$DIMTFAC
 40
0.5
  9
$DIMGAP
 40
1.5
  9
$LUNITS
 70
     2
  9
$LUPREC
 70
     2
  9
$SKETCHINC
 40
1.0
  9
$FILLETRAD
 40
0.0
  9
$AUNITS
 70
     0
  9
$AUPREC
 70
     0
  9
$MENU
  1
ACAD
  9
$ELEVATION
 40
0.0
  9
$PELEVATION
 40
0.0
  9
$THICKNESS
 40
0.0
  9
$LIMCHECK
 70
     0
  9
$BLIPMODE
 70
     0
  9
$CHAMFERA
 40
0.0
  9
$CHAMFERB
 40
0.0
  9
$SKPOLY
 70
     0
  9
$TDCREATE
 40
2455397.867048610933125
  9
$TDUPDATE
 40
2460525.5590046290308237
  9
$TDINDWG
 40
0.6916955208
  9
$TDUSRTIMER
 40
0.6916955208
  9
$USRTIMER
 70
     1
  9
$ANGBASE
 50
0.0
  9
$ANGDIR
 70
     0
  9
$PDMODE
 70
     0
  9
$PDSIZE
 40
0.0
  9
$PLINEWID
 40
0.0
  9
$COORDS
 70
     1
  9
$SPLFRAME
 70
     0
  9
$SPLINETYPE
 70
     6
  9
$SPLINESEGS
 70
     8
  9
$ATTDIA
 70
     1
  9
$ATTREQ
 70
     1
  9
$HANDLING
 70
     1
  9
$HANDSEED
  5
5482
  9
$SURFTAB1
 70
     6
  9
$SURFTAB2
 70
     6
  9
$SURFTYPE
 70
     6
  9
$SURFU
 70
     6
  9
$SURFV
 70
     6
  9
$UCSNAME
  2

  9
$UCSORG
 10
0.0
 20
0.0
 30
0.0
  9
$UCSXDIR
 10
1.0
 20
0.0
 30
0.0
  9
$UCSYDIR
 10
0.0
 20
1.0
 30
0.0
  9
$PUCSNAME
  2

  9
$PUCSORG
 10
0.0
 20
0.0
 30
0.0
  9
$PUCSXDIR
 10
1.0
 20
0.0
 30
0.0
  9
$PUCSYDIR
 10
0.0
 20
1.0
 30
0.0
  9
$USERI1
 70
     0
  9
$USERI2
 70
     0
  9
$USERI3
 70
     0
  9
$USERI4
 70
     0
  9
$USERI5
 70
     0
  9
$USERR1
 40
0.0
  9
$USERR2
 40
0.0
  9
$USERR3
 40
0.0
  9
$USERR4
 40
0.0
  9
$USERR5
 40
0.0
  9
$WORLDVIEW
 70
     1
  9
$SHADEDGE
 70
     3
  9
$SHADEDIF
 70
    70
  9
$TILEMODE
 70
     1
  9
$MAXACTVP
 70
    16
  9
$PLIMCHECK
 70
     0
  9
$PEXTMIN
 10
1.0000000000000000E+20
 20
1.0000000000000000E+20
 30
1.0000000000000000E+20
  9
$PEXTMAX
 10
-1.0000000000000000E+20
 20
-1.0000000000000000E+20
 30
-1.0000000000000000E+20
  9
$PLIMMIN
 10
-0.2527668589795553
 20
-0.2505679838556034
  9
$PLIMMAX
 10
296.7472331410203878
 20
419.7494320161442829
  9
$UNITMODE
 70
     0
  9
$VISRETAIN
 70
     0
  9
$PLINEGEN
 70
     0
  9
$PSLTSCALE
 70
     0
  0
ENDSEC
  0
SECTION
  2
TABLES
  0
TABLE
  2
VPORT
 70
     1
  0
VPORT
  2
*ACTIVE
 70
     0
 10
0.0
 20
0.0
 11
1.0
 21
1.0
 12
0.0
 22
0.0
 13
0.0
 23
0.0
 14
1.0
 24
1.0
 15
10.0
 25
10.0
 16
-0.0000000000001231
 26
0.0
 36
554.4131999614274946
 17
0.0
 27
-64.5749999999999886
 37
0.0000000000000015
 40
218.2693298969072089
 41
1.8847807394668961
 42
50.0
 43
0.0
 44
0.0
 50
0.0
 51
0.0
 71
     0
 72
  1500
 73
     1
 74
     0
 75
     0
 76
     0
 77
     0
 78
     0
  0
ENDTAB
  0
TABLE
  2
LTYPE
 70
     4
  0
LTYPE
  2
CONTINUOUS
 70
     0
  3
Solid line
 72
    65
 73
     0
 40
0.0
  0
LTYPE
  2
STRICHPUNKT
 70
     0
  3
__ . __ . __ . __ . __ . __ . __ . __ . __ . __
 72
    65
 73
     4
 40
1.0
 49
0.5
 49
-0.25
 49
0.0
 49
-0.25
  0
LTYPE
  2
VERDECKT
 70
     0
  3
Verdeckt __ __ __ __ __ __ __ __ __ __ __ __ __
 72
    65
 73
     2
 40
0.375
 49
0.25
 49
-0.125
  0
ENDTAB
  0
TABLE
  2
LAYER
 70
     6
  0
LAYER
  2
0
 70
     0
 62
     7
  6
CONTINUOUS
  0
LAYER
  2
STEMPEL
 70
     0
 62
     3
  6
CONTINUOUS
  0
LAYER
  2
ADSK_ASSOC_ENTITY_BACKUPS
 70
     1
 62
    -7
  6
CONTINUOUS
  0
ENDTAB
  0
TABLE
  2
STYLE
 70
     2
  0
STYLE
  2
STANDARD
 70
     0
 40
0.0
 41
0.8
 50
0.0
 71
     0
 42
3.5
  3
simplex.shx
  4

  0
ENDTAB
  0
TABLE
  2
VIEW
 70
     0
  0
ENDTAB
  0
TABLE
  2
UCS
 70
     0
  0
ENDTAB
  0
TABLE
  2
APPID
 70
    28
  0
APPID
  2
ACAD
 70
     0
  0
APPID
  2
ACAD_NAV_VCDISPLAY
 70
     0
  0
APPID
  2
GRADIENTCOLOR1ACI
 70
     0
  0
APPID
  2
GRADIENTCOLOR2ACI
 70
     0
  0
APPID
  2
ACAD_DSTYLE_DIMRADIAL_EXTENSION
 70
     0
  0
APPID
  2
ACADANNOMONITORALERTICONDI
 70
     0
  0
APPID
  2
ACAD_EXEMPT_FROM_CAD_STANDARDS
 70
     0
  0
APPID
  2
ACAD_MLEADERVER
 70
     0
  0
APPID
  2
ACAD_PSEXT
 70
     0
  0
APPID
  2
ACAECLAYERSTANDARD
 70
     0
  0
APPID
  2
ACAUTHENVIRON
 70
     0
  0
APPID
  2
ACDBDYNAMICBLOCKTRUENAME
 70
     0
  0
APPID
  2
ACDBDYNAMICBLOCKGUID
 70
     0
  0
APPID
  2
ACCMTRANSPARENCY
 70
     0
  0
APPID
  2
ACAD_STEPID
 70
     0
  0
APPID
  2
ACAD_DSTYLE_DIMJAG
 70
     0
  0
APPID
  2
ACAD_DSTYLE_DIMTALN
 70
     0
  0
APPID
  2
ACAD_DSTYLE_DIMBREAK
 70
     0
  0
APPID
  2
ACSYNERGY
 70
     0
  0
APPID
  2
SYNERGY_BODY_TBR_ID
 70
     0
  0
APPID
  2
ACAD_VIEW_EDGE_ID
 70
     0
  0
APPID
  2
ACSYNERGYSKETCH
 70
     0
  0
APPID
  2
ACAD_MODELDOC_XFORM
 70
     0
  0
APPID
  2
ACAD_DIMASSOC_CALC_DIMLFAC
 70
     0
  0
APPID
  2
ACAD_DIMASSOC_DIMLFAC
 70
     0
  0
APPID
  2
ACAD_DIMASSOC_OVERRIDDEN_D
 70
     0
  0
APPID
  2
ACADANNOPO
 70
     0
  0
APPID
  2
ACADANNOTATIVE
 70
     0
  0
ENDTAB
  0
TABLE
  2
DIMSTYLE
 70
     1
  0
DIMSTYLE
  2
LORO
 70
     0
  3

  4

  5

  6

  7

 40
1.0
 41
3.5
 42
1.0
 43
0.38
 44
1.0
 45
0.0
 46
0.0
 47
0.0
 48
0.000000001
140
3.5
141
0.09
142
0.0
143
25.3999999999999986
144
1.0
145
0.0
146
0.5
147
1.5
 71
     0
 72
     0
 73
     0
 74
     0
 75
     0
 76
     0
 77
     1
 78
     8
170
     0
171
     2
172
     1
173
     0
174
     0
175
     0
176
     0
177
     0
178
     1
  0
ENDTAB
  0
ENDSEC
  0
SECTION
  2
BLOCKS
  0
BLOCK
  8
0
  2
$MODEL_SPACE
 70
     0
 10
0.0
 20
0.0
 30
0.0
  3
$MODEL_SPACE
  1

  0
ENDBLK
  5
38
  8
0
  0
BLOCK
 67
     1
  8
0
  2
$PAPER_SPACE
 70
     0
 10
0.0
 20
0.0
 30
0.0
  3
$PAPER_SPACE
  1

  0
ENDBLK
  5
36
 67
     1
  8
0
  0
BLOCK
  8
0
  2
*S0
 70
     1
 10
0.0
 20
0.0
 30
0.0
  3
*S0
  1

  0
ENDBLK
  5
1C1E
  8
0
  0
BLOCK
  8
0
  2
A$C7B7D62EE
 70
     0
 10
0.0
 20
0.0
 30
0.0
  3
A$C7B7D62EE
  1

  0
LINE
  5
53D5
  8
0
  6
CONTINUOUS
 62
     3
 10
-73.1500000000000199
 20
11.0000000000000107
 30
-0.0000000000000024
 11
73.1500000000000199
 21
11.0000000000000107
 31
-0.0000000000000024
210
0.0
220
1.0
230
-0.0000000000000002
  0
LINE
  5
53D6
  8
0
  6
CONTINUOUS
 62
     3
 10
-73.1500000000000199
 20
9.0000000000000142
 30
-0.000000000000002
 11
73.1500000000000199
 21
9.0000000000000142
 31
-0.000000000000002
210
0.0
220
1.0
230
-0.0000000000000002
  0
LINE
  5
53D7
  8
0
  6
CONTINUOUS
 62
     3
 10
73.1500000000000199
 20
11.0000000000000107
 30
-0.0000000000000024
 11
73.1500000000000199
 21
9.0000000000000142
 31
-0.000000000000002
210
0.0
220
1.0
230
-0.0000000000000002
  0
LINE
  5
53D8
  8
0
  6
CONTINUOUS
 62
     3
 10
-73.1500000000000199
 20
11.0000000000000107
 30
-0.0000000000000024
 11
-73.1500000000000199
 21
9.0000000000000142
 31
-0.000000000000002
210
0.0
220
1.0
230
-0.0000000000000002
  0
LINE
  5
53D9
  8
0
  6
CONTINUOUS
 62
     3
 10
68.5
 20
4.5000000000000151
 30
-0.000000000000001
 11
-68.5
 21
4.5000000000000151
 31
-0.000000000000001
210
0.0
220
1.0
230
-0.0000000000000002
  0
LINE
  5
53DA
  8
0
  6
CONTINUOUS
 62
     3
 10
71.5
 20
44.0000000000000071
 30
-0.0000000000000098
 11
-71.5
 21
44.0000000000000071
 31
-0.0000000000000098
210
0.0
220
1.0
230
-0.0000000000000002
  0
LINE
  5
53DB
  8
0
  6
CONTINUOUS
 62
     3
 10
69.0
 20
0.0000000000000128
 30
0.0
 11
-69.0
 21
0.0000000000000128
 31
0.0
210
0.0
220
1.0
230
-0.0000000000000002
  0
LINE
  5
53DC
  8
0
  6
CONTINUOUS
 62
     3
 10
68.5
 20
1.5000000000000131
 30
-0.0000000000000003
 11
-68.5
 21
1.5000000000000131
 31
-0.0000000000000003
210
0.0
220
1.0
230
-0.0000000000000002
  0
ARC
  5
53DD
  8
0
  6
CONTINUOUS
 62
     3
 10
-68.5
 20
5.0000000000000124
 30
0.0
 40
0.5
210
0.0
220
-0.0000000000000002
230
-1.0
 50
179.9999999999994884
 51
270.0
  0
ARC
  5
53DE
  8
0
  6
CONTINUOUS
 62
     3
 10
68.5
 20
5.0000000000000124
 30
0.0
 40
0.4999999999999938
210
0.0
220
-0.0000000000000002
230
-1.0
 50
270.0
 51
0.0000000000005089
  0
LINE
  5
53DF
  8
0
  6
CONTINUOUS
 62
     3
 10
-69.0
 20
5.000000000000016
 30
-0.0000000000000011
 11
-69.0
 21
9.0000000000000142
 31
-0.000000000000002
210
0.0
220
1.0
230
-0.0000000000000002
  0
LINE
  5
53E0
  8
0
  6
CONTINUOUS
 62
     3
 10
-69.0
 20
11.0000000000000107
 30
-0.0000000000000024
 11
-69.0
 21
17.5000000000000107
 31
-0.0000000000000039
210
0.0
220
1.0
230
-0.0000000000000002
  0
LINE
  5
53E1
  8
0
  6
CONTINUOUS
 62
     3
 10
69.0
 20
5.000000000000016
 30
-0.0000000000000011
 11
69.0
 21
9.0000000000000142
 31
-0.000000000000002
210
0.0
220
1.0
230
-0.0000000000000002
  0
LINE
  5
53E2
  8
0
  6
CONTINUOUS
 62
     3
 10
69.0
 20
11.0000000000000107
 30
-0.0000000000000024
 11
69.0
 21
17.5000000000000107
 31
-0.0000000000000039
210
0.0
220
1.0
230
-0.0000000000000002
  0
ARC
  5
53E3
  8
0
  6
CONTINUOUS
 62
     3
 10
-69.4999999999994458
 20
17.5000000000000711
 30
0.0
 40
0.4999999999994458
210
0.0
220
-0.0000000000000002
230
-1.0
 50
359.9999999999923261
 51
17.1144331639181289
  0
ARC
  5
53E4
  8
0
  6
CONTINUOUS
 62
     3
 10
69.4999999999994458
 20
17.5000000000000711
 30
0.0
 40
0.4999999999994451
210
0.0
220
-0.0000000000000002
230
-1.0
 50
162.8855668360818072
 51
180.0000000000075886
  0
LINE
  5
53E5
  8
0
  6
CONTINUOUS
 62
     3
 10
-69.0221405430584696
 20
17.6471405430584696
 30
-0.0000000000000039
 11
-69.4114378277661643
 21
18.9114378277661501
 31
-0.0000000000000042
210
0.0
220
1.0
230
-0.0000000000000002
  0
LINE
  5
53E6
  8
0
  6
CONTINUOUS
 62
     3
 10
69.0221405430584696
 20
17.6471405430584696
 30
-0.0000000000000039
 11
69.4114378277661643
 21
18.9114378277661501
 31
-0.0000000000000042
210
0.0
220
1.0
230
-0.0000000000000002
  0
ARC
  5
53E7
  8
0
  6
CONTINUOUS
 62
     3
 10
-67.4999999999999005
 20
19.5000000000000107
 30
0.0
 40
2.000000000000099
210
0.0
220
-0.0000000000000002
230
-1.0
 50
180.000000000000199
 51
197.1144331639054883
  0
ARC
  5
53E8
  8
0
  6
CONTINUOUS
 62
     3
 10
67.4999999999999005
 20
19.5000000000000107
 30
0.0
 40
2.0000000000000981
210
0.0
220
-0.0000000000000002
230
-1.0
 50
342.8855668360944833
 51
359.9999999999997158
  0
LINE
  5
53E9
  8
0
  6
CONTINUOUS
 62
     3
 10
-69.5
 20
19.5
 30
-0.0000000000000043
 11
-69.5
 21
31.5000000000000107
 31
-0.000000000000007
210
0.0
220
1.0
230
-0.0000000000000002
  0
LINE
  5
53EA
  8
0
  6
CONTINUOUS
 62
     3
 10
69.5
 20
19.5
 30
-0.0000000000000043
 11
69.5
 21
31.5000000000000107
 31
-0.000000000000007
210
0.0
220
1.0
230
-0.0000000000000002
  0
ARC
  5
53EB
  8
0
  6
CONTINUOUS
 62
     3
 10
-72.4999999999999574
 20
31.5000000000000284
 30
0.0
 40
2.9999999999999569
210
0.0
220
-0.0000000000000002
230
-1.0
 50
359.9999999999996021
 51
43.6028189727036235
  0
ARC
  5
53EC
  8
0
  6
CONTINUOUS
 62
     3
 10
72.4999999999999574
 20
31.5000000000000284
 30
0.0
 40
2.9999999999999551
210
0.0
220
-0.0000000000000002
230
-1.0
 50
136.3971810272963125
 51
180.0000000000003979
  0
LINE
  5
53ED
  8
0
  6
CONTINUOUS
 62
     3
 10
-70.3275862068965409
 20
33.5689655172413879
 30
-0.0000000000000075
 11
-70.6724137931034448
 21
33.9310344827586476
 31
-0.0000000000000075
210
0.0
220
1.0
230
-0.0000000000000002
  0
LINE
  5
53EE
  8
0
  6
CONTINUOUS
 62
     3
 10
70.3275862068965409
 20
33.5689655172413879
 30
-0.0000000000000075
 11
70.6724137931034448
 21
33.9310344827586476
 31
-0.0000000000000075
210
0.0
220
1.0
230
-0.0000000000000002
  0
ARC
  5
53EF
  8
0
  6
CONTINUOUS
 62
     3
 10
-68.5
 20
36.0000000000000071
 30
0.0
 40
3.0
210
0.0
220
-0.0000000000000002
230
-1.0
 50
179.999999999999801
 51
223.6028189727032895
  0
ARC
  5
53F0
  8
0
  6
CONTINUOUS
 62
     3
 10
68.5
 20
36.0000000000000071
 30
0.0
 40
2.9999999999999991
210
0.0
220
-0.0000000000000002
230
-1.0
 50
316.3971810272967105
 51
0.0000000000001399
  0
LINE
  5
53F1
  8
0
  6
CONTINUOUS
 62
     3
 10
-71.5
 20
36.0000000000000071
 30
-0.000000000000008
 11
-71.5
 21
44.0000000000000071
 31
-0.0000000000000098
210
0.0
220
1.0
230
-0.0000000000000002
  0
LINE
  5
53F2
  8
0
  6
CONTINUOUS
 62
     3
 10
71.5
 20
36.0000000000000071
 30
-0.000000000000008
 11
71.5
 21
44.0000000000000071
 31
-0.0000000000000098
210
0.0
220
1.0
230
-0.0000000000000002
  0
LINE
  5
53F3
  8
0
  6
CONTINUOUS
 62
     3
 10
-69.0
 20
0.0000000000000127
 30
0.0
 11
-69.0
 21
1.0000000000000131
 31
-0.0000000000000002
210
0.0
220
1.0
230
-0.0000000000000002
  0
LINE
  5
53F4
  8
0
  6
CONTINUOUS
 62
     3
 10
69.0
 20
0.0000000000000128
 30
0.0
 11
69.0
 21
1.0000000000000131
 31
-0.0000000000000002
210
0.0
220
1.0
230
-0.0000000000000002
  0
ARC
  5
53F5
  8
0
  6
CONTINUOUS
 62
     3
 10
-68.4999999999999858
 20
0.9999999999999907
 30
0.0
 40
0.5000000000000162
210
0.0
220
-0.0000000000000002
230
-1.0
 50
90.0000000000016058
 51
179.9999999999974136
  0
ARC
  5
53F6
  8
0
  6
CONTINUOUS
 62
     3
 10
68.4999999999999858
 20
0.9999999999999909
 30
0.0
 40
0.5000000000000142
210
0.0
220
-0.0000000000000002
230
-1.0
 50
0.0000000000025444
 51
89.9999999999983658
  0
ARC
  5
53F7
  8
0
  6
CONTINUOUS
 62
     3
 10
-68.2000000000000028
 20
3.0000000000000142
 30
0.0
 40
1.5
210
0.0
220
-0.0000000000000002
230
-1.0
 50
90.0
 51
270.0
  0
ARC
  5
53F8
  8
0
  6
CONTINUOUS
 62
     3
 10
68.2000000000000028
 20
3.0000000000000142
 30
0.0
 40
1.5
210
0.0
220
-0.0000000000000002
230
-1.0
 50
270.0
 51
90.0
  0
LINE
  5
53F9
  8
0
  6
VERDECKT
 62
     1
 10
69.0999999999999943
 20
11.0000000000000107
 30
-0.0000000000000024
 11
69.0999999999999943
 21
9.0000000000000142
 31
-0.000000000000002
210
0.0
220
1.0
230
-0.0000000000000002
  0
LINE
  5
53FA
  8
0
  6
VERDECKT
 62
     1
 10
-69.0999999999999943
 20
11.0000000000000107
 30
-0.0000000000000024
 11
-69.0999999999999943
 21
9.0000000000000142
 31
-0.000000000000002
210
0.0
220
1.0
230
-0.0000000000000002
  0
ARC
  5
53FB
  8
0
  6
VERDECKT
 62
     1
 10
-68.2000000000000028
 20
3.0000000000000142
 30
0.0
 40
1.5
210
0.0
220
-0.0000000000000002
230
-1.0
 50
270.0
 51
90.0
  0
ARC
  5
53FC
  8
0
  6
VERDECKT
 62
     1
 10
68.2000000000000028
 20
3.0000000000000142
 30
0.0
 40
1.5
210
0.0
220
-0.0000000000000002
230
-1.0
 50
90.0
 51
270.0
  0
LINE
  5
53FD
  8
0
  6
VERDECKT
 62
     1
 10
-69.0
 20
9.0000000000000142
 30
-0.000000000000002
 11
-69.0
 21
11.0000000000000107
 31
-0.0000000000000024
210
0.0
220
1.0
230
-0.0000000000000002
  0
LINE
  5
53FE
  8
0
  6
VERDECKT
 62
     1
 10
69.0
 20
9.0000000000000142
 30
-0.000000000000002
 11
69.0
 21
11.0000000000000107
 31
-0.0000000000000024
210
0.0
220
1.0
230
-0.0000000000000002
  0
LINE
  5
53FF
  8
0
  6
VERDECKT
 62
     1
 10
-70.0
 20
36.0000000000000071
 30
-0.000000000000008
 11
-70.0
 21
44.0000000000000213
 31
-0.0000000000000098
210
0.0
220
1.0
230
-0.0000000000000002
  0
LINE
  5
5400
  8
0
  6
VERDECKT
 62
     1
 10
70.0
 20
36.0000000000000071
 30
-0.000000000000008
 11
70.0
 21
44.0000000000000213
 31
-0.0000000000000098
210
0.0
220
1.0
230
-0.0000000000000002
  0
ARC
  5
5401
  8
0
  6
VERDECKT
 62
     1
 10
-68.4999999999999432
 20
36.0000000000000426
 30
0.0
 40
1.500000000000056
210
0.0
220
-0.0000000000000002
230
-1.0
 50
180.0000000000009948
 51
223.6028189727026074
  0
ARC
  5
5402
  8
0
  6
VERDECKT
 62
     1
 10
68.4999999999999432
 20
36.0000000000000426
 30
0.0
 40
1.50000000000006
210
0.0
220
-0.0000000000000002
230
-1.0
 50
316.3971810272973926
 51
359.9999999999988063
  0
LINE
  5
5403
  8
0
  6
VERDECKT
 62
     1
 10
-69.2413793103448114
 20
34.6034482758620712
 30
-0.0000000000000077
 11
-69.5862068965517295
 21
34.9655172413793167
 31
-0.0000000000000078
210
0.0
220
1.0
230
-0.0000000000000002
  0
LINE
  5
5404
  8
0
  6
VERDECKT
 62
     1
 10
69.2413793103448114
 20
34.603448275862057
 30
-0.0000000000000077
 11
69.5862068965517295
 21
34.9655172413793167
 31
-0.0000000000000078
210
0.0
220
1.0
230
-0.0000000000000002
  0
ARC
  5
5405
  8
0
  6
VERDECKT
 62
     1
 10
-72.4999999999999858
 20
31.5000000000000213
 30
0.0
 40
4.4999999999999849
210
0.0
220
-0.0000000000000002
230
-1.0
 50
0.0
 51
43.6028189727034388
  0
ARC
  5
5406
  8
0
  6
VERDECKT
 62
     1
 10
72.5000000000000284
 20
31.5000000000000107
 30
0.0
 40
4.5000000000000293
210
0.0
220
-0.0000000000000002
230
-1.0
 50
136.3971810272967957
 51
179.9999999999998863
  0
LINE
  5
5407
  8
0
  6
VERDECKT
 62
     1
 10
-68.0
 20
19.5
 30
-0.0000000000000043
 11
-68.0
 21
31.5000000000000107
 31
-0.000000000000007
210
0.0
220
1.0
230
-0.0000000000000002
  0
LINE
  5
5408
  8
0
  6
VERDECKT
 62
     1
 10
68.0
 20
19.5
 30
-0.0000000000000043
 11
68.0
 21
31.5000000000000107
 31
-0.000000000000007
210
0.0
220
1.0
230
-0.0000000000000002
  0
ARC
  5
5409
  8
0
  6
VERDECKT
 62
     1
 10
-67.5000000000006253
 20
19.4999999999999289
 30
0.0
 40
0.4999999999993748
210
0.0
220
-0.0000000000000002
230
-1.0
 50
179.9999999999922125
 51
197.1144331639196992
  0
ARC
  5
540A
  8
0
  6
VERDECKT
 62
     1
 10
67.5000000000006253
 20
19.4999999999999289
 30
0.0
 40
0.4999999999993751
210
0.0
220
-0.0000000000000002
230
-1.0
 50
342.8855668360802724
 51
0.0000000000077351
  0
LINE
  5
540B
  8
0
  6
VERDECKT
 62
     1
 10
-67.5885621722338499
 20
18.0885621722338605
 30
-0.000000000000004
 11
-67.9778594569415304
 21
19.3528594569415411
 31
-0.0000000000000043
210
0.0
220
1.0
230
-0.0000000000000002
  0
LINE
  5
540C
  8
0
  6
VERDECKT
 62
     1
 10
67.5885621722338499
 20
18.0885621722338605
 30
-0.000000000000004
 11
67.9778594569415304
 21
19.3528594569415411
 31
-0.0000000000000043
210
0.0
220
1.0
230
-0.0000000000000002
  0
ARC
  5
540D
  8
0
  6
VERDECKT
 62
     1
 10
-69.5000000000001137
 20
17.5
 30
0.0
 40
2.0000000000001128
210
0.0
220
-0.0000000000000002
230
-1.0
 50
0.0000000000003053
 51
17.1144331639055309
  0
ARC
  5
540E
  8
0
  6
VERDECKT
 62
     1
 10
69.5000000000001137
 20
17.5
 30
0.0
 40
2.0000000000001128
210
0.0
220
-0.0000000000000002
230
-1.0
 50
162.885566836094398
 51
179.9999999999996874
  0
LINE
  5
540F
  8
0
  6
VERDECKT
 62
     1
 10
-67.5
 20
6.2878564445547358
 30
-0.0000000000000014
 11
-67.5
 21
17.5000000000000107
 31
-0.0000000000000039
210
0.0
220
1.0
230
-0.0000000000000002
  0
LINE
  5
5410
  8
0
  6
VERDECKT
 62
     1
 10
67.5
 20
6.2878564445547349
 30
-0.0000000000000014
 11
67.5
 21
17.5000000000000107
 31
-0.0000000000000039
210
0.0
220
1.0
230
-0.0000000000000002
  0
ARC
  5
5411
  8
0
  6
VERDECKT
 62
     1
 10
-66.9999999999999716
 20
6.28785644455475
 30
0.0
 40
0.5000000000000285
210
0.0
220
-0.0000000000000002
230
-1.0
 50
180.0000000000015064
 51
249.9489574334907047
  0
ARC
  5
5412
  8
0
  6
VERDECKT
 62
     1
 10
66.9999999999999716
 20
6.28785644455475
 30
0.0
 40
0.5000000000000203
210
0.0
220
-0.0000000000000002
230
-1.0
 50
290.0510425665092953
 51
359.9999999999984084
  0
ARC
  5
5413
  8
0
  6
VERDECKT
 62
     1
 10
-68.2000000000000028
 20
3.0000000000000142
 30
0.0
 40
3.0
210
0.0
220
-0.0000000000000002
230
-1.0
 50
284.9552483166431784
 51
69.948957433494158
  0
ARC
  5
5414
  8
0
  6
VERDECKT
 62
     1
 10
68.2000000000000028
 20
3.0000000000000151
 30
0.0
 40
2.9999999999999991
210
0.0
220
-0.0000000000000002
230
-1.0
 50
110.0510425665057994
 51
255.0447516833567931
  0
ARC
  5
5415
  8
0
  6
VERDECKT
 62
     1
 10
-67.4000000000000057
 20
0.0050041736256499
 30
0.0
 40
0.0999999999999757
210
0.0
220
-0.0000000000000002
230
-1.0
 50
104.955248316641601
 51
180.0000000000121929
  0
ARC
  5
5416
  8
0
  6
VERDECKT
 62
     1
 10
67.4000000000000057
 20
0.0050041736256499
 30
0.0
 40
0.0999999999999801
210
0.0
220
-0.0000000000000002
230
-1.0
 50
359.9999999999877218
 51
75.0447516833584416
  0
LINE
  5
5417
  8
0
  6
VERDECKT
 62
     1
 10
-67.5
 20
0.0000000000000124
 30
0.0
 11
-67.5
 21
0.0050041736256284
 31
0.0
210
0.0
220
1.0
230
-0.0000000000000002
  0
LINE
  5
5418
  8
0
  6
VERDECKT
 62
     1
 10
67.5
 20
0.0000000000000125
 30
0.0
 11
67.5
 21
0.0050041736256284
 31
0.0
210
0.0
220
1.0
230
-0.0000000000000002
  0
ARC
  5
5419
  8
0
  6
VERDECKT
 62
     1
 10
-68.2000000000000028
 20
3.0000000000000142
 30
0.0
 40
1.5
210
0.0
220
-0.0000000000000002
230
-1.0
 50
270.0
 51
90.0
  0
ARC
  5
541A
  8
0
  6
VERDECKT
 62
     1
 10
68.2000000000000028
 20
3.0000000000000142
 30
0.0
 40
1.5
210
0.0
220
-0.0000000000000002
230
-1.0
 50
90.0
 51
270.0
  0
ENDBLK
  5
541C
  8
0
  0
BLOCK
  8
0
  2
A$C49256371
 70
     0
 10
0.0
 20
0.0
 30
0.0
  3
A$C49256371
  1

  0
CIRCLE
  5
5420
  8
0
  6
CONTINUOUS
 62
     3
 10
0.0000000000000024
 20
0.0000000000000568
 30
0.0
 40
73.1500000000000199
  0
CIRCLE
  5
5421
  8
0
  6
CONTINUOUS
 62
     3
 10
0.0000000000000098
 20
0.0000000000000382
 30
0.0
 40
71.5
  0
CIRCLE
  5
5422
  8
0
  6
CONTINUOUS
 62
     3
 10
0.0000000000000098
 20
0.0000000000000382
 30
0.0
 40
70.0
  0
CIRCLE
  5
5423
  8
0
  6
CONTINUOUS
 62
     3
 10
0.000000000000007
 20
0.0000000000000382
 30
0.0
 40
68.0
  0
CIRCLE
  5
5424
  8
0
  6
CONTINUOUS
 62
     3
 10
0.0000000000000039
 20
0.0000000000000382
 30
0.0
 40
67.5
  0
CIRCLE
  5
5425
  8
0
  6
CONTINUOUS
 62
     3
 10
0.0000000000000007
 20
0.0000000000000382
 30
0.0
 40
65.2000000000000028
  0
CIRCLE
  5
5426
  8
0
  6
VERDECKT
 62
     1
 10
0.0000000000000024
 20
0.0000000000000568
 30
0.0
 40
69.0999999999999943
  0
CIRCLE
  5
5427
  8
0
  6
VERDECKT
 62
     1
 10
0.0000000000000039
 20
0.0000000000000382
 30
0.0
 40
69.0
  0
CIRCLE
  5
5428
  8
0
  6
VERDECKT
 62
     1
 10
0.000000000000007
 20
0.0000000000000382
 30
0.0
 40
69.5
  0
CIRCLE
  5
5429
  8
0
  6
VERDECKT
 62
     1
 10
0.0000000000000007
 20
0.0000000000000382
 30
0.0
 40
66.7000000000000028
  0
CIRCLE
  5
542A
  8
0
  6
VERDECKT
 62
     1
 10
0.0000000000000007
 20
0.0000000000000426
 30
0.0
 40
69.7000000000000028
  0
CIRCLE
  5
542B
  8
0
  6
VERDECKT
 62
     1
 10
0.0000000000000007
 20
0.0000000000000426
 30
0.0
 40
66.7000000000000028
  0
ENDBLK
  5
542D
  8
0
  0
ENDSEC
  0
SECTION
  2
ENTITIES
  0
INSERT
  5
1C20
  8
ADSK_ASSOC_ENTITY_BACKUPS
  2
*S0
 10
0.0
 20
0.0
 30
0.0
  0
INSERT
  5
541D
  8
STEMPEL
  2
A$C7B7D62EE
 10
0.0
 20
0.0
 30
0.0
  0
INSERT
  5
542E
  8
STEMPEL
  2
A$C49256371
 10
0.0
 20
-100.0
 30
0.0
  0
VIEWPORT
  5
1B12
 67
     1
  8
0
 10
148.2472331410203878
 20
209.7494320161443966
 30
0.0
 40
795.6883637233959234
 41
422.1649484536083037
 68
     1
 69
     1
1001
ACAD
1000
MVIEW
1002
{
1070
    16
1010
0.0
1020
0.0
1030
0.0
1010
0.0
1020
0.0
1030
1.0
1040
0.0
1040
422.1649484536083037
1040
148.2472331410203878
1040
209.7494320161443966
1040
50.0
1040
0.0
1040
0.0
1070
     0
1070
  1500
1070
     1
1070
     1
1070
     0
1070
     0
1070
     0
1070
     0
1040
0.0
1040
0.0
1040
0.0
1040
10.0
1040
10.0
1040
10.0
1040
10.0
1070
     0
1002
{
1002
}
1002
}
  0
ENDSEC
  0
EOF
