  0
SECTION
  2
HEADER
  9
$ACADVER
  1
AC1009
  9
$INSBASE
 10
0.0
 20
0.0
 30
0.0
  9
$EXTMIN
 10
-61.6499999999999986
 20
-161.6500000000000057
 30
-0.0000000000000091
  9
$EXTMAX
 10
61.6499999999999986
 20
41.0000000000000213
 30
0.0
  9
$LIMMIN
 10
0.0
 20
0.0
  9
$LIMMAX
 10
420.0
 20
297.0
  9
$ORTHOMODE
 70
     1
  9
$REGENMODE
 70
     1
  9
$FILLMODE
 70
     1
  9
$QTEXTMODE
 70
     0
  9
$MIRRTEXT
 70
     1
  9
$DRAGMODE
 70
     2
  9
$LTSCALE
 40
10.0
  9
$OSMODE
 70
   511
  9
$ATTMODE
 70
     2
  9
$TEXTSIZE
 40
3.5
  9
$TRACEWID
 40
1.0
  9
$TEXTSTYLE
  7
STANDARD
  9
$CLAYER
  8
STEMPEL
  9
$CELTYPE
  6
BYLAYER
  9
$CECOLOR
 62
   256
  9
$DIMSCALE
 40
1.0
  9
$DIMASZ
 40
3.5
  9
$DIMEXO
 40
1.0
  9
$DIMDLI
 40
0.38
  9
$DIMRND
 40
0.0
  9
$DIMDLE
 40
0.0
  9
$DIMEXE
 40
1.0
  9
$DIMTP
 40
0.0
  9
$DIMTM
 40
0.000000001
  9
$DIMTXT
 40
3.5
  9
$DIMCEN
 40
0.09
  9
$DIMTSZ
 40
0.0
  9
$DIMTOL
 70
     0
  9
$DIMLIM
 70
     0
  9
$DIMTIH
 70
     0
  9
$DIMTOH
 70
     0
  9
$DIMSE1
 70
     0
  9
$DIMSE2
 70
     0
  9
$DIMTAD
 70
     1
  9
$DIMZIN
 70
     8
  9
$DIMBLK
  1

  9
$DIMASO
 70
     1
  9
$DIMSHO
 70
     0
  9
$DIMPOST
  1

  9
$DIMAPOST
  1

  9
$DIMALT
 70
     0
  9
$DIMALTD
 70
     2
  9
$DIMALTF
 40
25.3999999999999986
  9
$DIMLFAC
 40
1.0
  9
$DIMTOFL
 70
     1
  9
$DIMTVP
 40
0.0
  9
$DIMTIX
 70
     0
  9
$DIMSOXD
 70
     0
  9
$DIMSAH
 70
     0
  9
$DIMBLK1
  1

  9
$DIMBLK2
  1

  9
$DIMSTYLE
  2
LORO
  9
$DIMCLRD
 70
     0
  9
$DIMCLRE
 70
     0
  9
$DIMCLRT
 70
     1
  9
$DIMTFAC
 40
0.5
  9
$DIMGAP
 40
1.5
  9
$LUNITS
 70
     2
  9
$LUPREC
 70
     2
  9
$SKETCHINC
 40
1.0
  9
$FILLETRAD
 40
0.0
  9
$AUNITS
 70
     0
  9
$AUPREC
 70
     0
  9
$MENU
  1
ACAD
  9
$ELEVATION
 40
0.0
  9
$PELEVATION
 40
0.0
  9
$THICKNESS
 40
0.0
  9
$LIMCHECK
 70
     0
  9
$BLIPMODE
 70
     0
  9
$CHAMFERA
 40
0.0
  9
$CHAMFERB
 40
0.0
  9
$SKPOLY
 70
     0
  9
$TDCREATE
 40
2455397.867048610933125
  9
$TDUPDATE
 40
2460525.5588657408952713
  9
$TDINDWG
 40
0.6916376505
  9
$TDUSRTIMER
 40
0.6916376505
  9
$USRTIMER
 70
     1
  9
$ANGBASE
 50
0.0
  9
$ANGDIR
 70
     0
  9
$PDMODE
 70
     0
  9
$PDSIZE
 40
0.0
  9
$PLINEWID
 40
0.0
  9
$COORDS
 70
     1
  9
$SPLFRAME
 70
     0
  9
$SPLINETYPE
 70
     6
  9
$SPLINESEGS
 70
     8
  9
$ATTDIA
 70
     1
  9
$ATTREQ
 70
     1
  9
$HANDLING
 70
     1
  9
$HANDSEED
  5
53AD
  9
$SURFTAB1
 70
     6
  9
$SURFTAB2
 70
     6
  9
$SURFTYPE
 70
     6
  9
$SURFU
 70
     6
  9
$SURFV
 70
     6
  9
$UCSNAME
  2

  9
$UCSORG
 10
0.0
 20
0.0
 30
0.0
  9
$UCSXDIR
 10
1.0
 20
0.0
 30
0.0
  9
$UCSYDIR
 10
0.0
 20
1.0
 30
0.0
  9
$PUCSNAME
  2

  9
$PUCSORG
 10
0.0
 20
0.0
 30
0.0
  9
$PUCSXDIR
 10
1.0
 20
0.0
 30
0.0
  9
$PUCSYDIR
 10
0.0
 20
1.0
 30
0.0
  9
$USERI1
 70
     0
  9
$USERI2
 70
     0
  9
$USERI3
 70
     0
  9
$USERI4
 70
     0
  9
$USERI5
 70
     0
  9
$USERR1
 40
0.0
  9
$USERR2
 40
0.0
  9
$USERR3
 40
0.0
  9
$USERR4
 40
0.0
  9
$USERR5
 40
0.0
  9
$WORLDVIEW
 70
     1
  9
$SHADEDGE
 70
     3
  9
$SHADEDIF
 70
    70
  9
$TILEMODE
 70
     1
  9
$MAXACTVP
 70
    16
  9
$PLIMCHECK
 70
     0
  9
$PEXTMIN
 10
1.0000000000000000E+20
 20
1.0000000000000000E+20
 30
1.0000000000000000E+20
  9
$PEXTMAX
 10
-1.0000000000000000E+20
 20
-1.0000000000000000E+20
 30
-1.0000000000000000E+20
  9
$PLIMMIN
 10
-0.2527668589795553
 20
-0.2505679838556034
  9
$PLIMMAX
 10
296.7472331410203878
 20
419.7494320161442829
  9
$UNITMODE
 70
     0
  9
$VISRETAIN
 70
     0
  9
$PLINEGEN
 70
     0
  9
$PSLTSCALE
 70
     0
  0
ENDSEC
  0
SECTION
  2
TABLES
  0
TABLE
  2
VPORT
 70
     1
  0
VPORT
  2
*ACTIVE
 70
     0
 10
0.0
 20
0.0
 11
1.0
 21
1.0
 12
0.0
 22
0.0
 13
0.0
 23
0.0
 14
1.0
 24
1.0
 15
10.0
 25
10.0
 16
-0.0000000000001149
 26
0.0
 36
517.3927468210143843
 17
0.0
 27
-60.3249999999999815
 37
-0.0000000000000046
 40
203.6945876288660031
 41
1.8847807394668961
 42
50.0
 43
0.0
 44
0.0
 50
0.0
 51
0.0
 71
     0
 72
  1500
 73
     1
 74
     0
 75
     0
 76
     0
 77
     0
 78
     0
  0
ENDTAB
  0
TABLE
  2
LTYPE
 70
     4
  0
LTYPE
  2
CONTINUOUS
 70
     0
  3
Solid line
 72
    65
 73
     0
 40
0.0
  0
LTYPE
  2
STRICHPUNKT
 70
     0
  3
__ . __ . __ . __ . __ . __ . __ . __ . __ . __
 72
    65
 73
     4
 40
1.0
 49
0.5
 49
-0.25
 49
0.0
 49
-0.25
  0
LTYPE
  2
VERDECKT
 70
     0
  3
Verdeckt __ __ __ __ __ __ __ __ __ __ __ __ __
 72
    65
 73
     2
 40
0.375
 49
0.25
 49
-0.125
  0
ENDTAB
  0
TABLE
  2
LAYER
 70
     6
  0
LAYER
  2
0
 70
     0
 62
     7
  6
CONTINUOUS
  0
LAYER
  2
STEMPEL
 70
     0
 62
     3
  6
CONTINUOUS
  0
LAYER
  2
ADSK_ASSOC_ENTITY_BACKUPS
 70
     1
 62
    -7
  6
CONTINUOUS
  0
ENDTAB
  0
TABLE
  2
STYLE
 70
     2
  0
STYLE
  2
STANDARD
 70
     0
 40
0.0
 41
0.8
 50
0.0
 71
     0
 42
3.5
  3
simplex.shx
  4

  0
ENDTAB
  0
TABLE
  2
VIEW
 70
     0
  0
ENDTAB
  0
TABLE
  2
UCS
 70
     0
  0
ENDTAB
  0
TABLE
  2
APPID
 70
    28
  0
APPID
  2
ACAD
 70
     0
  0
APPID
  2
ACAD_NAV_VCDISPLAY
 70
     0
  0
APPID
  2
GRADIENTCOLOR1ACI
 70
     0
  0
APPID
  2
GRADIENTCOLOR2ACI
 70
     0
  0
APPID
  2
ACAD_DSTYLE_DIMRADIAL_EXTENSION
 70
     0
  0
APPID
  2
ACADANNOMONITORALERTICONDI
 70
     0
  0
APPID
  2
ACAD_EXEMPT_FROM_CAD_STANDARDS
 70
     0
  0
APPID
  2
ACAD_MLEADERVER
 70
     0
  0
APPID
  2
ACAD_PSEXT
 70
     0
  0
APPID
  2
ACAECLAYERSTANDARD
 70
     0
  0
APPID
  2
ACAUTHENVIRON
 70
     0
  0
APPID
  2
ACDBDYNAMICBLOCKTRUENAME
 70
     0
  0
APPID
  2
ACDBDYNAMICBLOCKGUID
 70
     0
  0
APPID
  2
ACCMTRANSPARENCY
 70
     0
  0
APPID
  2
ACAD_STEPID
 70
     0
  0
APPID
  2
ACAD_DSTYLE_DIMJAG
 70
     0
  0
APPID
  2
ACAD_DSTYLE_DIMTALN
 70
     0
  0
APPID
  2
ACAD_DSTYLE_DIMBREAK
 70
     0
  0
APPID
  2
ACSYNERGY
 70
     0
  0
APPID
  2
SYNERGY_BODY_TBR_ID
 70
     0
  0
APPID
  2
ACAD_VIEW_EDGE_ID
 70
     0
  0
APPID
  2
ACSYNERGYSKETCH
 70
     0
  0
APPID
  2
ACAD_MODELDOC_XFORM
 70
     0
  0
APPID
  2
ACAD_DIMASSOC_CALC_DIMLFAC
 70
     0
  0
APPID
  2
ACAD_DIMASSOC_DIMLFAC
 70
     0
  0
APPID
  2
ACAD_DIMASSOC_OVERRIDDEN_D
 70
     0
  0
APPID
  2
ACADANNOPO
 70
     0
  0
APPID
  2
ACADANNOTATIVE
 70
     0
  0
ENDTAB
  0
TABLE
  2
DIMSTYLE
 70
     1
  0
DIMSTYLE
  2
LORO
 70
     0
  3

  4

  5

  6

  7

 40
1.0
 41
3.5
 42
1.0
 43
0.38
 44
1.0
 45
0.0
 46
0.0
 47
0.0
 48
0.000000001
140
3.5
141
0.09
142
0.0
143
25.3999999999999986
144
1.0
145
0.0
146
0.5
147
1.5
 71
     0
 72
     0
 73
     0
 74
     0
 75
     0
 76
     0
 77
     1
 78
     8
170
     0
171
     2
172
     1
173
     0
174
     0
175
     0
176
     0
177
     0
178
     1
  0
ENDTAB
  0
ENDSEC
  0
SECTION
  2
BLOCKS
  0
BLOCK
  8
0
  2
$MODEL_SPACE
 70
     0
 10
0.0
 20
0.0
 30
0.0
  3
$MODEL_SPACE
  1

  0
ENDBLK
  5
38
  8
0
  0
BLOCK
 67
     1
  8
0
  2
$PAPER_SPACE
 70
     0
 10
0.0
 20
0.0
 30
0.0
  3
$PAPER_SPACE
  1

  0
ENDBLK
  5
36
 67
     1
  8
0
  0
BLOCK
  8
0
  2
*S0
 70
     1
 10
0.0
 20
0.0
 30
0.0
  3
*S0
  1

  0
ENDBLK
  5
1C1E
  8
0
  0
BLOCK
  8
0
  2
A$C3C9C974B
 70
     0
 10
0.0
 20
0.0
 30
0.0
  3
A$C3C9C974B
  1

  0
LINE
  5
5300
  8
0
  6
CONTINUOUS
 62
     3
 10
57.5
 20
4.5000000000000133
 30
-0.000000000000001
 11
-57.5
 21
4.5000000000000133
 31
-0.000000000000001
210
0.0
220
1.0
230
-0.0000000000000002
  0
LINE
  5
5301
  8
0
  6
CONTINUOUS
 62
     3
 10
60.1999999999999886
 20
41.0000000000000213
 30
-0.0000000000000091
 11
-60.2000000000000028
 21
41.0000000000000213
 31
-0.0000000000000091
210
0.0
220
1.0
230
-0.0000000000000002
  0
LINE
  5
5302
  8
0
  6
CONTINUOUS
 62
     3
 10
57.9999999999999929
 20
0.0000000000000119
 30
0.0
 11
-58.0
 21
0.0000000000000119
 31
0.0
210
0.0
220
1.0
230
-0.0000000000000002
  0
LINE
  5
5303
  8
0
  6
CONTINUOUS
 62
     3
 10
57.5
 20
1.5000000000000111
 30
-0.0000000000000003
 11
-57.5
 21
1.5000000000000111
 31
-0.0000000000000003
210
0.0
220
1.0
230
-0.0000000000000002
  0
ARC
  5
5304
  8
0
  6
CONTINUOUS
 62
     3
 10
-57.5
 20
5.0000000000000213
 30
0.0
 40
0.5000000000000071
210
0.0
220
-0.0000000000000002
230
-1.0
 50
180.0000000000007958
 51
269.9999999999992042
  0
ARC
  5
5305
  8
0
  6
CONTINUOUS
 62
     3
 10
57.5
 20
5.0000000000000213
 30
0.0
 40
0.5000000000000063
210
0.0
220
-0.0000000000000002
230
-1.0
 50
270.0000000000007958
 51
359.9999999999990905
  0
LINE
  5
5306
  8
0
  6
CONTINUOUS
 62
     3
 10
-58.0
 20
5.0000000000000133
 30
-0.0000000000000011
 11
-58.0
 21
6.0000000000000151
 31
-0.0000000000000013
210
0.0
220
1.0
230
-0.0000000000000002
  0
LINE
  5
5307
  8
0
  6
CONTINUOUS
 62
     3
 10
-58.0
 20
8.0000000000000142
 30
-0.0000000000000018
 11
-58.0
 21
13.7000000000000099
 31
-0.000000000000003
210
0.0
220
1.0
230
-0.0000000000000002
  0
LINE
  5
5308
  8
0
  6
CONTINUOUS
 62
     3
 10
58.0
 20
5.0000000000000133
 30
-0.0000000000000011
 11
58.0
 21
6.0000000000000151
 31
-0.0000000000000013
210
0.0
220
1.0
230
-0.0000000000000002
  0
LINE
  5
5309
  8
0
  6
CONTINUOUS
 62
     3
 10
58.0
 20
8.0000000000000142
 30
-0.0000000000000018
 11
58.0
 21
13.7000000000000206
 31
-0.000000000000003
210
0.0
220
1.0
230
-0.0000000000000002
  0
ARC
  5
530A
  8
0
  6
CONTINUOUS
 62
     3
 10
-58.499999999999801
 20
13.7000000000000401
 30
0.0
 40
0.499999999999794
210
0.0
220
-0.0000000000000002
230
-1.0
 50
359.9999999999964189
 51
18.7975524647584606
  0
ARC
  5
530B
  8
0
  6
CONTINUOUS
 62
     3
 10
58.499999999999801
 20
13.7000000000000401
 30
0.0
 40
0.4999999999997936
210
0.0
220
-0.0000000000000002
230
-1.0
 50
161.2024475352415038
 51
180.0000000000036096
  0
LINE
  5
530C
  8
0
  6
CONTINUOUS
 62
     3
 10
-58.0266684871737723
 20
13.8611126282003703
 30
-0.0000000000000031
 11
-58.4199945384786972
 21
15.0166621153989404
 31
-0.0000000000000033
210
0.0
220
1.0
230
-0.0000000000000002
  0
LINE
  5
530D
  8
0
  6
CONTINUOUS
 62
     3
 10
58.0266684871737723
 20
13.8611126282003703
 30
-0.0000000000000031
 11
58.4199945384786972
 21
15.0166621153989404
 31
-0.0000000000000033
210
0.0
220
1.0
230
-0.0000000000000002
  0
ARC
  5
530E
  8
0
  6
CONTINUOUS
 62
     3
 10
-56.9999999999999005
 20
15.5000000000000195
 30
0.0
 40
1.500000000000099
210
0.0
220
-0.0000000000000002
230
-1.0
 50
180.000000000000199
 51
198.797552464753096
  0
ARC
  5
530F
  8
0
  6
CONTINUOUS
 62
     3
 10
56.9999999999999005
 20
15.5000000000000195
 30
0.0
 40
1.500000000000099
210
0.0
220
-0.0000000000000002
230
-1.0
 50
341.202447535246904
 51
359.9999999999997158
  0
LINE
  5
5310
  8
0
  6
CONTINUOUS
 62
     3
 10
-58.5000000000000071
 20
15.5000000000000107
 30
-0.0000000000000034
 11
-58.5000000000000071
 21
30.5000000000000213
 31
-0.0000000000000068
210
0.0
220
1.0
230
-0.0000000000000002
  0
LINE
  5
5311
  8
0
  6
CONTINUOUS
 62
     3
 10
58.5000000000000071
 20
15.5000000000000107
 30
-0.0000000000000034
 11
58.5000000000000071
 21
30.5000000000000213
 31
-0.0000000000000068
210
0.0
220
1.0
230
-0.0000000000000002
  0
ARC
  5
5312
  8
0
  6
CONTINUOUS
 62
     3
 10
-61.4999999999999432
 20
30.5000000000000284
 30
0.0
 40
2.9999999999999352
210
0.0
220
-0.0000000000000002
230
-1.0
 50
359.9999999999997158
 51
30.8787076510361516
  0
ARC
  5
5313
  8
0
  6
CONTINUOUS
 62
     3
 10
61.4999999999999787
 20
30.5000000000000284
 30
0.0
 40
2.9999999999999849
210
0.0
220
-0.0000000000000002
230
-1.0
 50
149.12129234896409
 51
180.0000000000001137
  0
LINE
  5
5314
  8
0
  6
CONTINUOUS
 62
     3
 10
-58.9252329315363212
 20
32.0396670234680627
 30
-0.0000000000000071
 11
-59.7747670684637029
 21
33.4603329765319728
 31
-0.0000000000000074
210
0.0
220
1.0
230
-0.0000000000000002
  0
LINE
  5
5315
  8
0
  6
CONTINUOUS
 62
     3
 10
58.925232931536307
 20
32.0396670234680627
 30
-0.0000000000000071
 11
59.7747670684637029
 21
33.4603329765319728
 31
-0.0000000000000074
210
0.0
220
1.0
230
-0.0000000000000002
  0
ARC
  5
5316
  8
0
  6
CONTINUOUS
 62
     3
 10
-57.200000000000081
 20
35.0
 30
0.0
 40
2.9999999999999352
210
0.0
220
-0.0000000000000002
230
-1.0
 50
179.9999999999996021
 51
210.8787076510361089
  0
ARC
  5
5317
  8
0
  6
CONTINUOUS
 62
     3
 10
57.2000000000000171
 20
35.0000000000000213
 30
0.0
 40
2.9999999999999938
210
0.0
220
-0.0000000000000002
230
-1.0
 50
329.1212923489641753
 51
0.0
  0
LINE
  5
5318
  8
0
  6
CONTINUOUS
 62
     3
 10
-60.2000000000000028
 20
35.0000000000000213
 30
-0.0000000000000078
 11
-60.2000000000000028
 21
41.0000000000000213
 31
-0.0000000000000091
210
0.0
220
1.0
230
-0.0000000000000002
  0
LINE
  5
5319
  8
0
  6
CONTINUOUS
 62
     3
 10
60.2000000000000028
 20
35.0000000000000213
 30
-0.0000000000000078
 11
60.2000000000000028
 21
41.0000000000000213
 31
-0.0000000000000091
210
0.0
220
1.0
230
-0.0000000000000002
  0
LINE
  5
531A
  8
0
  6
CONTINUOUS
 62
     3
 10
-58.0
 20
0.0000000000000118
 30
0.0
 11
-58.0
 21
1.0000000000000111
 31
-0.0000000000000002
210
0.0
220
1.0
230
-0.0000000000000002
  0
LINE
  5
531B
  8
0
  6
CONTINUOUS
 62
     3
 10
58.0
 20
0.000000000000012
 30
0.0
 11
58.0
 21
1.0000000000000111
 31
-0.0000000000000002
210
0.0
220
1.0
230
-0.0000000000000002
  0
ARC
  5
531C
  8
0
  6
CONTINUOUS
 62
     3
 10
-57.5
 20
1.00000000000001
 30
0.0
 40
0.4999999999999938
210
0.0
220
-0.0000000000000002
230
-1.0
 50
90.0
 51
180.0
  0
ARC
  5
531D
  8
0
  6
CONTINUOUS
 62
     3
 10
57.5
 20
1.00000000000001
 30
0.0
 40
0.4999999999999929
210
0.0
220
-0.0000000000000002
230
-1.0
 50
0.0000000000000254
 51
90.0
  0
ARC
  5
531E
  8
0
  6
CONTINUOUS
 62
     3
 10
-57.2000000000000028
 20
3.000000000000012
 30
0.0
 40
1.5
210
0.0
220
-0.0000000000000002
230
-1.0
 50
90.0
 51
270.0
  0
ARC
  5
531F
  8
0
  6
CONTINUOUS
 62
     3
 10
57.2000000000000028
 20
3.000000000000012
 30
0.0
 40
1.5
210
0.0
220
-0.0000000000000002
230
-1.0
 50
270.0
 51
90.0
  0
LINE
  5
5320
  8
0
  6
CONTINUOUS
 62
     3
 10
-61.6499999999999915
 20
8.0000000000000142
 30
-0.0000000000000018
 11
61.6499999999999915
 21
8.0000000000000142
 31
-0.0000000000000018
210
0.0
220
1.0
230
-0.0000000000000002
  0
LINE
  5
5321
  8
0
  6
CONTINUOUS
 62
     3
 10
-61.6499999999999915
 20
6.0000000000000151
 30
-0.0000000000000013
 11
61.6499999999999915
 21
6.0000000000000151
 31
-0.0000000000000013
210
0.0
220
1.0
230
-0.0000000000000002
  0
LINE
  5
5322
  8
0
  6
CONTINUOUS
 62
     3
 10
61.6499999999999986
 20
8.0000000000000142
 30
-0.0000000000000018
 11
61.6499999999999986
 21
6.0000000000000151
 31
-0.0000000000000013
210
0.0
220
1.0
230
-0.0000000000000002
  0
LINE
  5
5323
  8
0
  6
CONTINUOUS
 62
     3
 10
-61.6499999999999986
 20
8.0000000000000142
 30
-0.0000000000000018
 11
-61.6499999999999986
 21
6.0000000000000151
 31
-0.0000000000000013
210
0.0
220
1.0
230
-0.0000000000000002
  0
ARC
  5
5324
  8
0
  6
VERDECKT
 62
     1
 10
-57.2000000000000028
 20
3.000000000000012
 30
0.0
 40
1.5
210
0.0
220
-0.0000000000000002
230
-1.0
 50
270.0
 51
90.0
  0
ARC
  5
5325
  8
0
  6
VERDECKT
 62
     1
 10
57.2000000000000028
 20
3.000000000000012
 30
0.0
 40
1.5
210
0.0
220
-0.0000000000000002
230
-1.0
 50
90.0
 51
270.0
  0
LINE
  5
5326
  8
0
  6
VERDECKT
 62
     1
 10
-58.0
 20
6.0000000000000151
 30
-0.0000000000000013
 11
-58.0
 21
8.0000000000000142
 31
-0.0000000000000018
210
0.0
220
1.0
230
-0.0000000000000002
  0
LINE
  5
5327
  8
0
  6
VERDECKT
 62
     1
 10
58.0
 20
6.0000000000000151
 30
-0.0000000000000013
 11
58.0
 21
8.0000000000000142
 31
-0.0000000000000018
210
0.0
220
1.0
230
-0.0000000000000002
  0
LINE
  5
5328
  8
0
  6
VERDECKT
 62
     1
 10
-59.0
 20
35.0000000000000213
 30
-0.0000000000000078
 11
-59.0
 21
41.0000000000000071
 31
-0.0000000000000091
210
0.0
220
1.0
230
-0.0000000000000002
  0
LINE
  5
5329
  8
0
  6
VERDECKT
 62
     1
 10
59.0
 20
35.0000000000000213
 30
-0.0000000000000078
 11
59.0
 21
41.0000000000000071
 31
-0.0000000000000091
210
0.0
220
1.0
230
-0.0000000000000002
  0
ARC
  5
532A
  8
0
  6
VERDECKT
 62
     1
 10
-57.1999999999999034
 20
35.0000000000000284
 30
0.0
 40
1.80000000000011
210
0.0
220
-0.0000000000000002
230
-1.0
 50
180.0000000000003979
 51
210.8787076510342047
  0
ARC
  5
532B
  8
0
  6
VERDECKT
 62
     1
 10
57.1999999999999034
 20
35.0000000000000284
 30
0.0
 40
1.800000000000108
210
0.0
220
-0.0000000000000002
230
-1.0
 50
329.1212923489658237
 51
359.9999999999996021
  0
LINE
  5
532C
  8
0
  6
VERDECKT
 62
     1
 10
-57.8953261041508398
 20
32.6555338328552907
 30
-0.0000000000000073
 11
-58.7448602410782286
 21
34.0761997859191865
 31
-0.0000000000000076
210
0.0
220
1.0
230
-0.0000000000000002
  0
LINE
  5
532D
  8
0
  6
VERDECKT
 62
     1
 10
57.8953261041508398
 20
32.6555338328552907
 30
-0.0000000000000073
 11
58.7448602410782286
 21
34.0761997859191865
 31
-0.0000000000000076
210
0.0
220
1.0
230
-0.0000000000000002
  0
ARC
  5
532E
  8
0
  6
VERDECKT
 62
     1
 10
-61.5000000000001066
 20
30.4999999999999893
 30
0.0
 40
4.2000000000001156
210
0.0
220
-0.0000000000000002
230
-1.0
 50
0.0000000000004453
 51
30.8787076510353309
  0
ARC
  5
532F
  8
0
  6
VERDECKT
 62
     1
 10
61.5000000000001066
 20
30.4999999999999893
 30
0.0
 40
4.2000000000001156
210
0.0
220
-0.0000000000000002
230
-1.0
 50
149.1212923489646016
 51
179.9999999999994884
  0
LINE
  5
5330
  8
0
  6
VERDECKT
 62
     1
 10
-57.2999999999999972
 20
15.5000000000000107
 30
-0.0000000000000034
 11
-57.2999999999999972
 21
30.5000000000000213
 31
-0.0000000000000068
210
0.0
220
1.0
230
-0.0000000000000002
  0
LINE
  5
5331
  8
0
  6
VERDECKT
 62
     1
 10
57.2999999999999972
 20
15.5000000000000107
 30
-0.0000000000000034
 11
57.2999999999999972
 21
30.5000000000000213
 31
-0.0000000000000068
210
0.0
220
1.0
230
-0.0000000000000002
  0
ARC
  5
5332
  8
0
  6
VERDECKT
 62
     1
 10
-57.0000000000001066
 20
15.5
 30
0.0
 40
0.2999999999998835
210
0.0
220
-0.0000000000000002
230
-1.0
 50
179.999999999996902
 51
198.7975524647578141
  0
ARC
  5
5333
  8
0
  6
VERDECKT
 62
     1
 10
57.0000000000001066
 20
15.5
 30
0.0
 40
0.299999999999884
210
0.0
220
-0.0000000000000002
230
-1.0
 50
341.2024475352421859
 51
0.0000000000030393
  0
LINE
  5
5334
  8
0
  6
VERDECKT
 62
     1
 10
-56.8906728563908004
 20
14.2477829358812293
 30
-0.0000000000000032
 11
-57.2839989076957607
 21
15.4033324230797906
 31
-0.0000000000000034
210
0.0
220
1.0
230
-0.0000000000000002
  0
LINE
  5
5335
  8
0
  6
VERDECKT
 62
     1
 10
56.8906728563908004
 20
14.2477829358812293
 30
-0.0000000000000032
 11
57.2839989076957607
 21
15.4033324230797906
 31
-0.0000000000000034
210
0.0
220
1.0
230
-0.0000000000000002
  0
ARC
  5
5336
  8
0
  6
VERDECKT
 62
     1
 10
-58.4999999999999432
 20
13.7000000000000206
 30
0.0
 40
1.699999999999938
210
0.0
220
-0.0000000000000002
230
-1.0
 50
359.9999999999996021
 51
18.7975524647543608
  0
ARC
  5
5337
  8
0
  6
VERDECKT
 62
     1
 10
58.5000000000002629
 20
13.6999999999999602
 30
0.0
 40
1.7000000000002511
210
0.0
220
-0.0000000000000002
230
-1.0
 50
161.2024475352465913
 51
179.9999999999980957
  0
LINE
  5
5338
  8
0
  6
VERDECKT
 62
     1
 10
-56.7999999999999972
 20
6.0708305065568293
 30
-0.0000000000000013
 11
-56.7999999999999972
 21
13.7000000000000099
 31
-0.000000000000003
210
0.0
220
1.0
230
-0.0000000000000002
  0
LINE
  5
5339
  8
0
  6
VERDECKT
 62
     1
 10
56.7999999999999972
 20
6.0708305065568293
 30
-0.0000000000000013
 11
56.7999999999999972
 21
13.7000000000000206
 31
-0.000000000000003
210
0.0
220
1.0
230
-0.0000000000000002
  0
ARC
  5
533A
  8
0
  6
VERDECKT
 62
     1
 10
-56.2999999999999901
 20
6.0708305065568329
 30
0.0
 40
0.5
210
0.0
220
-0.0000000000000002
230
-1.0
 50
180.0000000000003979
 51
253.6651772193131933
  0
ARC
  5
533B
  8
0
  6
VERDECKT
 62
     1
 10
56.2999999999999901
 20
6.0708305065568329
 30
0.0
 40
0.5000000000000023
210
0.0
220
-0.0000000000000002
230
-1.0
 50
286.334822780686693
 51
359.9999999999994884
  0
ARC
  5
533C
  8
0
  6
VERDECKT
 62
     1
 10
-57.2000000000000028
 20
3.0000000000000111
 30
0.0
 40
2.7000000000000002
210
0.0
220
-0.0000000000000002
230
-1.0
 50
282.7289438731226028
 51
73.6651772193140459
  0
ARC
  5
533D
  8
0
  6
VERDECKT
 62
     1
 10
57.2000000000000028
 20
3.0000000000000111
 30
0.0
 40
2.7000000000000002
210
0.0
220
-0.0000000000000002
230
-1.0
 50
106.3348227806858972
 51
257.2710561268773972
  0
ARC
  5
533E
  8
0
  6
VERDECKT
 62
     1
 10
-56.5500000000000114
 20
0.1225010860123803
 30
0.0
 40
0.2499999999999975
210
0.0
220
-0.0000000000000002
230
-1.0
 50
102.7289438731230007
 51
180.0000000000005116
  0
ARC
  5
533F
  8
0
  6
VERDECKT
 62
     1
 10
56.5500000000000114
 20
0.1225010860123801
 30
0.0
 40
0.25
210
0.0
220
-0.0000000000000002
230
-1.0
 50
359.9999999999993747
 51
77.2710561268769851
  0
LINE
  5
5340
  8
0
  6
VERDECKT
 62
     1
 10
-56.7999999999999972
 20
0.0000000000000104
 30
0.0
 11
-56.7999999999999972
 21
0.1225010860123777
 31
0.0
210
0.0
220
1.0
230
-0.0000000000000002
  0
LINE
  5
5341
  8
0
  6
VERDECKT
 62
     1
 10
56.7999999999999972
 20
0.0000000000000105
 30
0.0
 11
56.7999999999999972
 21
0.1225010860123777
 31
0.0
210
0.0
220
1.0
230
-0.0000000000000002
  0
ARC
  5
5342
  8
0
  6
VERDECKT
 62
     1
 10
-57.2000000000000028
 20
3.000000000000012
 30
0.0
 40
1.5
210
0.0
220
-0.0000000000000002
230
-1.0
 50
270.0
 51
90.0
  0
ARC
  5
5343
  8
0
  6
VERDECKT
 62
     1
 10
57.2000000000000028
 20
3.000000000000012
 30
0.0
 40
1.5
210
0.0
220
-0.0000000000000002
230
-1.0
 50
90.0
 51
270.0
  0
LINE
  5
5344
  8
0
  6
VERDECKT
 62
     1
 10
58.1000000000000085
 20
8.0000000000000142
 30
-0.0000000000000018
 11
58.1000000000000085
 21
6.0000000000000151
 31
-0.0000000000000013
210
0.0
220
1.0
230
-0.0000000000000002
  0
LINE
  5
5345
  8
0
  6
VERDECKT
 62
     1
 10
-58.1000000000000085
 20
8.0000000000000142
 30
-0.0000000000000018
 11
-58.1000000000000085
 21
6.0000000000000151
 31
-0.0000000000000013
210
0.0
220
1.0
230
-0.0000000000000002
  0
ENDBLK
  5
5347
  8
0
  0
BLOCK
  8
0
  2
A$CE1CB410D
 70
     0
 10
0.0
 20
0.0
 30
0.0
  3
A$CE1CB410D
  1

  0
CIRCLE
  5
534B
  8
0
  6
CONTINUOUS
 62
     3
 10
0.0000000000000091
 20
0.0
 30
0.0
 40
60.2000000000000028
  0
CIRCLE
  5
534C
  8
0
  6
CONTINUOUS
 62
     3
 10
0.0000000000000091
 20
0.0
 30
0.0
 40
59.0
  0
CIRCLE
  5
534D
  8
0
  6
CONTINUOUS
 62
     3
 10
0.0000000000000068
 20
0.0
 30
0.0
 40
57.2999999999999972
  0
CIRCLE
  5
534E
  8
0
  6
CONTINUOUS
 62
     3
 10
0.000000000000003
 20
0.0
 30
0.0
 40
56.7999999999999972
  0
CIRCLE
  5
534F
  8
0
  6
CONTINUOUS
 62
     3
 10
0.0000000000000007
 20
0.0
 30
0.0
 40
54.5
  0
CIRCLE
  5
5350
  8
0
  6
CONTINUOUS
 62
     3
 10
0.0000000000000018
 20
0.0
 30
0.0
 40
61.6499999999999986
  0
CIRCLE
  5
5351
  8
0
  6
VERDECKT
 62
     1
 10
0.000000000000003
 20
0.0
 30
0.0
 40
58.0
  0
CIRCLE
  5
5352
  8
0
  6
VERDECKT
 62
     1
 10
0.0000000000000068
 20
0.0
 30
0.0
 40
58.5000000000000071
  0
CIRCLE
  5
5353
  8
0
  6
VERDECKT
 62
     1
 10
0.0000000000000007
 20
0.0
 30
0.0
 40
55.7000000000000028
  0
CIRCLE
  5
5354
  8
0
  6
VERDECKT
 62
     1
 10
0.0000000000000007
 20
0.0
 30
0.0
 40
58.7000000000000028
  0
CIRCLE
  5
5355
  8
0
  6
VERDECKT
 62
     1
 10
0.0000000000000007
 20
0.0
 30
0.0
 40
55.7000000000000028
  0
CIRCLE
  5
5356
  8
0
  6
VERDECKT
 62
     1
 10
0.0000000000000018
 20
0.0
 30
0.0
 40
58.1000000000000085
  0
ENDBLK
  5
5358
  8
0
  0
ENDSEC
  0
SECTION
  2
ENTITIES
  0
INSERT
  5
1C20
  8
ADSK_ASSOC_ENTITY_BACKUPS
  2
*S0
 10
0.0
 20
0.0
 30
0.0
  0
INSERT
  5
5348
  8
STEMPEL
  2
A$C3C9C974B
 10
0.0
 20
0.0
 30
0.0
  0
INSERT
  5
5359
  8
STEMPEL
  2
A$CE1CB410D
 10
0.0
 20
-100.0
 30
0.0
  0
VIEWPORT
  5
1B12
 67
     1
  8
0
 10
148.2472331410203878
 20
209.7494320161443966
 30
0.0
 40
795.6883637233959234
 41
422.1649484536083037
 68
     1
 69
     1
1001
ACAD
1000
MVIEW
1002
{
1070
    16
1010
0.0
1020
0.0
1030
0.0
1010
0.0
1020
0.0
1030
1.0
1040
0.0
1040
422.1649484536083037
1040
148.2472331410203878
1040
209.7494320161443966
1040
50.0
1040
0.0
1040
0.0
1070
     0
1070
  1500
1070
     1
1070
     1
1070
     0
1070
     0
1070
     0
1070
     0
1040
0.0
1040
0.0
1040
0.0
1040
10.0
1040
10.0
1040
10.0
1040
10.0
1070
     0
1002
{
1002
}
1002
}
  0
ENDSEC
  0
EOF
