  0
SECTION
  2
HEADER
  9
$ACADVER
  1
AC1009
  9
$INSBASE
 10
0.0
 20
0.0
 30
0.0
  9
$EXTMIN
 10
-51.2999999999999901
 20
-151.3000000000000114
 30
-0.0000000000000102
  9
$EXTMAX
 10
51.2999999999999901
 20
46.0000000000000213
 30
0.0
  9
$LIMMIN
 10
0.0
 20
0.0
  9
$LIMMAX
 10
420.0
 20
297.0
  9
$ORTHOMODE
 70
     1
  9
$REGENMODE
 70
     1
  9
$FILLMODE
 70
     1
  9
$QTEXTMODE
 70
     0
  9
$MIRRTEXT
 70
     1
  9
$DRAGMODE
 70
     2
  9
$LTSCALE
 40
10.0
  9
$OSMODE
 70
   511
  9
$ATTMODE
 70
     2
  9
$TEXTSIZE
 40
3.5
  9
$TRACEWID
 40
1.0
  9
$TEXTSTYLE
  7
STANDARD
  9
$CLAYER
  8
STEMPEL
  9
$CELTYPE
  6
BYLAYER
  9
$CECOLOR
 62
   256
  9
$DIMSCALE
 40
1.0
  9
$DIMASZ
 40
3.5
  9
$DIMEXO
 40
1.0
  9
$DIMDLI
 40
0.38
  9
$DIMRND
 40
0.0
  9
$DIMDLE
 40
0.0
  9
$DIMEXE
 40
1.0
  9
$DIMTP
 40
0.0
  9
$DIMTM
 40
0.000000001
  9
$DIMTXT
 40
3.5
  9
$DIMCEN
 40
0.09
  9
$DIMTSZ
 40
0.0
  9
$DIMTOL
 70
     0
  9
$DIMLIM
 70
     0
  9
$DIMTIH
 70
     0
  9
$DIMTOH
 70
     0
  9
$DIMSE1
 70
     0
  9
$DIMSE2
 70
     0
  9
$DIMTAD
 70
     1
  9
$DIMZIN
 70
     8
  9
$DIMBLK
  1

  9
$DIMASO
 70
     1
  9
$DIMSHO
 70
     0
  9
$DIMPOST
  1

  9
$DIMAPOST
  1

  9
$DIMALT
 70
     0
  9
$DIMALTD
 70
     2
  9
$DIMALTF
 40
25.3999999999999986
  9
$DIMLFAC
 40
1.0
  9
$DIMTOFL
 70
     1
  9
$DIMTVP
 40
0.0
  9
$DIMTIX
 70
     0
  9
$DIMSOXD
 70
     0
  9
$DIMSAH
 70
     0
  9
$DIMBLK1
  1

  9
$DIMBLK2
  1

  9
$DIMSTYLE
  2
LORO
  9
$DIMCLRD
 70
     0
  9
$DIMCLRE
 70
     0
  9
$DIMCLRT
 70
     1
  9
$DIMTFAC
 40
0.5
  9
$DIMGAP
 40
1.5
  9
$LUNITS
 70
     2
  9
$LUPREC
 70
     2
  9
$SKETCHINC
 40
1.0
  9
$FILLETRAD
 40
0.0
  9
$AUNITS
 70
     0
  9
$AUPREC
 70
     0
  9
$MENU
  1
ACAD
  9
$ELEVATION
 40
0.0
  9
$PELEVATION
 40
0.0
  9
$THICKNESS
 40
0.0
  9
$LIMCHECK
 70
     0
  9
$BLIPMODE
 70
     0
  9
$CHAMFERA
 40
0.0
  9
$CHAMFERB
 40
0.0
  9
$SKPOLY
 70
     0
  9
$TDCREATE
 40
2455397.867048610933125
  9
$TDUPDATE
 40
2460525.5587268518283963
  9
$TDINDWG
 40
0.6489640394
  9
$TDUSRTIMER
 40
0.6489640394
  9
$USRTIMER
 70
     1
  9
$ANGBASE
 50
0.0
  9
$ANGDIR
 70
     0
  9
$PDMODE
 70
     0
  9
$PDSIZE
 40
0.0
  9
$PLINEWID
 40
0.0
  9
$COORDS
 70
     1
  9
$SPLFRAME
 70
     0
  9
$SPLINETYPE
 70
     6
  9
$SPLINESEGS
 70
     8
  9
$ATTDIA
 70
     1
  9
$ATTREQ
 70
     1
  9
$HANDLING
 70
     1
  9
$HANDSEED
  5
51C4
  9
$SURFTAB1
 70
     6
  9
$SURFTAB2
 70
     6
  9
$SURFTYPE
 70
     6
  9
$SURFU
 70
     6
  9
$SURFV
 70
     6
  9
$UCSNAME
  2

  9
$UCSORG
 10
0.0
 20
0.0
 30
0.0
  9
$UCSXDIR
 10
1.0
 20
0.0
 30
0.0
  9
$UCSYDIR
 10
0.0
 20
1.0
 30
0.0
  9
$PUCSNAME
  2

  9
$PUCSORG
 10
0.0
 20
0.0
 30
0.0
  9
$PUCSXDIR
 10
1.0
 20
0.0
 30
0.0
  9
$PUCSYDIR
 10
0.0
 20
1.0
 30
0.0
  9
$USERI1
 70
     0
  9
$USERI2
 70
     0
  9
$USERI3
 70
     0
  9
$USERI4
 70
     0
  9
$USERI5
 70
     0
  9
$USERR1
 40
0.0
  9
$USERR2
 40
0.0
  9
$USERR3
 40
0.0
  9
$USERR4
 40
0.0
  9
$USERR5
 40
0.0
  9
$WORLDVIEW
 70
     1
  9
$SHADEDGE
 70
     3
  9
$SHADEDIF
 70
    70
  9
$TILEMODE
 70
     1
  9
$MAXACTVP
 70
    16
  9
$PLIMCHECK
 70
     0
  9
$PEXTMIN
 10
1.0000000000000000E+20
 20
1.0000000000000000E+20
 30
1.0000000000000000E+20
  9
$PEXTMAX
 10
-1.0000000000000000E+20
 20
-1.0000000000000000E+20
 30
-1.0000000000000000E+20
  9
$PLIMMIN
 10
-0.2413127109731477
 20
-0.2611341015972357
  9
$PLIMMAX
 10
296.7586872890269092
 20
419.7388658984027074
  9
$UNITMODE
 70
     0
  9
$VISRETAIN
 70
     0
  9
$PLINEGEN
 70
     0
  9
$PSLTSCALE
 70
     0
  0
ENDSEC
  0
SECTION
  2
TABLES
  0
TABLE
  2
VPORT
 70
     1
  0
VPORT
  2
*ACTIVE
 70
     0
 10
0.0
 20
0.0
 11
1.0
 21
1.0
 12
0.0
 22
-52.6499999999999986
 13
0.0
 23
0.0
 14
1.0
 24
1.0
 15
10.0
 25
10.0
 16
-0.0000000000000865
 26
0.0
 36
389.3750245512807169
 17
0.0
 27
0.0
 37
-0.0000000000000051
 40
198.3170103092782881
 41
1.8847807394668961
 42
50.0
 43
0.0
 44
0.0
 50
0.0
 51
0.0
 71
     0
 72
  1500
 73
     1
 74
     0
 75
     0
 76
     0
 77
     0
 78
     0
  0
ENDTAB
  0
TABLE
  2
LTYPE
 70
     4
  0
LTYPE
  2
CONTINUOUS
 70
     0
  3
Solid line
 72
    65
 73
     0
 40
0.0
  0
LTYPE
  2
STRICHPUNKT
 70
     0
  3
__ . __ . __ . __ . __ . __ . __ . __ . __ . __
 72
    65
 73
     4
 40
1.0
 49
0.5
 49
-0.25
 49
0.0
 49
-0.25
  0
LTYPE
  2
VERDECKT
 70
     0
  3
Verdeckt __ __ __ __ __ __ __ __ __ __ __ __ __
 72
    65
 73
     2
 40
0.375
 49
0.25
 49
-0.125
  0
ENDTAB
  0
TABLE
  2
LAYER
 70
     6
  0
LAYER
  2
0
 70
     0
 62
     7
  6
CONTINUOUS
  0
LAYER
  2
STEMPEL
 70
     0
 62
     3
  6
CONTINUOUS
  0
LAYER
  2
ADSK_ASSOC_ENTITY_BACKUPS
 70
     1
 62
    -7
  6
CONTINUOUS
  0
ENDTAB
  0
TABLE
  2
STYLE
 70
     2
  0
STYLE
  2
STANDARD
 70
     0
 40
0.0
 41
0.8
 50
0.0
 71
     0
 42
3.5
  3
simplex.shx
  4

  0
ENDTAB
  0
TABLE
  2
VIEW
 70
     0
  0
ENDTAB
  0
TABLE
  2
UCS
 70
     0
  0
ENDTAB
  0
TABLE
  2
APPID
 70
    28
  0
APPID
  2
ACAD
 70
     0
  0
APPID
  2
ACAD_NAV_VCDISPLAY
 70
     0
  0
APPID
  2
GRADIENTCOLOR1ACI
 70
     0
  0
APPID
  2
GRADIENTCOLOR2ACI
 70
     0
  0
APPID
  2
ACAD_DSTYLE_DIMRADIAL_EXTENSION
 70
     0
  0
APPID
  2
ACADANNOMONITORALERTICONDI
 70
     0
  0
APPID
  2
ACAD_EXEMPT_FROM_CAD_STANDARDS
 70
     0
  0
APPID
  2
ACAD_MLEADERVER
 70
     0
  0
APPID
  2
ACAD_PSEXT
 70
     0
  0
APPID
  2
ACAECLAYERSTANDARD
 70
     0
  0
APPID
  2
ACAUTHENVIRON
 70
     0
  0
APPID
  2
ACDBDYNAMICBLOCKTRUENAME
 70
     0
  0
APPID
  2
ACDBDYNAMICBLOCKGUID
 70
     0
  0
APPID
  2
ACCMTRANSPARENCY
 70
     0
  0
APPID
  2
ACAD_STEPID
 70
     0
  0
APPID
  2
ACAD_DSTYLE_DIMJAG
 70
     0
  0
APPID
  2
ACAD_DSTYLE_DIMTALN
 70
     0
  0
APPID
  2
ACAD_DSTYLE_DIMBREAK
 70
     0
  0
APPID
  2
ACSYNERGY
 70
     0
  0
APPID
  2
SYNERGY_BODY_TBR_ID
 70
     0
  0
APPID
  2
ACAD_VIEW_EDGE_ID
 70
     0
  0
APPID
  2
ACSYNERGYSKETCH
 70
     0
  0
APPID
  2
ACAD_MODELDOC_XFORM
 70
     0
  0
APPID
  2
ACAD_DIMASSOC_CALC_DIMLFAC
 70
     0
  0
APPID
  2
ACAD_DIMASSOC_DIMLFAC
 70
     0
  0
APPID
  2
ACAD_DIMASSOC_OVERRIDDEN_D
 70
     0
  0
APPID
  2
ACADANNOPO
 70
     0
  0
APPID
  2
ACADANNOTATIVE
 70
     0
  0
ENDTAB
  0
TABLE
  2
DIMSTYLE
 70
     1
  0
DIMSTYLE
  2
LORO
 70
     0
  3

  4

  5

  6

  7

 40
1.0
 41
3.5
 42
1.0
 43
0.38
 44
1.0
 45
0.0
 46
0.0
 47
0.0
 48
0.000000001
140
3.5
141
0.09
142
0.0
143
25.3999999999999986
144
1.0
145
0.0
146
0.5
147
1.5
 71
     0
 72
     0
 73
     0
 74
     0
 75
     0
 76
     0
 77
     1
 78
     8
170
     0
171
     2
172
     1
173
     0
174
     0
175
     0
176
     0
177
     0
178
     1
  0
ENDTAB
  0
ENDSEC
  0
SECTION
  2
BLOCKS
  0
BLOCK
  8
0
  2
$MODEL_SPACE
 70
     0
 10
0.0
 20
0.0
 30
0.0
  3
$MODEL_SPACE
  1

  0
ENDBLK
  5
38
  8
0
  0
BLOCK
 67
     1
  8
0
  2
$PAPER_SPACE
 70
     0
 10
0.0
 20
0.0
 30
0.0
  3
$PAPER_SPACE
  1

  0
ENDBLK
  5
36
 67
     1
  8
0
  0
BLOCK
  8
0
  2
*S0
 70
     1
 10
0.0
 20
0.0
 30
0.0
  3
*S0
  1

  0
ENDBLK
  5
1C1E
  8
0
  0
BLOCK
  8
0
  2
A$CD31AE051
 70
     0
 10
0.0
 20
0.0
 30
0.0
  3
A$CD31AE051
  1

  0
LINE
  5
511D
  8
0
  6
CONTINUOUS
 62
     3
 10
48.0000000000000071
 20
0.0000000000000018
 30
0.0
 11
-48.0000000000000071
 21
0.0000000000000018
 31
0.0
210
0.0
220
1.0
230
-0.0000000000000002
  0
LINE
  5
511E
  8
0
  6
CONTINUOUS
 62
     3
 10
47.5
 20
0.5000000000000001
 30
-0.0000000000000001
 11
-47.5
 21
0.5000000000000001
 31
-0.0000000000000001
210
0.0
220
1.0
230
-0.0000000000000002
  0
LINE
  5
511F
  8
0
  6
CONTINUOUS
 62
     3
 10
47.5
 20
3.5000000000000031
 30
-0.0000000000000008
 11
-47.5
 21
3.5000000000000031
 31
-0.0000000000000008
210
0.0
220
1.0
230
-0.0000000000000002
  0
LINE
  5
5120
  8
0
  6
CONTINUOUS
 62
     3
 10
50.2000000000000028
 20
46.0000000000000213
 30
-0.0000000000000102
 11
-50.2000000000000028
 21
46.0000000000000213
 31
-0.0000000000000102
210
0.0
220
1.0
230
-0.0000000000000002
  0
ARC
  5
5121
  8
0
  6
CONTINUOUS
 62
     3
 10
-47.5
 20
0.0000000000000019
 30
0.0
 40
0.4999999999999937
210
0.0
220
-0.0000000000000002
230
-1.0
 50
90.0
 51
180.0
  0
ARC
  5
5122
  8
0
  6
CONTINUOUS
 62
     3
 10
47.5
 20
0.0000000000000019
 30
0.0
 40
0.4999999999999929
210
0.0
220
-0.0000000000000002
230
-1.0
 50
0.0
 51
90.0000000000000284
  0
ARC
  5
5123
  8
0
  6
CONTINUOUS
 62
     3
 10
-47.5
 20
4.0
 30
0.0
 40
0.5
210
0.0
220
-0.0000000000000002
230
-1.0
 50
179.9999999999994031
 51
270.0
  0
ARC
  5
5124
  8
0
  6
CONTINUOUS
 62
     3
 10
47.5000000000000071
 20
3.9999999999999978
 30
0.0
 40
0.4999999999999952
210
0.0
220
-0.0000000000000002
230
-1.0
 50
270.0
 51
0.0000000000014758
  0
LINE
  5
5125
  8
0
  6
CONTINUOUS
 62
     3
 10
-48.0
 20
4.0000000000000044
 30
-0.0000000000000009
 11
-48.0
 21
10.9999999999999893
 31
-0.0000000000000024
210
0.0
220
1.0
230
-0.0000000000000002
  0
LINE
  5
5126
  8
0
  6
CONTINUOUS
 62
     3
 10
-48.0
 20
13.0
 30
-0.0000000000000029
 11
-48.0
 21
18.2000000000000206
 31
-0.000000000000004
210
0.0
220
1.0
230
-0.0000000000000002
  0
LINE
  5
5127
  8
0
  6
CONTINUOUS
 62
     3
 10
48.0
 20
4.0000000000000062
 30
-0.0000000000000009
 11
48.0
 21
10.9999999999999893
 31
-0.0000000000000024
210
0.0
220
1.0
230
-0.0000000000000002
  0
LINE
  5
5128
  8
0
  6
CONTINUOUS
 62
     3
 10
48.0
 20
13.0
 30
-0.0000000000000029
 11
48.0
 21
18.2000000000000206
 31
-0.000000000000004
210
0.0
220
1.0
230
-0.0000000000000002
  0
ARC
  5
5129
  8
0
  6
CONTINUOUS
 62
     3
 10
-48.4999999999999574
 20
18.2000000000000384
 30
0.0
 40
0.4999999999999503
210
0.0
220
-0.0000000000000002
230
-1.0
 50
359.9999999999976126
 51
47.1818532569922908
  0
ARC
  5
512A
  8
0
  6
CONTINUOUS
 62
     3
 10
48.4999999999999787
 20
18.2000000000000313
 30
0.0
 40
0.4999999999999786
210
0.0
220
-0.0000000000000002
230
-1.0
 50
132.8181467430100895
 51
180.0000000000007105
  0
LINE
  5
512B
  8
0
  6
CONTINUOUS
 62
     3
 10
-48.1601631712969365
 20
18.5667573173872107
 30
-0.0000000000000041
 11
-48.5195104861091693
 21
18.8997280478384617
 31
-0.0000000000000042
210
0.0
220
1.0
230
-0.0000000000000002
  0
LINE
  5
512C
  8
0
  6
CONTINUOUS
 62
     3
 10
48.1601631712969365
 20
18.5667573173872107
 30
-0.0000000000000041
 11
48.5195104861091693
 21
18.8997280478384617
 31
-0.0000000000000042
210
0.0
220
1.0
230
-0.0000000000000002
  0
ARC
  5
512D
  8
0
  6
CONTINUOUS
 62
     3
 10
-47.4999999999999929
 20
20.0000000000000213
 30
0.0
 40
1.5000000000000071
210
0.0
220
-0.0000000000000002
230
-1.0
 50
180.0
 51
227.181853256989001
  0
ARC
  5
512E
  8
0
  6
CONTINUOUS
 62
     3
 10
47.4999999999999929
 20
20.0000000000000213
 30
0.0
 40
1.5000000000000071
210
0.0
220
-0.0000000000000002
230
-1.0
 50
312.8181467430109137
 51
359.9999999999997726
  0
LINE
  5
512F
  8
0
  6
CONTINUOUS
 62
     3
 10
-49.0
 20
20.0000000000000213
 30
-0.0000000000000044
 11
-49.0
 21
35.0000000000000213
 31
-0.0000000000000078
210
0.0
220
1.0
230
-0.0000000000000002
  0
LINE
  5
5130
  8
0
  6
CONTINUOUS
 62
     3
 10
49.0
 20
20.0000000000000213
 30
-0.0000000000000044
 11
49.0
 21
35.0000000000000213
 31
-0.0000000000000078
210
0.0
220
1.0
230
-0.0000000000000002
  0
ARC
  5
5131
  8
0
  6
CONTINUOUS
 62
     3
 10
-53.0000000000004334
 20
34.9999999999999503
 30
0.0
 40
4.0000000000004192
210
0.0
220
-0.0000000000000002
230
-1.0
 50
0.000000000000916
 51
17.73694390511168
  0
ARC
  5
5132
  8
0
  6
CONTINUOUS
 62
     3
 10
53.0000000000001634
 20
34.9999999999999929
 30
0.0
 40
4.0000000000001554
210
0.0
220
-0.0000000000000002
230
-1.0
 50
162.2630560948875029
 51
179.9999999999996021
  0
LINE
  5
5133
  8
0
  6
CONTINUOUS
 62
     3
 10
-49.1901390203776785
 20
36.2185890677136371
 30
-0.000000000000008
 11
-50.0098609796223315
 21
38.7814109322863985
 31
-0.0000000000000086
210
0.0
220
1.0
230
-0.0000000000000002
  0
LINE
  5
5134
  8
0
  6
CONTINUOUS
 62
     3
 10
49.1901390203776785
 20
36.2185890677136371
 30
-0.000000000000008
 11
50.0098609796223315
 21
38.7814109322863985
 31
-0.0000000000000086
210
0.0
220
1.0
230
-0.0000000000000002
  0
ARC
  5
5135
  8
0
  6
CONTINUOUS
 62
     3
 10
-46.2000000000002373
 20
39.9999999999999787
 30
0.0
 40
3.9999999999997651
210
0.0
220
-0.0000000000000002
230
-1.0
 50
179.9999999999994884
 51
197.7369439051130087
  0
ARC
  5
5136
  8
0
  6
CONTINUOUS
 62
     3
 10
46.2000000000002373
 20
39.9999999999999787
 30
0.0
 40
3.999999999999766
210
0.0
220
-0.0000000000000002
230
-1.0
 50
342.2630560948870198
 51
0.0000000000005216
  0
LINE
  5
5137
  8
0
  6
CONTINUOUS
 62
     3
 10
-50.2000000000000028
 20
40.0000000000000071
 30
-0.0000000000000089
 11
-50.2000000000000028
 21
46.0000000000000213
 31
-0.0000000000000102
210
0.0
220
1.0
230
-0.0000000000000002
  0
LINE
  5
5138
  8
0
  6
CONTINUOUS
 62
     3
 10
50.2000000000000028
 20
40.0000000000000071
 30
-0.0000000000000089
 11
50.2000000000000028
 21
46.0000000000000213
 31
-0.0000000000000102
210
0.0
220
1.0
230
-0.0000000000000002
  0
LINE
  5
5139
  8
0
  6
CONTINUOUS
 62
     3
 10
-51.2999999999999829
 20
13.0
 30
-0.0000000000000029
 11
51.2999999999999901
 21
13.0
 31
-0.0000000000000029
210
0.0
220
1.0
230
-0.0000000000000002
  0
LINE
  5
513A
  8
0
  6
CONTINUOUS
 62
     3
 10
-51.2999999999999829
 20
10.9999999999999893
 30
-0.0000000000000024
 11
51.2999999999999901
 21
10.9999999999999893
 31
-0.0000000000000024
210
0.0
220
1.0
230
-0.0000000000000002
  0
LINE
  5
513B
  8
0
  6
CONTINUOUS
 62
     3
 10
51.2999999999999901
 20
13.0
 30
-0.0000000000000029
 11
51.2999999999999901
 21
10.9999999999999893
 31
-0.0000000000000024
210
0.0
220
1.0
230
-0.0000000000000002
  0
LINE
  5
513C
  8
0
  6
CONTINUOUS
 62
     3
 10
-51.2999999999999901
 20
13.0
 30
-0.0000000000000029
 11
-51.2999999999999901
 21
10.9999999999999893
 31
-0.0000000000000024
210
0.0
220
1.0
230
-0.0000000000000002
  0
ARC
  5
513D
  8
0
  6
CONTINUOUS
 62
     3
 10
-47.2000000000000028
 20
2.0000000000000022
 30
0.0
 40
1.5
210
0.0
220
-0.0000000000000002
230
-1.0
 50
90.0
 51
270.0
  0
ARC
  5
513E
  8
0
  6
CONTINUOUS
 62
     3
 10
47.2000000000000028
 20
2.0000000000000022
 30
0.0
 40
1.5
210
0.0
220
-0.0000000000000002
230
-1.0
 50
270.0
 51
90.0
  0
LINE
  5
513F
  8
0
  6
VERDECKT
 62
     1
 10
-48.0471807264909785
 20
36.5841657880277182
 30
-0.0000000000000081
 11
-48.8669026857356315
 21
39.1469876526004796
 31
-0.0000000000000087
210
0.0
220
1.0
230
-0.0000000000000002
  0
LINE
  5
5140
  8
0
  6
VERDECKT
 62
     1
 10
48.0471807264909785
 20
36.5841657880277324
 30
-0.0000000000000081
 11
48.8669026857356315
 21
39.1469876526004796
 31
-0.0000000000000087
210
0.0
220
1.0
230
-0.0000000000000002
  0
ARC
  5
5141
  8
0
  6
VERDECKT
 62
     1
 10
-53.0000000000003695
 20
34.9999999999999574
 30
0.0
 40
5.2000000000003652
210
0.0
220
-0.0000000000000002
230
-1.0
 50
0.0000000000006361
 51
17.7369439051120388
  0
ARC
  5
5142
  8
0
  6
VERDECKT
 62
     1
 10
53.0000000000003695
 20
34.9999999999999574
 30
0.0
 40
5.2000000000003661
210
0.0
220
-0.0000000000000002
230
-1.0
 50
162.2630560948879008
 51
179.9999999999994031
  0
LINE
  5
5143
  8
0
  6
VERDECKT
 62
     1
 10
-47.7999999999999972
 20
20.0000000000000213
 30
-0.0000000000000044
 11
-47.7999999999999972
 21
35.0000000000000213
 31
-0.0000000000000078
210
0.0
220
1.0
230
-0.0000000000000002
  0
LINE
  5
5144
  8
0
  6
VERDECKT
 62
     1
 10
47.7999999999999972
 20
20.0000000000000213
 30
-0.0000000000000044
 11
47.7999999999999972
 21
35.0000000000000213
 31
-0.0000000000000078
210
0.0
220
1.0
230
-0.0000000000000002
  0
ARC
  5
5145
  8
0
  6
VERDECKT
 62
     1
 10
-47.5000000000000213
 20
20.0000000000000107
 30
0.0
 40
0.2999999999999758
210
0.0
220
-0.0000000000000002
230
-1.0
 50
179.9999999999986073
 51
227.1818532569909905
  0
ARC
  5
5146
  8
0
  6
VERDECKT
 62
     1
 10
47.5000000000000213
 20
20.0000000000000107
 30
0.0
 40
0.2999999999999772
210
0.0
220
-0.0000000000000002
230
-1.0
 50
312.8181467430089242
 51
0.0000000000013613
  0
LINE
  5
5147
  8
0
  6
VERDECKT
 62
     1
 10
-47.3445547824095883
 20
19.4469748791164605
 30
-0.0000000000000043
 11
-47.7039020972218424
 21
19.7799456095677009
 31
-0.0000000000000044
210
0.0
220
1.0
230
-0.0000000000000002
  0
LINE
  5
5148
  8
0
  6
VERDECKT
 62
     1
 10
47.3445547824095883
 20
19.4469748791164605
 30
-0.0000000000000043
 11
47.7039020972218424
 21
19.7799456095677009
 31
-0.0000000000000044
210
0.0
220
1.0
230
-0.0000000000000002
  0
ARC
  5
5149
  8
0
  6
VERDECKT
 62
     1
 10
-48.5
 20
18.2000000000000206
 30
0.0
 40
1.6999999999999951
210
0.0
220
-0.0000000000000002
230
-1.0
 50
359.9999999999998863
 51
47.1818532569891502
  0
ARC
  5
514A
  8
0
  6
VERDECKT
 62
     1
 10
48.4999999999999787
 20
18.2000000000000206
 30
0.0
 40
1.6999999999999811
210
0.0
220
-0.0000000000000002
230
-1.0
 50
132.8181467430106011
 51
180.0000000000001137
  0
LINE
  5
514B
  8
0
  6
VERDECKT
 62
     1
 10
-46.7999999999999972
 20
5.0708305065568213
 30
-0.0000000000000011
 11
-46.7999999999999972
 21
18.2000000000000206
 31
-0.000000000000004
210
0.0
220
1.0
230
-0.0000000000000002
  0
LINE
  5
514C
  8
0
  6
VERDECKT
 62
     1
 10
46.7999999999999972
 20
5.0708305065568231
 30
-0.0000000000000011
 11
46.7999999999999972
 21
18.2000000000000206
 31
-0.000000000000004
210
0.0
220
1.0
230
-0.0000000000000002
  0
ARC
  5
514D
  8
0
  6
VERDECKT
 62
     1
 10
-46.3000000000000114
 20
5.0708305065568187
 30
0.0
 40
0.4999999999999929
210
0.0
220
-0.0000000000000002
230
-1.0
 50
179.9999999999996021
 51
253.6651772193154954
  0
ARC
  5
514E
  8
0
  6
VERDECKT
 62
     1
 10
46.2999999999999901
 20
5.070830506556832
 30
0.0
 40
0.5000000000000117
210
0.0
220
-0.0000000000000002
230
-1.0
 50
286.3348227806865225
 51
359.9999999999986926
  0
ARC
  5
514F
  8
0
  6
VERDECKT
 62
     1
 10
-47.2000000000000028
 20
2.000000000000004
 30
0.0
 40
2.7000000000000011
210
0.0
220
-0.0000000000000002
230
-1.0
 50
312.2054464037320258
 51
73.6651772193140459
  0
ARC
  5
5150
  8
0
  6
VERDECKT
 62
     1
 10
47.2000000000000028
 20
2.000000000000004
 30
0.0
 40
2.6999999999999988
210
0.0
220
-0.0000000000000002
230
-1.0
 50
106.3348227806858972
 51
227.7945535962678889
  0
ARC
  5
5151
  8
0
  6
VERDECKT
 62
     1
 10
-47.2000000000000028
 20
2.0000000000000031
 30
0.0
 40
1.5
210
0.0
220
-0.0000000000000002
230
-1.0
 50
270.0
 51
90.0
  0
ARC
  5
5152
  8
0
  6
VERDECKT
 62
     1
 10
47.2000000000000028
 20
2.0000000000000031
 30
0.0
 40
1.5
210
0.0
220
-0.0000000000000002
230
-1.0
 50
90.0
 51
270.0
  0
LINE
  5
5153
  8
0
  6
VERDECKT
 62
     1
 10
-48.0
 20
10.9999999999999893
 30
-0.0000000000000024
 11
-48.0
 21
13.0
 31
-0.0000000000000029
210
0.0
220
1.0
230
-0.0000000000000002
  0
LINE
  5
5154
  8
0
  6
VERDECKT
 62
     1
 10
48.0
 20
10.9999999999999893
 30
-0.0000000000000024
 11
48.0
 21
13.0
 31
-0.0000000000000029
210
0.0
220
1.0
230
-0.0000000000000002
  0
LINE
  5
5155
  8
0
  6
VERDECKT
 62
     1
 10
-49.0
 20
40.0000000000000071
 30
-0.0000000000000089
 11
-49.0
 21
46.0000000000000071
 31
-0.0000000000000102
210
0.0
220
1.0
230
-0.0000000000000002
  0
LINE
  5
5156
  8
0
  6
VERDECKT
 62
     1
 10
49.0
 20
40.0000000000000071
 30
-0.0000000000000089
 11
49.0
 21
46.0000000000000071
 31
-0.0000000000000102
210
0.0
220
1.0
230
-0.0000000000000002
  0
ARC
  5
5157
  8
0
  6
VERDECKT
 62
     1
 10
-46.2000000000001592
 20
39.9999999999999787
 30
0.0
 40
2.79999999999984
210
0.0
220
-0.0000000000000002
230
-1.0
 50
179.9999999999992895
 51
197.7369439051128097
  0
ARC
  5
5158
  8
0
  6
VERDECKT
 62
     1
 10
46.2000000000001592
 20
39.9999999999999787
 30
0.0
 40
2.7999999999998422
210
0.0
220
-0.0000000000000002
230
-1.0
 50
342.2630560948870766
 51
0.0000000000007379
  0
LINE
  5
5159
  8
0
  6
VERDECKT
 62
     1
 10
48.1000000000000085
 20
13.0
 30
-0.0000000000000029
 11
48.1000000000000085
 21
10.9999999999999893
 31
-0.0000000000000024
210
0.0
220
1.0
230
-0.0000000000000002
  0
LINE
  5
515A
  8
0
  6
VERDECKT
 62
     1
 10
-48.1000000000000085
 20
13.0
 30
-0.0000000000000029
 11
-48.1000000000000085
 21
10.9999999999999893
 31
-0.0000000000000024
210
0.0
220
1.0
230
-0.0000000000000002
  0
ARC
  5
515B
  8
0
  6
VERDECKT
 62
     1
 10
-47.2000000000000028
 20
2.0000000000000022
 30
0.0
 40
1.5
210
0.0
220
-0.0000000000000002
230
-1.0
 50
270.0
 51
90.0
  0
ARC
  5
515C
  8
0
  6
VERDECKT
 62
     1
 10
47.2000000000000028
 20
2.0000000000000022
 30
0.0
 40
1.5
210
0.0
220
-0.0000000000000002
230
-1.0
 50
90.0
 51
270.0
  0
ENDBLK
  5
515E
  8
0
  0
BLOCK
  8
0
  2
A$C6BAF2B2C
 70
     0
 10
0.0
 20
0.0
 30
0.0
  3
A$C6BAF2B2C
  1

  0
CIRCLE
  5
5162
  8
0
  6
CONTINUOUS
 62
     3
 10
0.0000000000000078
 20
0.0
 30
0.0
 40
47.7999999999999972
  0
CIRCLE
  5
5163
  8
0
  6
CONTINUOUS
 62
     3
 10
0.000000000000004
 20
0.0
 30
0.0
 40
46.7999999999999972
  0
CIRCLE
  5
5164
  8
0
  6
CONTINUOUS
 62
     3
 10
0.0000000000000102
 20
0.0
 30
0.0
 40
50.2000000000000028
  0
CIRCLE
  5
5165
  8
0
  6
CONTINUOUS
 62
     3
 10
0.0000000000000102
 20
0.0
 30
0.0
 40
49.0
  0
CIRCLE
  5
5166
  8
0
  6
CONTINUOUS
 62
     3
 10
0.0000000000000004
 20
0.0
 30
0.0
 40
44.5
  0
CIRCLE
  5
5167
  8
0
  6
CONTINUOUS
 62
     3
 10
0.0000000000000029
 20
0.0
 30
0.0
 40
51.2999999999999901
  0
CIRCLE
  5
5168
  8
0
  6
VERDECKT
 62
     1
 10
0.0
 20
0.0
 30
0.0
 40
45.3861642852782978
  0
CIRCLE
  5
5169
  8
0
  6
VERDECKT
 62
     1
 10
0.000000000000004
 20
0.0
 30
0.0
 40
48.0
  0
CIRCLE
  5
516A
  8
0
  6
VERDECKT
 62
     1
 10
0.0000000000000004
 20
0.0
 30
0.0
 40
45.7000000000000028
  0
CIRCLE
  5
516B
  8
0
  6
VERDECKT
 62
     1
 10
0.0000000000000029
 20
0.0
 30
0.0
 40
48.1000000000000085
  0
CIRCLE
  5
516C
  8
0
  6
VERDECKT
 62
     1
 10
0.0000000000000004
 20
0.0
 30
0.0
 40
48.7000000000000028
  0
CIRCLE
  5
516D
  8
0
  6
VERDECKT
 62
     1
 10
0.0000000000000004
 20
0.0
 30
0.0
 40
45.7000000000000028
  0
ENDBLK
  5
516F
  8
0
  0
ENDSEC
  0
SECTION
  2
ENTITIES
  0
INSERT
  5
1C20
  8
ADSK_ASSOC_ENTITY_BACKUPS
  2
*S0
 10
0.0
 20
0.0
 30
0.0
  0
INSERT
  5
515F
  8
STEMPEL
  2
A$CD31AE051
 10
0.0
 20
0.0
 30
0.0
  0
INSERT
  5
5170
  8
STEMPEL
  2
A$C6BAF2B2C
 10
0.0
 20
-100.0
 30
0.0
  0
VIEWPORT
  5
1B12
 67
     1
  8
0
 10
148.2586872890267955
 20
209.7388658984027927
 30
0.0
 40
795.6883637233959234
 41
422.1649484536083037
 68
     1
 69
     1
1001
ACAD
1000
MVIEW
1002
{
1070
    16
1010
0.0
1020
0.0
1030
0.0
1010
0.0
1020
0.0
1030
1.0
1040
0.0
1040
422.1649484536083037
1040
148.2586872890267955
1040
209.7388658984027927
1040
50.0
1040
0.0
1040
0.0
1070
     0
1070
  1500
1070
     1
1070
     1
1070
     0
1070
     0
1070
     0
1070
     0
1040
0.0
1040
0.0
1040
0.0
1040
10.0
1040
10.0
1040
10.0
1040
10.0
1070
     0
1002
{
1002
}
1002
}
  0
ENDSEC
  0
EOF
