  0
SECTION
  2
HEADER
  9
$ACADVER
  1
AC1009
  9
$INSBASE
 10
0.0
 20
0.0
 30
0.0
  9
$EXTMIN
 10
-115.0
 20
-280.0
 30
-0.0000000000000334
  9
$EXTMAX
 10
228.2413093173373113
 20
496.7317853925953841
 30
150.0
  9
$LIMMIN
 10
0.0
 20
0.0
  9
$LIMMAX
 10
419.9999999999998863
 20
594.0
  9
$ORTHOMODE
 70
     1
  9
$REGENMODE
 70
     1
  9
$FILLMODE
 70
     1
  9
$QTEXTMODE
 70
     0
  9
$MIRRTEXT
 70
     1
  9
$DRAGMODE
 70
     2
  9
$LTSCALE
 40
10.0
  9
$OSMODE
 70
   511
  9
$ATTMODE
 70
     1
  9
$TEXTSIZE
 40
3.5
  9
$TRACEWID
 40
0.5
  9
$TEXTSTYLE
  7
STANDARD
  9
$CLAYER
  8
STEMPEL
  9
$CELTYPE
  6
BYLAYER
  9
$CECOLOR
 62
   256
  9
$DIMSCALE
 40
1.0
  9
$DIMASZ
 40
3.5
  9
$DIMEXO
 40
1.0
  9
$DIMDLI
 40
7.0
  9
$DIMRND
 40
0.0
  9
$DIMDLE
 40
0.0
  9
$DIMEXE
 40
1.0
  9
$DIMTP
 40
0.0
  9
$DIMTM
 40
0.0
  9
$DIMTXT
 40
3.5
  9
$DIMCEN
 40
1.5
  9
$DIMTSZ
 40
0.0
  9
$DIMTOL
 70
     0
  9
$DIMLIM
 70
     0
  9
$DIMTIH
 70
     0
  9
$DIMTOH
 70
     0
  9
$DIMSE1
 70
     0
  9
$DIMSE2
 70
     0
  9
$DIMTAD
 70
     1
  9
$DIMZIN
 70
     8
  9
$DIMBLK
  1

  9
$DIMASO
 70
     1
  9
$DIMSHO
 70
     0
  9
$DIMPOST
  1

  9
$DIMAPOST
  1

  9
$DIMALT
 70
     0
  9
$DIMALTD
 70
     2
  9
$DIMALTF
 40
25.3999999999999986
  9
$DIMLFAC
 40
2.0
  9
$DIMTOFL
 70
     1
  9
$DIMTVP
 40
0.0
  9
$DIMTIX
 70
     0
  9
$DIMSOXD
 70
     0
  9
$DIMSAH
 70
     0
  9
$DIMBLK1
  1

  9
$DIMBLK2
  1

  9
$DIMSTYLE
  2
STANDARD
  9
$DIMCLRD
 70
     0
  9
$DIMCLRE
 70
     0
  9
$DIMCLRT
 70
     1
  9
$DIMTFAC
 40
0.5142857142857143
  9
$DIMGAP
 40
1.5
  9
$LUNITS
 70
     2
  9
$LUPREC
 70
     2
  9
$SKETCHINC
 40
1.0
  9
$FILLETRAD
 40
8.0
  9
$AUNITS
 70
     0
  9
$AUPREC
 70
     0
  9
$MENU
  1
ACAD
  9
$ELEVATION
 40
0.0
  9
$PELEVATION
 40
0.0
  9
$THICKNESS
 40
0.0
  9
$LIMCHECK
 70
     0
  9
$BLIPMODE
 70
     0
  9
$CHAMFERA
 40
0.0
  9
$CHAMFERB
 40
0.0
  9
$SKPOLY
 70
     0
  9
$TDCREATE
 40
2455397.8646990740671754
  9
$TDUPDATE
 40
2459807.4166666669771075
  9
$TDINDWG
 40
0.3869296181
  9
$TDUSRTIMER
 40
0.3869296181
  9
$USRTIMER
 70
     1
  9
$ANGBASE
 50
0.0
  9
$ANGDIR
 70
     0
  9
$PDMODE
 70
     0
  9
$PDSIZE
 40
0.0
  9
$PLINEWID
 40
0.0
  9
$COORDS
 70
     1
  9
$SPLFRAME
 70
     0
  9
$SPLINETYPE
 70
     6
  9
$SPLINESEGS
 70
     8
  9
$ATTDIA
 70
     1
  9
$ATTREQ
 70
     1
  9
$HANDLING
 70
     1
  9
$HANDSEED
  5
3DBA
  9
$SURFTAB1
 70
     6
  9
$SURFTAB2
 70
     6
  9
$SURFTYPE
 70
     6
  9
$SURFU
 70
     6
  9
$SURFV
 70
     6
  9
$UCSNAME
  2

  9
$UCSORG
 10
0.0
 20
0.0
 30
0.0
  9
$UCSXDIR
 10
1.0
 20
0.0
 30
0.0
  9
$UCSYDIR
 10
0.0
 20
1.0
 30
0.0
  9
$PUCSNAME
  2

  9
$PUCSORG
 10
0.0
 20
0.0
 30
0.0
  9
$PUCSXDIR
 10
1.0
 20
0.0
 30
0.0
  9
$PUCSYDIR
 10
0.0
 20
1.0
 30
0.0
  9
$USERI1
 70
     0
  9
$USERI2
 70
     0
  9
$USERI3
 70
     0
  9
$USERI4
 70
     0
  9
$USERI5
 70
     0
  9
$USERR1
 40
0.0
  9
$USERR2
 40
0.0
  9
$USERR3
 40
0.0
  9
$USERR4
 40
0.0
  9
$USERR5
 40
0.0
  9
$WORLDVIEW
 70
     1
  9
$SHADEDGE
 70
     3
  9
$SHADEDIF
 70
    70
  9
$TILEMODE
 70
     1
  9
$MAXACTVP
 70
    16
  9
$PLIMCHECK
 70
     0
  9
$PEXTMIN
 10
1.0000000000000000E+20
 20
1.0000000000000000E+20
 30
1.0000000000000000E+20
  9
$PEXTMAX
 10
-1.0000000000000000E+20
 20
-1.0000000000000000E+20
 30
-1.0000000000000000E+20
  9
$PLIMMIN
 10
-3.0165984984309939
 20
-4.2839487779493757
  9
$PLIMMAX
 10
293.9834015015690056
 20
415.7160512220506234
  9
$UNITMODE
 70
     0
  9
$VISRETAIN
 70
     0
  9
$PLINEGEN
 70
     0
  9
$PSLTSCALE
 70
     1
  0
ENDSEC
  0
SECTION
  2
TABLES
  0
TABLE
  2
VPORT
 70
     1
  0
VPORT
  2
*ACTIVE
 70
     0
 10
0.0
 20
0.0
 11
1.0
 21
1.0
 12
0.0
 22
0.0
 13
0.0
 23
0.0
 14
1.0
 24
1.0
 15
10.0
 25
10.0
 16
-0.0000000000003055
 26
0.0
 36
1349.2201387015641103
 17
-60.6522710727404828
 27
-81.3055762328366853
 37
-0.0000000000000162
 40
534.0008316282821852
 41
1.8720136518771331
 42
50.0
 43
0.0
 44
0.0
 50
0.0
 51
0.0
 71
     0
 72
  1500
 73
     1
 74
     0
 75
     0
 76
     0
 77
     0
 78
     0
  0
ENDTAB
  0
TABLE
  2
LTYPE
 70
     3
  0
LTYPE
  2
CONTINUOUS
 70
     0
  3
Solid line
 72
    65
 73
     0
 40
0.0
  0
LTYPE
  2
STRICHPUNKT
 70
     0
  3
__ . __ . __ . __ . __ . __ . __ . __ . __ . __
 72
    65
 73
     4
 40
1.0
 49
0.5
 49
-0.25
 49
0.0
 49
-0.25
  0
LTYPE
  2
VERDECKT
 70
     0
  3
Verdeckt __ __ __ __ __ __ __ __ __ __ __ __ __
 72
    65
 73
     2
 40
0.375
 49
0.25
 49
-0.125
  0
ENDTAB
  0
TABLE
  2
LAYER
 70
     6
  0
LAYER
  2
0
 70
     0
 62
     7
  6
CONTINUOUS
  0
LAYER
  2
VOLL
 70
     0
 62
     1
  6
CONTINUOUS
  0
LAYER
  2
STEMPEL
 70
     0
 62
     3
  6
CONTINUOUS
  0
LAYER
  2
ADSK_ASSOC_ENTITY_BACKUPS
 70
     1
 62
    -7
  6
CONTINUOUS
  0
ENDTAB
  0
TABLE
  2
STYLE
 70
     3
  0
STYLE
  2
STANDARD
 70
     0
 40
0.0
 41
0.8
 50
0.0
 71
     0
 42
3.5
  3
simplex.shx
  4

  0
STYLE
  2
GREEKS
 70
     0
 40
0.0
 41
0.8
 50
0.0
 71
     0
 42
2.5
  3
SIMPLEX.shx
  4

  0
ENDTAB
  0
TABLE
  2
VIEW
 70
     0
  0
ENDTAB
  0
TABLE
  2
UCS
 70
     0
  0
ENDTAB
  0
TABLE
  2
APPID
 70
    23
  0
APPID
  2
ACAD
 70
     0
  0
APPID
  2
ACAD_NAV_VCDISPLAY
 70
     0
  0
APPID
  2
ACAD_PSEXT
 70
     0
  0
APPID
  2
ACAECLAYERSTANDARD
 70
     0
  0
APPID
  2
ACCMTRANSPARENCY
 70
     0
  0
APPID
  2
ACADANNOMONITORALERTICONDI
 70
     0
  0
APPID
  2
ACAD_EXEMPT_FROM_CAD_STANDARDS
 70
     0
  0
APPID
  2
ACAD_MLEADERVER
 70
     0
  0
APPID
  2
ACAD_OBJECT_CHANGE_GUID
 70
     0
  0
APPID
  2
ACAD_STEPID
 70
     0
  0
APPID
  2
ACSYNERGY
 70
     0
  0
APPID
  2
SYNERGY_BODY_TBR_ID
 70
     0
  0
APPID
  2
ACAD_VIEW_EDGE_ID
 70
     0
  0
APPID
  2
ACSYNERGYSKETCH
 70
     0
  0
APPID
  2
ACAD_MODELDOC_XFORM
 70
     0
  0
APPID
  2
GRADIENTCOLOR1ACI
 70
     0
  0
APPID
  2
GRADIENTCOLOR2ACI
 70
     0
  0
APPID
  2
ACAD_DSTYLE_DIMJAG
 70
     0
  0
APPID
  2
ACAD_DSTYLE_DIMTALN
 70
     0
  0
APPID
  2
ACAD_DSTYLE_DIMRADIAL_EXTENSION
 70
     0
  0
APPID
  2
ACAD_DSTYLE_DIMBREAK
 70
     0
  0
APPID
  2
ACDBDYNAMICBLOCKGUID
 70
     0
  0
APPID
  2
ACADANNOPO
 70
     0
  0
ENDTAB
  0
TABLE
  2
DIMSTYLE
 70
     1
  0
DIMSTYLE
  2
STANDARD
 70
     0
  3

  4

  5

  6

  7

 40
1.0
 41
0.18
 42
0.0625
 43
0.38
 44
0.18
 45
0.0
 46
0.0
 47
0.0
 48
0.0
140
0.18
141
0.09
142
0.0
143
25.3999999999999986
144
1.0
145
0.0
146
1.0
147
0.09
 71
     0
 72
     0
 73
     1
 74
     1
 75
     0
 76
     0
 77
     0
 78
     0
170
     0
171
     2
172
     0
173
     0
174
     0
175
     0
176
     0
177
     0
178
     0
  0
ENDTAB
  0
ENDSEC
  0
SECTION
  2
BLOCKS
  0
BLOCK
  8
0
  2
$MODEL_SPACE
 70
     0
 10
0.0
 20
0.0
 30
0.0
  3
$MODEL_SPACE
  1

  0
ENDBLK
  5
36
  8
0
  0
BLOCK
 67
     1
  8
0
  2
$PAPER_SPACE
 70
     0
 10
0.0
 20
0.0
 30
0.0
  3
$PAPER_SPACE
  1

  0
ENDBLK
  5
2438
 67
     1
  8
0
  0
BLOCK
  8
0
  2
*S0
 70
     1
 10
0.0
 20
0.0
 30
0.0
  3
*S0
  1

  0
ENDBLK
  5
1AA8
  8
0
  0
BLOCK
  8
0
  2
A$C404700DB
 70
     0
 10
0.0
 20
0.0
 30
0.0
  3
A$C404700DB
  1

  0
CIRCLE
  5
3CEA
  8
0
  6
CONTINUOUS
 62
     3
 10
0.0000000000000161
 20
-90.0
 30
0.0
 40
3.0000000000000422
  0
CIRCLE
  5
3CEB
  8
0
  6
CONTINUOUS
 62
     3
 10
-89.9999999999999858
 20
0.0000000000000127
 30
-0.0000000000000284
 40
3.0000000000000422
  0
CIRCLE
  5
3CEC
  8
0
  6
CONTINUOUS
 62
     3
 10
0.0000000000000382
 20
90.0
 30
0.0
 40
3.0000000000000422
  0
CIRCLE
  5
3CED
  8
0
  6
CONTINUOUS
 62
     3
 10
90.0000000000000284
 20
0.0000000000000017
 30
0.0000000000000284
 40
3.0000000000000422
  0
CIRCLE
  5
3CEE
  8
0
  6
CONTINUOUS
 62
     3
 10
0.000000000000027
 20
0.0000000000000001
 30
0.0
 40
40.5
  0
CIRCLE
  5
3CEF
  8
0
  6
CONTINUOUS
 62
     3
 10
0.0000000000000325
 20
0.0000000000000016
 30
0.0
 40
115.0
  0
CIRCLE
  5
3CF0
  8
0
  6
CONTINUOUS
 62
     3
 10
0.0000000000000308
 20
0.0000000000000012
 30
0.0
 40
51.5
  0
CIRCLE
  5
3CF1
  8
0
  6
CONTINUOUS
 62
     3
 10
0.0000000000000222
 20
0.0000000000000085
 30
0.0
 40
34.8999999999998565
  0
CIRCLE
  5
3CF2
  8
0
  6
CONTINUOUS
 62
     3
 10
0.0
 20
0.0000000000000024
 30
0.0
 40
34.2936678383716682
  0
CIRCLE
  5
3CF3
  8
0
  6
VERDECKT
 62
     1
 10
0.0000000000000159
 20
-90.0
 30
0.0
 40
4.0606601717798263
  0
CIRCLE
  5
3CF4
  8
0
  6
VERDECKT
 62
     1
 10
-89.9999999999999858
 20
0.0000000000000126
 30
-0.0000000000000284
 40
4.0606601717798263
  0
CIRCLE
  5
3CF5
  8
0
  6
VERDECKT
 62
     1
 10
0.0000000000000379
 20
90.0
 30
0.0
 40
4.0606601717798263
  0
CIRCLE
  5
3CF6
  8
0
  6
VERDECKT
 62
     1
 10
90.0000000000000284
 20
0.0000000000000016
 30
0.0000000000000284
 40
4.0606601717798263
  0
CIRCLE
  5
3CF7
  8
0
  6
VERDECKT
 62
     1
 10
0.0000000000000322
 20
0.0000000000000015
 30
0.0
 40
114.3660726073889009
  0
CIRCLE
  5
3CF8
  8
0
  6
VERDECKT
 62
     1
 10
0.0000000000000296
 20
0.0000000000000008
 30
0.0
 40
52.0432604829181713
  0
CIRCLE
  5
3CF9
  8
0
  6
VERDECKT
 62
     1
 10
0.0000000000000308
 20
0.0000000000000012
 30
0.0
 40
53.0
  0
CIRCLE
  5
3CFA
  8
0
  6
VERDECKT
 62
     1
 10
0.0000000000000296
 20
0.0000000000000008
 30
0.0
 40
53.5432604829181784
  0
CIRCLE
  5
3CFB
  8
0
  6
VERDECKT
 62
     1
 10
0.0000000000000265
 20
0.0000000000000097
 30
0.0
 40
42.0277708421291507
  0
CIRCLE
  5
3CFC
  8
0
  6
VERDECKT
 62
     1
 10
0.0000000000000222
 20
0.0000000000000085
 30
0.0
 40
36.5
  0
CIRCLE
  5
3CFD
  8
0
  6
VERDECKT
 62
     1
 10
0.0
 20
0.0000000000000024
 30
0.0
 40
35.8875793553185076
  0
ENDBLK
  5
3CFF
  8
0
  0
BLOCK
  8
0
  2
A$CCE2075B5
 70
     0
 10
0.0
 20
0.0
 30
0.0
  3
A$CCE2075B5
  1

  0
LINE
  5
3D03
  8
0
  6
CONTINUOUS
 62
     3
 10
-44.9240392719524522
 20
120.0
 30
-0.0000000000000266
 11
44.9240392719524735
 21
120.0
 31
-0.0000000000000266
210
0.0
220
1.0
230
-0.0000000000000002
  0
LINE
  5
3D04
  8
0
  6
CONTINUOUS
 62
     3
 10
-106.527756391641006
 20
150.0
 30
-0.0000000000000333
 11
106.527756391641006
 21
150.0
 31
-0.0000000000000333
210
0.0
220
1.0
230
-0.0000000000000002
  0
LINE
  5
3D05
  8
0
  6
CONTINUOUS
 62
     3
 10
-115.0
 20
146.3594616805550004
 30
-0.0000000000000325
 11
115.0
 21
146.3594616805550004
 31
-0.0000000000000325
210
0.0
220
1.0
230
-0.0000000000000002
  0
LINE
  5
3D06
  8
0
  6
CONTINUOUS
 62
     3
 10
-114.3660726073889009
 20
145.0
 30
-0.0000000000000322
 11
114.3660726073889009
 21
145.0
 31
-0.0000000000000322
210
0.0
220
1.0
230
-0.0000000000000002
  0
ARC
  5
3D07
  8
0
  6
CONTINUOUS
 62
     3
 10
106.527756391641006
 20
147.0000000000001137
 30
0.0
 40
2.9999999999999432
210
0.0
220
-0.0000000000000002
230
-1.0
 50
64.9999999999994884
 51
89.99999999999973
  0
ARC
  5
3D08
  8
0
  6
CONTINUOUS
 62
     3
 10
-106.527756391641006
 20
147.0
 30
0.0
 40
3.0000000000000271
210
0.0
220
-0.0000000000000002
230
-1.0
 50
90.0000000000005542
 51
115.0000000000002984
  0
LINE
  5
3D09
  8
0
  6
CONTINUOUS
 62
     3
 10
107.7956111768632042
 20
149.7189233611100008
 30
-0.0000000000000332
 11
115.0
 21
146.3594616805550004
 31
-0.0000000000000325
210
0.0
220
1.0
230
-0.0000000000000002
  0
LINE
  5
3D0A
  8
0
  6
CONTINUOUS
 62
     3
 10
-107.7956111768632042
 20
149.7189233611100008
 30
-0.0000000000000332
 11
-115.0
 21
146.3594616805550004
 31
-0.0000000000000325
210
0.0
220
1.0
230
-0.0000000000000002
  0
LINE
  5
3D0B
  8
0
  6
CONTINUOUS
 62
     3
 10
-114.3660726073889009
 20
145.0
 30
-0.0000000000000322
 11
-115.0
 21
146.3594616805550004
 31
-0.0000000000000325
210
0.0
220
1.0
230
-0.0000000000000002
  0
LINE
  5
3D0C
  8
0
  6
CONTINUOUS
 62
     3
 10
114.3660726073889009
 20
145.0
 30
-0.0000000000000322
 11
115.0
 21
146.3594616805550004
 31
-0.0000000000000325
210
0.0
220
1.0
230
-0.0000000000000002
  0
LINE
  5
3D0D
  8
0
  6
CONTINUOUS
 62
     3
 10
-55.4999999999999929
 20
143.2472232502674103
 30
-0.0000000000000318
 11
-58.5358983848622216
 21
145.0
 31
-0.0000000000000322
210
0.0
220
1.0
230
-0.0000000000000002
  0
LINE
  5
3D0E
  8
0
  6
CONTINUOUS
 62
     3
 10
55.4999999999999929
 20
143.2472232502674103
 30
-0.0000000000000318
 11
58.5358983848622216
 21
145.0
 31
-0.0000000000000322
210
0.0
220
1.0
230
-0.0000000000000002
  0
ARC
  5
3D0F
  8
0
  6
CONTINUOUS
 62
     3
 10
58.0000000000000071
 20
138.9170962313453117
 30
0.0
 40
5.0000000000000018
210
0.0
220
-0.0000000000000002
230
-1.0
 50
120.000000000000199
 51
191.2049919799212034
  0
ARC
  5
3D10
  8
0
  6
CONTINUOUS
 62
     3
 10
-58.0000000000000071
 20
138.9170962313453117
 30
0.0
 40
5.0000000000000124
210
0.0
220
-0.0000000000000002
230
-1.0
 50
348.7950080200786829
 51
59.9999999999997513
  0
ARC
  5
3D11
  8
0
  6
CONTINUOUS
 62
     3
 10
30.0432604829181003
 20
133.3789814280899861
 30
0.0
 40
23.5000000000000711
210
0.0
220
-0.0000000000000002
230
-1.0
 50
338.4424036881886195
 51
11.2049919799214006
  0
ARC
  5
3D12
  8
0
  6
CONTINUOUS
 62
     3
 10
-30.0432604829180683
 20
133.3789814280899861
 30
0.0
 40
23.5000000000001208
210
0.0
220
-0.0000000000000002
230
-1.0
 50
168.7950080200785976
 51
201.5575963118112952
  0
ARC
  5
3D13
  8
0
  6
CONTINUOUS
 62
     3
 10
44.9240392719524735
 20
127.5
 30
0.0
 40
7.5
210
0.0
220
-0.0000000000000002
230
-1.0
 50
270.0
 51
338.4424036881883922
  0
ARC
  5
3D14
  8
0
  6
CONTINUOUS
 62
     3
 10
-44.9240392719524522
 20
127.5
 30
0.0
 40
7.5000000000000222
210
0.0
220
-0.0000000000000002
230
-1.0
 50
201.5575963118116078
 51
269.9999999999998863
  0
LINE
  5
3D15
  8
0
  6
CONTINUOUS
 62
     3
 10
42.0277708421291365
 20
119.5246935157822037
 30
-0.0000000000000265
 11
-42.0277708421291365
 21
119.5246935157822037
 31
-0.0000000000000265
210
0.0
220
1.0
230
-0.0000000000000002
  0
LINE
  5
3D16
  8
0
  6
CONTINUOUS
 62
     3
 10
35.8875793553185076
 20
0.0
 30
0.0
 11
-35.8875793553185076
 21
0.0
 31
0.0
210
0.0
220
1.0
230
-0.0000000000000002
  0
LINE
  5
3D17
  8
0
  6
CONTINUOUS
 62
     3
 10
-37.0417186840303998
 20
103.498097293322104
 30
-0.000000000000023
 11
-42.0277708421290868
 21
119.5246935157822037
 31
-0.0000000000000265
210
0.0
220
1.0
230
-0.0000000000000002
  0
LINE
  5
3D18
  8
0
  6
CONTINUOUS
 62
     3
 10
37.0417186840304069
 20
103.498097293322104
 30
-0.000000000000023
 11
42.0277708421290868
 21
119.5246935157822037
 31
-0.0000000000000265
210
0.0
220
1.0
230
-0.0000000000000002
  0
LINE
  5
3D19
  8
0
  6
CONTINUOUS
 62
     3
 10
40.4999999999999929
 20
120.000000000000199
 30
-0.0000000000000266
 11
42.0277708421291365
 21
119.5246935157822037
 31
-0.0000000000000265
210
0.0
220
1.0
230
-0.0000000000000002
  0
LINE
  5
3D1A
  8
0
  6
CONTINUOUS
 62
     3
 10
-40.4999999999999929
 20
120.000000000000199
 30
-0.0000000000000266
 11
-42.0277708421291365
 21
119.5246935157822037
 31
-0.0000000000000265
210
0.0
220
1.0
230
-0.0000000000000002
  0
ARC
  5
3D1B
  8
0
  6
CONTINUOUS
 62
     3
 10
-48.5000000000019327
 20
99.9332986616874308
 30
0.0
 40
12.0000000000019291
210
0.0
220
-0.0000000000000002
230
-1.0
 50
0.0
 51
17.2814983718133988
  0
ARC
  5
3D1C
  8
0
  6
CONTINUOUS
 62
     3
 10
48.5000000000016271
 20
99.9332986616874308
 30
0.0
 40
12.0000000000016307
210
0.0
220
-0.0000000000000002
230
-1.0
 50
162.7185016281866865
 51
180.0000000000005116
  0
LINE
  5
3D1D
  8
0
  6
CONTINUOUS
 62
     3
 10
-35.8875793553184792
 20
0.0000000000000031
 30
0.0
 11
-36.5000000000001492
 21
7.0000000000030731
 31
-0.0000000000000016
210
0.0
220
1.0
230
-0.0000000000000002
  0
LINE
  5
3D1E
  8
0
  6
CONTINUOUS
 62
     3
 10
35.8875793553184792
 20
0.0000000000000031
 30
0.0
 11
36.5000000000001492
 21
7.0000000000030731
 31
-0.0000000000000016
210
0.0
220
1.0
230
-0.0000000000000002
  0
LINE
  5
3D1F
  8
0
  6
CONTINUOUS
 62
     3
 10
-36.5000000000001066
 20
7.0000000000030713
 30
-0.0000000000000016
 11
-36.5000000000001066
 21
99.9332986616873029
 31
-0.0000000000000222
210
0.0
220
1.0
230
-0.0000000000000002
  0
LINE
  5
3D20
  8
0
  6
CONTINUOUS
 62
     3
 10
36.5000000000001066
 20
7.0000000000030713
 30
-0.0000000000000016
 11
36.5000000000001066
 21
99.9332986616873029
 31
-0.0000000000000222
210
0.0
220
1.0
230
-0.0000000000000002
  0
LINE
  5
3D21
  8
0
  6
VERDECKT
 62
     1
 10
-4.0606601717798378
 20
146.0
 30
-0.0000000000000324
 11
-0.0000000000000169
 21
146.0
 31
-0.0000000000000324
210
0.0
220
1.0
230
-0.0000000000000002
  0
LINE
  5
3D22
  8
0
  6
VERDECKT
 62
     1
 10
-0.0000000000000163
 20
146.0
 30
-0.0000000000000324
 11
4.0606601717798094
 21
146.0
 31
-0.0000000000000324
210
0.0
220
1.0
230
-0.0000000000000002
  0
LINE
  5
3D23
  8
0
  6
VERDECKT
 62
     1
 10
-3.0000000000000582
 20
147.0606601717798014
 30
-0.0000000000000327
 11
-0.0000000000000169
 21
147.0606601717798014
 31
-0.0000000000000327
210
0.0
220
1.0
230
-0.0000000000000002
  0
LINE
  5
3D24
  8
0
  6
VERDECKT
 62
     1
 10
-0.000000000000016
 20
147.0606601717798014
 30
-0.0000000000000327
 11
3.0000000000000249
 21
147.0606601717798014
 31
-0.0000000000000327
210
0.0
220
1.0
230
-0.0000000000000002
  0
LINE
  5
3D25
  8
0
  6
VERDECKT
 62
     1
 10
-94.0606601717798156
 20
146.0
 30
-0.0000000000000324
 11
-85.9393398282201701
 21
146.0
 31
-0.0000000000000324
210
0.0
220
1.0
230
-0.0000000000000002
  0
LINE
  5
3D26
  8
0
  6
VERDECKT
 62
     1
 10
-93.0000000000000426
 20
147.0606601717798014
 30
-0.0000000000000327
 11
-86.9999999999999432
 21
147.0606601717798014
 31
-0.0000000000000327
210
0.0
220
1.0
230
-0.0000000000000002
  0
LINE
  5
3D27
  8
0
  6
VERDECKT
 62
     1
 10
85.9393398282201701
 20
146.0
 30
-0.0000000000000324
 11
94.0606601717798156
 21
146.0
 31
-0.0000000000000324
210
0.0
220
1.0
230
-0.0000000000000002
  0
LINE
  5
3D28
  8
0
  6
VERDECKT
 62
     1
 10
86.9999999999999432
 20
147.0606601717798014
 30
-0.0000000000000327
 11
93.0000000000000426
 21
147.0606601717798014
 31
-0.0000000000000327
210
0.0
220
1.0
230
-0.0000000000000002
  0
LINE
  5
3D29
  8
0
  6
VERDECKT
 62
     1
 10
-44.9240392719524522
 20
121.5
 30
-0.000000000000027
 11
44.9240392719524735
 21
121.5
 31
-0.000000000000027
210
0.0
220
1.0
230
-0.0000000000000002
  0
LINE
  5
3D2A
  8
0
  6
VERDECKT
 62
     1
 10
-106.5277563916411054
 20
148.5
 30
-0.000000000000033
 11
106.5277563916411054
 21
148.5
 31
-0.000000000000033
210
0.0
220
1.0
230
-0.0000000000000002
  0
ARC
  5
3D2B
  8
0
  6
VERDECKT
 62
     1
 10
7.1819805153394762
 20
147.0
 30
0.0
 40
1.5
210
0.0
220
-0.0000000000000002
230
-1.0
 50
89.9999999999999432
 51
134.9999999999994031
  0
ARC
  5
3D2C
  8
0
  6
VERDECKT
 62
     1
 10
-7.1819805153394398
 20
147.0
 30
0.0
 40
1.499999999999974
210
0.0
220
-0.0000000000000002
230
-1.0
 50
44.9999999999999076
 51
90.0000000000001137
  0
LINE
  5
3D2D
  8
0
  6
VERDECKT
 62
     1
 10
-4.0606601717798396
 20
146.0
 30
-0.0000000000000324
 11
-6.1213203435596606
 21
148.0606601717798014
 31
-0.0000000000000329
210
0.0
220
1.0
230
-0.0000000000000002
  0
LINE
  5
3D2E
  8
0
  6
VERDECKT
 62
     1
 10
4.0606601717798059
 20
146.0
 30
-0.0000000000000324
 11
6.1213203435596268
 21
148.0606601717798014
 31
-0.0000000000000329
210
0.0
220
1.0
230
-0.0000000000000002
  0
LINE
  5
3D2F
  8
0
  6
VERDECKT
 62
     1
 10
3.0000000000000249
 20
147.0606601717798014
 30
-0.0000000000000327
 11
4.0606601717798192
 21
146.0
 31
-0.0000000000000324
210
0.0
220
1.0
230
-0.0000000000000002
  0
LINE
  5
3D30
  8
0
  6
VERDECKT
 62
     1
 10
-3.0000000000000582
 20
147.0606601717798014
 30
-0.0000000000000327
 11
-4.0606601717798521
 21
146.0
 31
-0.0000000000000324
210
0.0
220
1.0
230
-0.0000000000000002
  0
LINE
  5
3D31
  8
0
  6
VERDECKT
 62
     1
 10
-3.0000000000000742
 20
147.0606601717798014
 30
-0.0000000000000327
 11
-5.0606601717799231
 21
149.1213203435596881
 31
-0.0000000000000331
210
0.0
220
1.0
230
-0.0000000000000002
  0
LINE
  5
3D32
  8
0
  6
VERDECKT
 62
     1
 10
3.00000000000004
 20
147.0606601717798014
 30
-0.0000000000000327
 11
5.0606601717798902
 21
149.1213203435596881
 31
-0.0000000000000331
210
0.0
220
1.0
230
-0.0000000000000002
  0
ARC
  5
3D33
  8
0
  6
VERDECKT
 62
     1
 10
7.1819805153395473
 20
147.0
 30
0.0
 40
3.0
210
0.0
220
-0.0000000000000002
230
-1.0
 50
89.9999999999999858
 51
134.9999999999994884
  0
ARC
  5
3D34
  8
0
  6
VERDECKT
 62
     1
 10
-7.1819805153395118
 20
147.0
 30
0.0
 40
2.9999999999999991
210
0.0
220
-0.0000000000000002
230
-1.0
 50
45.0000000000004832
 51
90.0000000000000568
  0
ARC
  5
3D35
  8
0
  6
VERDECKT
 62
     1
 10
97.1819805153394611
 20
147.0000000000001137
 30
0.0
 40
1.4999999999999141
210
0.0
220
-0.0000000000000002
230
-1.0
 50
89.99999999999946
 51
135.0000000000011084
  0
ARC
  5
3D36
  8
0
  6
VERDECKT
 62
     1
 10
82.8180194846605531
 20
147.0000000000001137
 30
0.0
 40
1.499999999999921
210
0.0
220
-0.0000000000000002
230
-1.0
 50
44.9999999999988631
 51
90.0000000000005542
  0
LINE
  5
3D37
  8
0
  6
VERDECKT
 62
     1
 10
-94.0606601717798156
 20
146.0
 30
-0.0000000000000324
 11
-96.1213203435596455
 21
148.0606601717798014
 31
-0.0000000000000329
210
0.0
220
1.0
230
-0.0000000000000002
  0
LINE
  5
3D38
  8
0
  6
VERDECKT
 62
     1
 10
-85.9393398282201701
 20
146.0
 30
-0.0000000000000324
 11
-83.8786796564403545
 21
148.0606601717798014
 31
-0.0000000000000329
210
0.0
220
1.0
230
-0.0000000000000002
  0
LINE
  5
3D39
  8
0
  6
VERDECKT
 62
     1
 10
-86.9999999999999289
 20
147.0606601717798014
 30
-0.0000000000000327
 11
-85.9393398282201701
 21
146.0
 31
-0.0000000000000324
210
0.0
220
1.0
230
-0.0000000000000002
  0
LINE
  5
3D3A
  8
0
  6
VERDECKT
 62
     1
 10
-93.0000000000000426
 20
147.0606601717798014
 30
-0.0000000000000327
 11
-94.0606601717798156
 21
146.0
 31
-0.0000000000000324
210
0.0
220
1.0
230
-0.0000000000000002
  0
LINE
  5
3D3B
  8
0
  6
VERDECKT
 62
     1
 10
-93.0000000000000426
 20
147.0606601717798014
 30
-0.0000000000000327
 11
-95.0606601717798867
 21
149.1213203435596029
 31
-0.0000000000000331
210
0.0
220
1.0
230
-0.0000000000000002
  0
LINE
  5
3D3C
  8
0
  6
VERDECKT
 62
     1
 10
-86.9999999999999289
 20
147.0606601717798014
 30
-0.0000000000000327
 11
-84.9393398282201133
 21
149.1213203435596029
 31
-0.0000000000000331
210
0.0
220
1.0
230
-0.0000000000000002
  0
ARC
  5
3D3D
  8
0
  6
VERDECKT
 62
     1
 10
97.1819805153395038
 20
147.0000000000001137
 30
0.0
 40
2.9999999999998859
210
0.0
220
-0.0000000000000002
230
-1.0
 50
89.99999999999946
 51
135.0000000000013074
  0
ARC
  5
3D3E
  8
0
  6
VERDECKT
 62
     1
 10
82.8180194846604536
 20
146.9999999999998863
 30
0.0
 40
3.0000000000000839
210
0.0
220
-0.0000000000000002
230
-1.0
 50
45.0000000000011511
 51
89.9999999999994458
  0
ARC
  5
3D3F
  8
0
  6
VERDECKT
 62
     1
 10
-82.8180194846605531
 20
147.0000000000001137
 30
0.0
 40
1.4999999999999141
210
0.0
220
-0.0000000000000002
230
-1.0
 50
89.99999999999946
 51
135.0000000000011084
  0
ARC
  5
3D40
  8
0
  6
VERDECKT
 62
     1
 10
-97.1819805153394611
 20
147.0000000000001137
 30
0.0
 40
1.499999999999921
210
0.0
220
-0.0000000000000002
230
-1.0
 50
44.9999999999988631
 51
90.0000000000005542
  0
LINE
  5
3D41
  8
0
  6
VERDECKT
 62
     1
 10
85.9393398282201701
 20
146.0
 30
-0.0000000000000324
 11
83.8786796564403545
 21
148.0606601717798014
 31
-0.0000000000000329
210
0.0
220
1.0
230
-0.0000000000000002
  0
LINE
  5
3D42
  8
0
  6
VERDECKT
 62
     1
 10
94.0606601717798156
 20
146.0
 30
-0.0000000000000324
 11
96.1213203435596455
 21
148.0606601717798014
 31
-0.0000000000000329
210
0.0
220
1.0
230
-0.0000000000000002
  0
LINE
  5
3D43
  8
0
  6
VERDECKT
 62
     1
 10
93.0000000000000426
 20
147.0606601717798014
 30
-0.0000000000000327
 11
94.0606601717798156
 21
146.0
 31
-0.0000000000000324
210
0.0
220
1.0
230
-0.0000000000000002
  0
LINE
  5
3D44
  8
0
  6
VERDECKT
 62
     1
 10
86.9999999999999289
 20
147.0606601717798014
 30
-0.0000000000000327
 11
85.9393398282201701
 21
146.0
 31
-0.0000000000000324
210
0.0
220
1.0
230
-0.0000000000000002
  0
LINE
  5
3D45
  8
0
  6
VERDECKT
 62
     1
 10
86.9999999999999289
 20
147.0606601717798014
 30
-0.0000000000000327
 11
84.9393398282201133
 21
149.1213203435596029
 31
-0.0000000000000331
210
0.0
220
1.0
230
-0.0000000000000002
  0
LINE
  5
3D46
  8
0
  6
VERDECKT
 62
     1
 10
93.0000000000000426
 20
147.0606601717798014
 30
-0.0000000000000327
 11
95.0606601717798867
 21
149.1213203435596029
 31
-0.0000000000000331
210
0.0
220
1.0
230
-0.0000000000000002
  0
ARC
  5
3D47
  8
0
  6
VERDECKT
 62
     1
 10
-82.8180194846604536
 20
146.9999999999998863
 30
0.0
 40
3.0000000000000848
210
0.0
220
-0.0000000000000002
230
-1.0
 50
90.0000000000005542
 51
134.9999999999988063
  0
ARC
  5
3D48
  8
0
  6
VERDECKT
 62
     1
 10
-97.1819805153395038
 20
147.0000000000001137
 30
0.0
 40
2.999999999999893
210
0.0
220
-0.0000000000000002
230
-1.0
 50
44.9999999999986429
 51
90.0000000000005542
  0
LINE
  5
3D49
  8
0
  6
VERDECKT
 62
     1
 10
40.5
 20
121.5
 30
-0.000000000000027
 11
40.5
 21
120.0
 31
-0.0000000000000266
210
0.0
220
1.0
230
-0.0000000000000002
  0
LINE
  5
3D4A
  8
0
  6
VERDECKT
 62
     1
 10
-40.5
 20
121.5
 30
-0.000000000000027
 11
-40.5
 21
120.0
 31
-0.0000000000000266
210
0.0
220
1.0
230
-0.0000000000000002
  0
ARC
  5
3D4B
  8
0
  6
VERDECKT
 62
     1
 10
44.9240392719524806
 20
127.5
 30
0.0
 40
5.9999999999999849
210
0.0
220
-0.0000000000000002
230
-1.0
 50
269.9999999999997726
 51
338.4424036881882785
  0
ARC
  5
3D4C
  8
0
  6
VERDECKT
 62
     1
 10
-44.9240392719524593
 20
127.5
 30
0.0
 40
6.0000000000000133
210
0.0
220
-0.0000000000000002
230
-1.0
 50
201.5575963118116078
 51
269.9999999999998863
  0
ARC
  5
3D4D
  8
0
  6
VERDECKT
 62
     1
 10
30.0432604829184413
 20
133.3789814280899861
 30
0.0
 40
21.9999999999997407
210
0.0
220
-0.0000000000000002
230
-1.0
 50
338.4424036881882785
 51
11.2049919799216209
  0
ARC
  5
3D4E
  8
0
  6
VERDECKT
 62
     1
 10
-30.0432604829182104
 20
133.3789814280899861
 30
0.0
 40
21.9999999999999716
210
0.0
220
-0.0000000000000002
230
-1.0
 50
168.7950080200785123
 51
201.5575963118114942
  0
ARC
  5
3D4F
  8
0
  6
VERDECKT
 62
     1
 10
57.9999999999999929
 20
138.9170962313453117
 30
0.0
 40
6.499999999999992
210
0.0
220
-0.0000000000000002
230
-1.0
 50
120.0
 51
191.2049919799214024
  0
ARC
  5
3D50
  8
0
  6
VERDECKT
 62
     1
 10
-57.9999999999999929
 20
138.9170962313453117
 30
0.0
 40
6.4999999999999867
210
0.0
220
-0.0000000000000002
230
-1.0
 50
348.795008020078626
 51
59.9999999999999929
  0
LINE
  5
3D51
  8
0
  6
VERDECKT
 62
     1
 10
-54.7499999999999929
 20
144.5462613559440967
 30
-0.0000000000000321
 11
-63.4999999999999929
 21
149.5980762113532876
 31
-0.0000000000000332
210
0.0
220
1.0
230
-0.0000000000000002
  0
LINE
  5
3D52
  8
0
  6
VERDECKT
 62
     1
 10
54.7499999999999929
 20
144.5462613559440967
 30
-0.0000000000000321
 11
63.4999999999999929
 21
149.5980762113532876
 31
-0.0000000000000332
210
0.0
220
1.0
230
-0.0000000000000002
  0
ARC
  5
3D53
  8
0
  6
VERDECKT
 62
     1
 10
65.0000000000000426
 20
146.9999999999998863
 30
0.0
 40
3.0000000000001421
210
0.0
220
-0.0000000000000002
230
-1.0
 50
90.00000000000081
 51
119.9999999999993037
  0
ARC
  5
3D54
  8
0
  6
VERDECKT
 62
     1
 10
-65.0000000000000426
 20
146.9999999999998863
 30
0.0
 40
3.000000000000143
210
0.0
220
-0.0000000000000002
230
-1.0
 50
60.0000000000006466
 51
89.9999999999992042
  0
LINE
  5
3D55
  8
0
  6
VERDECKT
 62
     1
 10
107.1616837842521051
 20
148.3594616805550004
 30
-0.0000000000000329
 11
114.3660726073889009
 21
145.0
 31
-0.0000000000000322
210
0.0
220
1.0
230
-0.0000000000000002
  0
LINE
  5
3D56
  8
0
  6
VERDECKT
 62
     1
 10
-107.1616837842521051
 20
148.3594616805550004
 30
-0.0000000000000329
 11
-114.3660726073889009
 21
145.0
 31
-0.0000000000000322
210
0.0
220
1.0
230
-0.0000000000000002
  0
ARC
  5
3D57
  8
0
  6
VERDECKT
 62
     1
 10
106.5277563916411054
 20
147.0000000000001137
 30
0.0
 40
1.499999999999942
210
0.0
220
-0.0000000000000002
230
-1.0
 50
64.9999999999992752
 51
89.9999999999994742
  0
ARC
  5
3D58
  8
0
  6
VERDECKT
 62
     1
 10
-106.5277563916411054
 20
147.0
 30
0.0
 40
1.4999999999999709
210
0.0
220
-0.0000000000000002
230
-1.0
 50
90.0000000000005542
 51
115.0000000000006963
  0
ARC
  5
3D59
  8
0
  6
VERDECKT
 62
     1
 10
64.9999999999999432
 20
147.0
 30
0.0
 40
1.4999999999999709
210
0.0
220
-0.0000000000000002
230
-1.0
 50
89.9999999999989342
 51
119.9999999999980957
  0
ARC
  5
3D5A
  8
0
  6
VERDECKT
 62
     1
 10
-64.9999999999999005
 20
147.0000000000003979
 30
0.0
 40
1.4999999999996301
210
0.0
220
-0.0000000000000002
230
-1.0
 50
59.9999999999962412
 51
90.0000000000027285
  0
LINE
  5
3D5B
  8
0
  6
VERDECKT
 62
     1
 10
-58.5358983848622216
 20
145.0
 30
-0.0000000000000322
 11
-64.25
 21
148.2990381056766864
 31
-0.0000000000000329
210
0.0
220
1.0
230
-0.0000000000000002
  0
LINE
  5
3D5C
  8
0
  6
VERDECKT
 62
     1
 10
58.5358983848622216
 20
145.0
 30
-0.0000000000000322
 11
64.25
 21
148.2990381056766864
 31
-0.0000000000000329
210
0.0
220
1.0
230
-0.0000000000000002
  0
LINE
  5
3D5D
  8
0
  6
VERDECKT
 62
     1
 10
34.2936678383716682
 20
0.1394491883962701
 30
0.0
 11
-34.2936678383716682
 21
0.1394491883962701
 31
0.0
210
0.0
220
1.0
230
-0.0000000000000002
  0
LINE
  5
3D5E
  8
0
  6
VERDECKT
 62
     1
 10
-35.5139478419014267
 20
103.9734037775403976
 30
-0.0000000000000231
 11
-40.4999999999999929
 21
120.000000000000199
 31
-0.0000000000000266
210
0.0
220
1.0
230
-0.0000000000000002
  0
LINE
  5
3D5F
  8
0
  6
VERDECKT
 62
     1
 10
35.5139478419014267
 20
103.9734037775403976
 30
-0.0000000000000231
 11
40.4999999999999929
 21
120.000000000000199
 31
-0.0000000000000266
210
0.0
220
1.0
230
-0.0000000000000002
  0
ARC
  5
3D60
  8
0
  6
VERDECKT
 62
     1
 10
-48.5000000000014211
 20
99.9332986616865213
 30
0.0
 40
13.6000000000015504
210
0.0
220
-0.0000000000000002
230
-1.0
 50
0.0000000000032951
 51
17.2814983718188984
  0
ARC
  5
3D61
  8
0
  6
VERDECKT
 62
     1
 10
48.5000000000015632
 20
99.9332986616865071
 30
0.0
 40
13.6000000000016996
210
0.0
220
-0.0000000000000002
230
-1.0
 50
162.7185016281812011
 51
179.9999999999965894
  0
LINE
  5
3D62
  8
0
  6
VERDECKT
 62
     1
 10
-34.9000000000000909
 20
7.069857508654537
 30
-0.0000000000000016
 11
-34.9000000000000909
 21
99.9332986616873029
 31
-0.0000000000000222
210
0.0
220
1.0
230
-0.0000000000000002
  0
LINE
  5
3D63
  8
0
  6
VERDECKT
 62
     1
 10
34.9000000000000909
 20
7.069857508654537
 30
-0.0000000000000016
 11
34.9000000000000909
 21
99.9332986616873029
 31
-0.0000000000000222
210
0.0
220
1.0
230
-0.0000000000000002
  0
LINE
  5
3D64
  8
0
  6
VERDECKT
 62
     1
 10
-34.2936678383717108
 20
0.139449188396267
 30
0.0
 11
-34.9000000000000625
 21
7.0698575086545361
 31
-0.0000000000000016
210
0.0
220
1.0
230
-0.0000000000000002
  0
LINE
  5
3D65
  8
0
  6
VERDECKT
 62
     1
 10
34.2936678383717108
 20
0.139449188396267
 30
0.0
 11
34.9000000000000625
 21
7.0698575086545361
 31
-0.0000000000000016
210
0.0
220
1.0
230
-0.0000000000000002
  0
LINE
  5
3D66
  8
0
  6
VERDECKT
 62
     1
 10
34.2936678383716682
 20
0.1394491883962701
 30
0.0
 11
35.8875793553185076
 21
0.0
 31
0.0
210
0.0
220
1.0
230
-0.0000000000000002
  0
LINE
  5
3D67
  8
0
  6
VERDECKT
 62
     1
 10
-34.2936678383716682
 20
0.1394491883962701
 30
0.0
 11
-35.8875793553185076
 21
0.0
 31
0.0
210
0.0
220
1.0
230
-0.0000000000000002
  0
ENDBLK
  5
3D69
  8
0
  0
ENDSEC
  0
SECTION
  2
ENTITIES
  0
TEXT
  5
8F
  8
VOLL
 10
78.076754716981128
 20
31.025947764705851
 30
0.0
 40
1.8
  1

  7
GREEKS
  0
INSERT
  5
1AAA
  8
ADSK_ASSOC_ENTITY_BACKUPS
  2
*S0
 10
0.0
 20
0.0
 30
0.0
  0
INSERT
  5
3D00
  8
STEMPEL
  2
A$C404700DB
 10
0.0
 20
-165.0
 30
0.0
  0
INSERT
  5
3D6A
  8
STEMPEL
  2
A$CCE2075B5
 10
0.0
 20
0.0
 30
0.0
  0
VIEWPORT
  5
2443
 67
     1
  8
0
 10
145.4834015015688919
 20
205.716051222050595
 30
0.0
 40
790.2674510967764263
 41
422.1483375959078899
 68
     1
 69
     1
1001
ACAD
1000
MVIEW
1002
{
1070
    16
1010
0.0
1020
0.0
1030
0.0
1010
0.0
1020
0.0
1030
1.0
1040
0.0
1040
422.1483375959078899
1040
145.4834015015688919
1040
205.716051222050595
1040
50.0
1040
0.0
1040
0.0
1070
     0
1070
  1500
1070
     1
1070
     1
1070
     0
1070
     0
1070
     0
1070
     0
1040
0.0
1040
0.0
1040
0.0
1040
10.0
1040
10.0
1040
10.0
1040
10.0
1070
     0
1002
{
1002
}
1002
}
  0
ENDSEC
  0
EOF
