  0
SECTION
  2
HEADER
  9
$ACADVER
  1
AC1009
  9
$INSBASE
 10
0.0
 20
0.0
 30
0.0
  9
$EXTMIN
 10
796.27779370034159
 20
179.1925421392163003
 30
0.0000000000000915
  9
$EXTMAX
 10
912.27779370034159
 20
337.1319981734084195
 30
0.0000000000001199
  9
$LIMMIN
 10
0.0
 20
0.0
  9
$LIMMAX
 10
210.0
 20
297.0
  9
$ORTHOMODE
 70
     1
  9
$REGENMODE
 70
     1
  9
$FILLMODE
 70
     1
  9
$QTEXTMODE
 70
     0
  9
$MIRRTEXT
 70
     1
  9
$DRAGMODE
 70
     2
  9
$LTSCALE
 40
10.0
  9
$OSMODE
 70
  2495
  9
$ATTMODE
 70
     1
  9
$TEXTSIZE
 40
3.5
  9
$TRACEWID
 40
0.5
  9
$TEXTSTYLE
  7
STANDARD
  9
$CLAYER
  8
STEMPEL
  9
$CELTYPE
  6
BYLAYER
  9
$CECOLOR
 62
   256
  9
$DIMSCALE
 40
1.0
  9
$DIMASZ
 40
3.5
  9
$DIMEXO
 40
1.0
  9
$DIMDLI
 40
7.0
  9
$DIMRND
 40
0.0
  9
$DIMDLE
 40
0.0
  9
$DIMEXE
 40
1.0
  9
$DIMTP
 40
0.0
  9
$DIMTM
 40
0.0
  9
$DIMTXT
 40
3.5
  9
$DIMCEN
 40
1.5
  9
$DIMTSZ
 40
0.0
  9
$DIMTOL
 70
     0
  9
$DIMLIM
 70
     0
  9
$DIMTIH
 70
     0
  9
$DIMTOH
 70
     0
  9
$DIMSE1
 70
     0
  9
$DIMSE2
 70
     0
  9
$DIMTAD
 70
     1
  9
$DIMZIN
 70
     8
  9
$DIMBLK
  1

  9
$DIMASO
 70
     1
  9
$DIMSHO
 70
     0
  9
$DIMPOST
  1

  9
$DIMAPOST
  1

  9
$DIMALT
 70
     0
  9
$DIMALTD
 70
     2
  9
$DIMALTF
 40
25.3999999999999986
  9
$DIMLFAC
 40
1.0
  9
$DIMTOFL
 70
     1
  9
$DIMTVP
 40
0.0
  9
$DIMTIX
 70
     0
  9
$DIMSOXD
 70
     0
  9
$DIMSAH
 70
     0
  9
$DIMBLK1
  1

  9
$DIMBLK2
  1

  9
$DIMSTYLE
  2
STANDARD
  9
$DIMCLRD
 70
     0
  9
$DIMCLRE
 70
     0
  9
$DIMCLRT
 70
     1
  9
$DIMTFAC
 40
0.5
  9
$DIMGAP
 40
1.5
  9
$LUNITS
 70
     2
  9
$LUPREC
 70
     2
  9
$SKETCHINC
 40
1.0
  9
$FILLETRAD
 40
0.0
  9
$AUNITS
 70
     0
  9
$AUPREC
 70
     0
  9
$MENU
  1
ACAD
  9
$ELEVATION
 40
0.0
  9
$PELEVATION
 40
0.0
  9
$THICKNESS
 40
0.0
  9
$LIMCHECK
 70
     0
  9
$BLIPMODE
 70
     0
  9
$CHAMFERA
 40
0.0
  9
$CHAMFERB
 40
0.0
  9
$SKPOLY
 70
     0
  9
$TDCREATE
 40
2455397.8646990740671754
  9
$TDUPDATE
 40
2458963.4339699069969356
  9
$TDINDWG
 40
0.0870063889
  9
$TDUSRTIMER
 40
0.0870063889
  9
$USRTIMER
 70
     1
  9
$ANGBASE
 50
0.0
  9
$ANGDIR
 70
     0
  9
$PDMODE
 70
     0
  9
$PDSIZE
 40
0.0
  9
$PLINEWID
 40
0.0
  9
$COORDS
 70
     1
  9
$SPLFRAME
 70
     0
  9
$SPLINETYPE
 70
     6
  9
$SPLINESEGS
 70
     8
  9
$ATTDIA
 70
     1
  9
$ATTREQ
 70
     1
  9
$HANDLING
 70
     1
  9
$HANDSEED
  5
209F
  9
$SURFTAB1
 70
     6
  9
$SURFTAB2
 70
     6
  9
$SURFTYPE
 70
     6
  9
$SURFU
 70
     6
  9
$SURFV
 70
     6
  9
$UCSNAME
  2

  9
$UCSORG
 10
0.0
 20
0.0
 30
0.0
  9
$UCSXDIR
 10
1.0
 20
0.0
 30
0.0
  9
$UCSYDIR
 10
0.0
 20
1.0
 30
0.0
  9
$PUCSNAME
  2

  9
$PUCSORG
 10
0.0
 20
0.0
 30
0.0
  9
$PUCSXDIR
 10
1.0
 20
0.0
 30
0.0
  9
$PUCSYDIR
 10
0.0
 20
1.0
 30
0.0
  9
$USERI1
 70
     0
  9
$USERI2
 70
     0
  9
$USERI3
 70
     0
  9
$USERI4
 70
     0
  9
$USERI5
 70
     0
  9
$USERR1
 40
0.0
  9
$USERR2
 40
0.0
  9
$USERR3
 40
0.0
  9
$USERR4
 40
0.0
  9
$USERR5
 40
0.0
  9
$WORLDVIEW
 70
     1
  9
$SHADEDGE
 70
     3
  9
$SHADEDIF
 70
    70
  9
$TILEMODE
 70
     1
  9
$MAXACTVP
 70
    16
  9
$PLIMCHECK
 70
     0
  9
$PEXTMIN
 10
-103.1184944921698019
 20
-52.5371197944235675
 30
-0.000000000013845
  9
$PEXTMAX
 10
106.9007304084376955
 20
306.3986643269960268
 30
0.000000000013845
  9
$PLIMMIN
 10
-103.1088839977478955
 20
9.3822327149625835
  9
$PLIMMAX
 10
106.8911160022521045
 20
306.3822327149625835
  9
$UNITMODE
 70
     0
  9
$VISRETAIN
 70
     0
  9
$PLINEGEN
 70
     0
  9
$PSLTSCALE
 70
     0
  0
ENDSEC
  0
SECTION
  2
TABLES
  0
TABLE
  2
VPORT
 70
     1
  0
VPORT
  2
*ACTIVE
 70
     0
 10
0.0
 20
0.0
 11
1.0
 21
1.0
 12
-1.8927664349789519
 22
-50.4711878745603499
 13
0.0
 23
0.0
 14
1.0
 24
1.0
 15
10.0
 25
10.0
 16
-0.0000000000001137
 26
0.0
 36
528.5270566085946484
 17
856.1705601353205566
 27
308.6334580308728164
 37
-15.2548017368646498
 40
159.0689396291921867
 41
1.785202863961814
 42
50.0
 43
0.0
 44
0.0
 50
0.0
 51
0.0
 71
     0
 72
  1500
 73
     1
 74
     0
 75
     0
 76
     0
 77
     0
 78
     0
  0
ENDTAB
  0
TABLE
  2
LTYPE
 70
     8
  0
LTYPE
  2
CONTINUOUS
 70
     0
  3
Solid line
 72
    65
 73
     0
 40
0.0
  0
LTYPE
  2
PHANTOM2
 70
     0
  3
Phantom (.5x) ___ _ _ ___ _ _ ___ _ _ ___ _ _
 72
    65
 73
     6
 40
1.25
 49
0.625
 49
-0.125
 49
0.125
 49
-0.125
 49
0.125
 49
-0.125
  0
LTYPE
  2
AUSGEZOGEN
 70
     0
  3
Ausgezogene Linie
 72
    65
 73
     0
 40
0.0
  0
LTYPE
  2
VERDECKT
 70
     0
  3
Verdeckt __ __ __ __ __ __ __ __ __ __ __ __ __
 72
    65
 73
     2
 40
0.375
 49
0.25
 49
-0.125
  0
ENDTAB
  0
TABLE
  2
LAYER
 70
    15
  0
LAYER
  2
0
 70
     0
 62
     7
  6
CONTINUOUS
  0
LAYER
  2
VOLL
 70
     0
 62
     1
  6
CONTINUOUS
  0
LAYER
  2
STEMPEL
 70
     0
 62
     3
  6
CONTINUOUS
  0
LAYER
  2
DEFPOINTS
 70
     0
 62
     7
  6
AUSGEZOGEN
  0
LAYER
  2
ADSK_ASSOC_ENTITY_BACKUPS
 70
     1
 62
    -7
  6
CONTINUOUS
  0
ENDTAB
  0
TABLE
  2
STYLE
 70
     4
  0
STYLE
  2
STANDARD
 70
     0
 40
0.0
 41
0.8
 50
0.0
 71
     0
 42
3.5
  3
simplex.shx
  4

  0
STYLE
  2
GREEKS
 70
     0
 40
0.0
 41
0.8
 50
0.0
 71
     0
 42
2.5
  3
SIMPLEX.shx
  4

  0
ENDTAB
  0
TABLE
  2
VIEW
 70
     1
  0
ENDTAB
  0
TABLE
  2
UCS
 70
     0
  0
ENDTAB
  0
TABLE
  2
APPID
 70
    18
  0
APPID
  2
ACAD
 70
     0
  0
APPID
  2
ACAD_NAV_VCDISPLAY
 70
     0
  0
APPID
  2
ACAD_MLEADERVER
 70
     0
  0
APPID
  2
ACAD_EXEMPT_FROM_CAD_STANDARDS
 70
     0
  0
APPID
  2
ACAD_PSEXT
 70
     0
  0
APPID
  2
ACAECLAYERSTANDARD
 70
     0
  0
APPID
  2
ACAUTHENVIRON
 70
     0
  0
APPID
  2
ACCMTRANSPARENCY
 70
     0
  0
APPID
  2
ACSYNERGY
 70
     0
  0
APPID
  2
SYNERGY_BODY_TBR_ID
 70
     0
  0
APPID
  2
ACAD_VIEW_EDGE_ID
 70
     0
  0
APPID
  2
ACAD_DIMASSOC_CALC_DIMLFAC
 70
     0
  0
APPID
  2
ACAD_DIMASSOC_DIMLFAC
 70
     0
  0
APPID
  2
ACAD_DIMASSOC_OVERRIDDEN_D
 70
     0
  0
APPID
  2
ACAD_DSTYLE_DIMRADIAL_EXTENSION
 70
     0
  0
APPID
  2
ACAD_MODELDOC_XFORM
 70
     0
  0
APPID
  2
ACSYNERGYSKETCH
 70
     0
  0
APPID
  2
AcDbAttr
 70
     0
  0
ENDTAB
  0
TABLE
  2
DIMSTYLE
 70
     3
  0
DIMSTYLE
  2
STANDARD
 70
     0
  3

  4

  5

  6

  7

 40
1.0
 41
0.18
 42
0.0625
 43
0.38
 44
0.18
 45
0.0
 46
0.0
 47
0.0
 48
0.0
140
0.18
141
0.09
142
0.0
143
25.3999999999999986
144
1.0
145
0.0
146
1.0
147
0.09
 71
     0
 72
     0
 73
     1
 74
     1
 75
     0
 76
     0
 77
     0
 78
     0
170
     0
171
     2
172
     0
173
     0
174
     0
175
     0
176
     0
177
     0
178
     0
  0
ENDTAB
  0
ENDSEC
  0
SECTION
  2
BLOCKS
  0
BLOCK
  8
0
  2
$MODEL_SPACE
 70
     0
 10
0.0
 20
0.0
 30
0.0
  3
$MODEL_SPACE
  1

  0
ENDBLK
  5
36
  8
0
  0
BLOCK
 67
     1
  8
0
  2
$PAPER_SPACE
 70
     0
 10
0.0
 20
0.0
 30
0.0
  3
$PAPER_SPACE
  1

  0
ENDBLK
  5
34
 67
     1
  8
0
  0
BLOCK
  8
0
  2
*S4
 70
     1
 10
0.0
 20
0.0
 30
0.0
  3
*S4
  1

  0
ENDBLK
  5
98E
  8
0
  0
BLOCK
  8
0
  2
A$C76F4C268
 70
     0
 10
0.0
 20
0.0
 30
0.0
  3
A$C76F4C268
  1

  0
ARC
  5
130A
  8
0
  6
CONTINUOUS
 10
383.9518841463564058
 20
173.3949771872595988
 30
0.0000000000001066
 40
51.2500000000783871
 50
358.9148675811215981
 51
359.9999999999980105
  0
ARC
  5
130B
  8
0
  6
CONTINUOUS
 10
383.9518841464347929
 20
173.3949771873014924
 30
0.0000000000001066
 40
51.250000000043741
 50
268.9148675811229054
 51
271.0851324188769809
  0
ARC
  5
130C
  8
0
  6
CONTINUOUS
 10
383.9518841463200829
 20
173.3949771872578083
 30
0.0000000000001066
 40
51.24999999988529
 50
178.9148675811196085
 51
181.0851324188803915
  0
ARC
  5
130D
  8
0
  6
CONTINUOUS
 10
383.9518841464347929
 20
173.3949771872140104
 30
0.0000000000001066
 40
51.250000000043741
 50
88.9148675811229339
 51
91.0851324188770661
  0
ARC
  5
130E
  8
0
  6
CONTINUOUS
 10
383.9518841463458898
 20
173.394977187255904
 30
0.0000000000001066
 40
51.2500000000889031
 50
0.000000000002061
 51
1.085132418878259
  0
CIRCLE
  5
130F
  8
0
  6
CONTINUOUS
 10
383.9518841464347929
 20
122.3949771872577941
 30
0.0000000000001048
 40
1.0
  0
CIRCLE
  5
1310
  8
0
  6
CONTINUOUS
 10
383.9518841464347929
 20
122.3949771872577941
 30
0.0000000000001057
 40
1.999999999999964
  0
CIRCLE
  5
1311
  8
0
  6
CONTINUOUS
 10
383.9518841464347929
 20
224.3949771872578083
 30
0.0000000000001048
 40
1.0
  0
CIRCLE
  5
1312
  8
0
  6
CONTINUOUS
 10
383.9518841464347929
 20
224.3949771872578083
 30
0.0000000000001057
 40
1.999999999999978
  0
CIRCLE
  5
1313
  8
0
  6
CONTINUOUS
 10
332.9518841464349066
 20
173.3949771872578083
 30
0.0000000000000924
 40
1.0
  0
CIRCLE
  5
1314
  8
0
  6
CONTINUOUS
 10
332.9518841464349066
 20
173.3949771872578083
 30
0.0000000000000915
 40
1.9999999999999709
  0
CIRCLE
  5
1315
  8
0
  6
CONTINUOUS
 10
434.9518841464346792
 20
173.3949771872578083
 30
0.000000000000119
 40
1.0
  0
CIRCLE
  5
1316
  8
0
  6
CONTINUOUS
 10
434.9518841464346792
 20
173.3949771872578083
 30
0.0000000000001199
 40
1.9999999999999709
  0
CIRCLE
  5
1317
  8
0
  6
CONTINUOUS
 10
383.9518841464347929
 20
173.3949771872578083
 30
0.0000000000001048
 40
38.5000000000000568
  0
CIRCLE
  5
1318
  8
0
  6
CONTINUOUS
 10
383.9518841464347929
 20
173.3949771872578083
 30
0.0000000000001057
 40
45.0500000000000114
  0
CIRCLE
  5
1319
  8
0
  6
CONTINUOUS
 10
383.9518841464347929
 20
173.3949771872578083
 30
0.0000000000001057
 40
58.0
  0
ARC
  5
131A
  8
0
  6
VERDECKT
 62
     1
 10
383.9518841464346792
 20
173.3949771872578083
 30
0.0000000000001066
 40
51.2500000000000426
 50
271.0851324188781177
 51
358.914867581121996
  0
ARC
  5
131B
  8
0
  6
VERDECKT
 62
     1
 10
383.9518841464347929
 20
173.3949771872578083
 30
0.0000000000001066
 40
51.2500000000000924
 50
181.085132418878004
 51
268.9148675811218823
  0
ARC
  5
131C
  8
0
  6
VERDECKT
 62
     1
 10
383.9518841464347929
 20
173.3949771872578083
 30
0.0000000000001066
 40
51.2499999999999929
 50
91.0851324188779046
 51
178.914867581121996
  0
ARC
  5
131D
  8
0
  6
VERDECKT
 62
     1
 10
383.9518841464347929
 20
173.3949771872578083
 30
0.0000000000001066
 40
51.2499999999999503
 50
1.0851324188780549
 51
88.9148675811220244
  0
CIRCLE
  5
131E
  8
0
  6
VERDECKT
 62
     1
 10
383.9518841464347929
 20
173.3949771872578083
 30
0.0000000000001066
 40
48.25
  0
CIRCLE
  5
131F
  8
0
  6
VERDECKT
 62
     1
 10
383.9518841464347929
 20
173.3949771872578083
 30
0.0000000000001048
 40
55.0000000000000568
  0
CIRCLE
  5
1320
  8
0
  6
VERDECKT
 62
     1
 10
383.9518841464347929
 20
173.3949771872578083
 30
0.0000000000001066
 40
45.1078431234055302
  0
CIRCLE
  5
1321
  8
0
  6
VERDECKT
 62
     1
 10
383.9518841464347929
 20
173.3949771872578083
 30
0.0000000000001066
 40
44.2499999999999929
  0
CIRCLE
  5
1322
  8
0
  6
VERDECKT
 62
     1
 10
383.9518841464347929
 20
173.3949771872578083
 30
0.0000000000001066
 40
40.4999999999999929
  0
CIRCLE
  5
1323
  8
0
  6
VERDECKT
 62
     1
 10
383.9518841464347929
 20
173.3949771872578083
 30
0.0000000000001048
 40
45.25
  0
ENDBLK
  5
1325
  8
0
  0
BLOCK
  8
0
  2
A$CCD990472
 70
     0
 10
0.0
 20
0.0
 30
0.0
  3
A$CCD990472
  1

  0
ARC
  5
1329
  8
0
  6
CONTINUOUS
 10
-431.7018841464347929
 20
-27.1084217888325512
 30
0.0
 40
3.5
210
0.0
220
-0.0000000000000002
230
-1.0
 50
90.0
 51
270.0
  0
ARC
  5
132A
  8
0
  6
CONTINUOUS
 10
-336.2018841464347929
 20
-27.1084217888325512
 30
0.0
 40
3.5
210
0.0
220
-0.0000000000000002
230
-1.0
 50
270.0
 51
89.9999999999999858
  0
LINE
  5
132B
  8
0
  6
CONTINUOUS
 10
431.7018841464347929
 20
-23.6084217888325512
 30
0.0000000000000052
 11
336.2018841464347929
 21
-23.6084217888325512
 31
0.0000000000000052
210
0.0
220
1.0
230
-0.0000000000000002
  0
LINE
  5
132C
  8
0
  6
CONTINUOUS
 10
336.2018841464347929
 20
-30.6084217888325512
 30
0.0000000000000068
 11
431.7018841464347929
 21
-30.6084217888325512
 31
0.0000000000000068
210
0.0
220
1.0
230
-0.0000000000000002
  0
POLYLINE
  8
0
  5
13D1
  66
     1
 10
0.000000
 20
0.000000
 30
0.000000
  70
     8
  0
VERTEX
  8
0
  5
13D2
 10
383.952
 20
-15.0773
 30
3.30000e-15
  70
    32
  0
VERTEX
  8
0
  5
13D3
 10
383.945
 20
-15.0773
 30
3.30000e-15
  70
    32
  0
VERTEX
  8
0
  5
13D4
 10
383.938
 20
-15.0772
 30
3.30000e-15
  70
    32
  0
VERTEX
  8
0
  5
13D5
 10
383.931
 20
-15.0770
 30
3.30000e-15
  70
    32
  0
VERTEX
  8
0
  5
13D6
 10
383.924
 20
-15.0767
 30
3.30000e-15
  70
    32
  0
VERTEX
  8
0
  5
13D7
 10
383.918
 20
-15.0763
 30
3.30000e-15
  70
    32
  0
VERTEX
  8
0
  5
13D8
 10
383.911
 20
-15.0758
 30
3.30000e-15
  70
    32
  0
VERTEX
  8
0
  5
13D9
 10
383.904
 20
-15.0753
 30
3.30000e-15
  70
    32
  0
VERTEX
  8
0
  5
13DA
 10
383.897
 20
-15.0747
 30
3.30000e-15
  70
    32
  0
VERTEX
  8
0
  5
13DB
 10
383.890
 20
-15.0740
 30
3.30000e-15
  70
    32
  0
VERTEX
  8
0
  5
13DC
 10
383.883
 20
-15.0732
 30
3.30000e-15
  70
    32
  0
VERTEX
  8
0
  5
13DD
 10
383.877
 20
-15.0723
 30
3.30000e-15
  70
    32
  0
VERTEX
  8
0
  5
13DE
 10
383.870
 20
-15.0714
 30
3.30000e-15
  70
    32
  0
VERTEX
  8
0
  5
13DF
 10
383.863
 20
-15.0704
 30
3.30000e-15
  70
    32
  0
VERTEX
  8
0
  5
13E0
 10
383.857
 20
-15.0693
 30
3.30000e-15
  70
    32
  0
VERTEX
  8
0
  5
13E1
 10
383.850
 20
-15.0681
 30
3.30000e-15
  70
    32
  0
VERTEX
  8
0
  5
13E2
 10
383.843
 20
-15.0668
 30
3.30000e-15
  70
    32
  0
VERTEX
  8
0
  5
13E3
 10
383.836
 20
-15.0655
 30
3.30000e-15
  70
    32
  0
VERTEX
  8
0
  5
13E4
 10
383.830
 20
-15.0641
 30
3.30000e-15
  70
    32
  0
VERTEX
  8
0
  5
13E5
 10
383.823
 20
-15.0626
 30
3.30000e-15
  70
    32
  0
VERTEX
  8
0
  5
13E6
 10
383.817
 20
-15.0611
 30
3.30000e-15
  70
    32
  0
VERTEX
  8
0
  5
13E7
 10
383.810
 20
-15.0595
 30
3.30000e-15
  70
    32
  0
VERTEX
  8
0
  5
13E8
 10
383.803
 20
-15.0578
 30
3.30000e-15
  70
    32
  0
VERTEX
  8
0
  5
13E9
 10
383.797
 20
-15.0560
 30
3.30000e-15
  70
    32
  0
VERTEX
  8
0
  5
13EA
 10
383.790
 20
-15.0541
 30
3.30000e-15
  70
    32
  0
VERTEX
  8
0
  5
13EB
 10
383.784
 20
-15.0522
 30
3.30000e-15
  70
    32
  0
VERTEX
  8
0
  5
13EC
 10
383.777
 20
-15.0502
 30
3.30000e-15
  70
    32
  0
VERTEX
  8
0
  5
13ED
 10
383.771
 20
-15.0482
 30
3.30000e-15
  70
    32
  0
VERTEX
  8
0
  5
13EE
 10
383.764
 20
-15.0460
 30
3.30000e-15
  70
    32
  0
VERTEX
  8
0
  5
13EF
 10
383.758
 20
-15.0438
 30
3.30000e-15
  70
    32
  0
VERTEX
  8
0
  5
13F0
 10
383.752
 20
-15.0416
 30
3.30000e-15
  70
    32
  0
VERTEX
  8
0
  5
13F1
 10
383.745
 20
-15.0392
 30
3.30000e-15
  70
    32
  0
VERTEX
  8
0
  5
13F2
 10
383.739
 20
-15.0368
 30
3.30000e-15
  70
    32
  0
VERTEX
  8
0
  5
13F3
 10
383.733
 20
-15.0344
 30
3.30000e-15
  70
    32
  0
VERTEX
  8
0
  5
13F4
 10
383.726
 20
-15.0318
 30
3.30000e-15
  70
    32
  0
VERTEX
  8
0
  5
13F5
 10
383.720
 20
-15.0292
 30
3.30000e-15
  70
    32
  0
VERTEX
  8
0
  5
13F6
 10
383.714
 20
-15.0265
 30
3.30000e-15
  70
    32
  0
VERTEX
  8
0
  5
13F7
 10
383.708
 20
-15.0238
 30
3.30000e-15
  70
    32
  0
VERTEX
  8
0
  5
13F8
 10
383.701
 20
-15.0210
 30
3.30000e-15
  70
    32
  0
VERTEX
  8
0
  5
13F9
 10
383.695
 20
-15.0182
 30
3.30000e-15
  70
    32
  0
VERTEX
  8
0
  5
13FA
 10
383.689
 20
-15.0153
 30
3.30000e-15
  70
    32
  0
VERTEX
  8
0
  5
13FB
 10
383.683
 20
-15.0123
 30
3.30000e-15
  70
    32
  0
VERTEX
  8
0
  5
13FC
 10
383.677
 20
-15.0093
 30
3.30000e-15
  70
    32
  0
VERTEX
  8
0
  5
13FD
 10
383.671
 20
-15.0062
 30
3.30000e-15
  70
    32
  0
VERTEX
  8
0
  5
13FE
 10
383.665
 20
-15.0030
 30
3.30000e-15
  70
    32
  0
VERTEX
  8
0
  5
13FF
 10
383.659
 20
-14.9998
 30
3.30000e-15
  70
    32
  0
VERTEX
  8
0
  5
1400
 10
383.653
 20
-14.9965
 30
3.30000e-15
  70
    32
  0
VERTEX
  8
0
  5
1401
 10
383.647
 20
-14.9932
 30
3.30000e-15
  70
    32
  0
VERTEX
  8
0
  5
1402
 10
383.641
 20
-14.9898
 30
3.30000e-15
  70
    32
  0
VERTEX
  8
0
  5
1403
 10
383.635
 20
-14.9864
 30
3.30000e-15
  70
    32
  0
VERTEX
  8
0
  5
1404
 10
383.629
 20
-14.9829
 30
3.30000e-15
  70
    32
  0
VERTEX
  8
0
  5
1405
 10
383.623
 20
-14.9794
 30
3.30000e-15
  70
    32
  0
VERTEX
  8
0
  5
1406
 10
383.618
 20
-14.9758
 30
3.30000e-15
  70
    32
  0
VERTEX
  8
0
  5
1407
 10
383.612
 20
-14.9722
 30
3.30000e-15
  70
    32
  0
VERTEX
  8
0
  5
1408
 10
383.606
 20
-14.9685
 30
3.30000e-15
  70
    32
  0
VERTEX
  8
0
  5
1409
 10
383.601
 20
-14.9648
 30
3.30000e-15
  70
    32
  0
VERTEX
  8
0
  5
140A
 10
383.595
 20
-14.9610
 30
3.30000e-15
  70
    32
  0
VERTEX
  8
0
  5
140B
 10
383.589
 20
-14.9571
 30
3.29999e-15
  70
    32
  0
VERTEX
  8
0
  5
140C
 10
383.584
 20
-14.9533
 30
3.29998e-15
  70
    32
  0
VERTEX
  8
0
  5
140D
 10
383.578
 20
-14.9493
 30
3.29997e-15
  70
    32
  0
VERTEX
  8
0
  5
140E
 10
383.573
 20
-14.9454
 30
3.29995e-15
  70
    32
  0
VERTEX
  8
0
  5
140F
 10
383.567
 20
-14.9413
 30
3.29992e-15
  70
    32
  0
VERTEX
  8
0
  5
1410
 10
383.562
 20
-14.9373
 30
3.29988e-15
  70
    32
  0
VERTEX
  8
0
  5
1411
 10
383.556
 20
-14.9332
 30
3.29983e-15
  70
    32
  0
VERTEX
  8
0
  5
1412
 10
383.551
 20
-14.9290
 30
3.29977e-15
  70
    32
  0
VERTEX
  8
0
  5
1413
 10
383.545
 20
-14.9249
 30
3.29970e-15
  70
    32
  0
VERTEX
  8
0
  5
1414
 10
383.540
 20
-14.9206
 30
3.29962e-15
  70
    32
  0
VERTEX
  8
0
  5
1415
 10
383.535
 20
-14.9164
 30
3.29951e-15
  70
    32
  0
VERTEX
  8
0
  5
1416
 10
383.530
 20
-14.9121
 30
3.29940e-15
  70
    32
  0
VERTEX
  8
0
  5
1417
 10
383.524
 20
-14.9077
 30
3.29926e-15
  70
    32
  0
VERTEX
  8
0
  5
1418
 10
383.519
 20
-14.9034
 30
3.29910e-15
  70
    32
  0
VERTEX
  8
0
  5
1419
 10
383.514
 20
-14.8990
 30
3.29893e-15
  70
    32
  0
VERTEX
  8
0
  5
141A
 10
383.509
 20
-14.8945
 30
3.29873e-15
  70
    32
  0
VERTEX
  8
0
  5
141B
 10
383.504
 20
-14.8901
 30
3.29851e-15
  70
    32
  0
VERTEX
  8
0
  5
141C
 10
383.499
 20
-14.8855
 30
3.29827e-15
  70
    32
  0
VERTEX
  8
0
  5
141D
 10
383.494
 20
-14.8810
 30
3.29800e-15
  70
    32
  0
VERTEX
  8
0
  5
141E
 10
383.489
 20
-14.8764
 30
3.29770e-15
  70
    32
  0
VERTEX
  8
0
  5
141F
 10
383.484
 20
-14.8719
 30
3.29738e-15
  70
    32
  0
VERTEX
  8
0
  5
1420
 10
383.479
 20
-14.8672
 30
3.29703e-15
  70
    32
  0
VERTEX
  8
0
  5
1421
 10
383.474
 20
-14.8626
 30
3.29664e-15
  70
    32
  0
VERTEX
  8
0
  5
1422
 10
383.469
 20
-14.8579
 30
3.29623e-15
  70
    32
  0
VERTEX
  8
0
  5
1423
 10
383.464
 20
-14.8532
 30
3.29578e-15
  70
    32
  0
VERTEX
  8
0
  5
1424
 10
383.460
 20
-14.8485
 30
3.29530e-15
  70
    32
  0
VERTEX
  8
0
  5
1425
 10
383.455
 20
-14.8437
 30
3.29478e-15
  70
    32
  0
VERTEX
  8
0
  5
1426
 10
383.450
 20
-14.8390
 30
3.29423e-15
  70
    32
  0
VERTEX
  8
0
  5
1427
 10
383.445
 20
-14.8342
 30
3.29364e-15
  70
    32
  0
VERTEX
  8
0
  5
1428
 10
383.441
 20
-14.8294
 30
3.29301e-15
  70
    32
  0
VERTEX
  8
0
  5
1429
 10
383.436
 20
-14.8245
 30
3.29234e-15
  70
    32
  0
VERTEX
  8
0
  5
142A
 10
383.432
 20
-14.8197
 30
3.29163e-15
  70
    32
  0
VERTEX
  8
0
  5
142B
 10
383.427
 20
-14.8148
 30
3.29088e-15
  70
    32
  0
VERTEX
  8
0
  5
142C
 10
383.423
 20
-14.8099
 30
3.29008e-15
  70
    32
  0
VERTEX
  8
0
  5
142D
 10
383.418
 20
-14.8050
 30
3.28923e-15
  70
    32
  0
VERTEX
  8
0
  5
142E
 10
383.414
 20
-14.8001
 30
3.28834e-15
  70
    32
  0
VERTEX
  8
0
  5
142F
 10
383.409
 20
-14.7952
 30
3.28741e-15
  70
    32
  0
VERTEX
  8
0
  5
1430
 10
383.405
 20
-14.7902
 30
3.28642e-15
  70
    32
  0
VERTEX
  8
0
  5
1431
 10
383.401
 20
-14.7853
 30
3.28538e-15
  70
    32
  0
VERTEX
  8
0
  5
1432
 10
383.397
 20
-14.7803
 30
3.28429e-15
  70
    32
  0
VERTEX
  8
0
  5
1433
 10
383.392
 20
-14.7754
 30
3.28315e-15
  70
    32
  0
VERTEX
  8
0
  5
1434
 10
383.388
 20
-14.7704
 30
3.28196e-15
  70
    32
  0
VERTEX
  8
0
  5
1435
 10
383.384
 20
-14.7654
 30
3.28071e-15
  70
    32
  0
VERTEX
  8
0
  5
1436
 10
383.380
 20
-14.7604
 30
3.27940e-15
  70
    32
  0
VERTEX
  8
0
  5
1437
 10
383.376
 20
-14.7554
 30
3.27804e-15
  70
    32
  0
VERTEX
  8
0
  5
1438
 10
383.372
 20
-14.7504
 30
3.27661e-15
  70
    32
  0
VERTEX
  8
0
  5
1439
 10
383.368
 20
-14.7454
 30
3.27513e-15
  70
    32
  0
VERTEX
  8
0
  5
143A
 10
383.364
 20
-14.7404
 30
3.27359e-15
  70
    32
  0
VERTEX
  8
0
  5
143B
 10
383.360
 20
-14.7354
 30
3.27198e-15
  70
    32
  0
VERTEX
  8
0
  5
143C
 10
383.356
 20
-14.7303
 30
3.27031e-15
  70
    32
  0
VERTEX
  8
0
  5
143D
 10
383.352
 20
-14.7253
 30
3.26857e-15
  70
    32
  0
VERTEX
  8
0
  5
143E
 10
383.349
 20
-14.7203
 30
3.26678e-15
  70
    32
  0
VERTEX
  8
0
  5
143F
 10
383.345
 20
-14.7153
 30
3.26501e-15
  70
    32
  0
VERTEX
  8
0
  5
1440
 10
383.341
 20
-14.7102
 30
3.26328e-15
  70
    32
  0
VERTEX
  8
0
  5
1441
 10
383.337
 20
-14.7052
 30
3.26157e-15
  70
    32
  0
VERTEX
  8
0
  5
1442
 10
383.334
 20
-14.7001
 30
3.25990e-15
  70
    32
  0
VERTEX
  8
0
  5
1443
 10
383.330
 20
-14.6950
 30
3.25825e-15
  70
    32
  0
VERTEX
  8
0
  5
1444
 10
383.326
 20
-14.6898
 30
3.25664e-15
  70
    32
  0
VERTEX
  8
0
  5
1445
 10
383.323
 20
-14.6847
 30
3.25505e-15
  70
    32
  0
VERTEX
  8
0
  5
1446
 10
383.319
 20
-14.6795
 30
3.25349e-15
  70
    32
  0
VERTEX
  8
0
  5
1447
 10
383.315
 20
-14.6744
 30
3.25196e-15
  70
    32
  0
VERTEX
  8
0
  5
1448
 10
383.312
 20
-14.6692
 30
3.25046e-15
  70
    32
  0
VERTEX
  8
0
  5
1449
 10
383.308
 20
-14.6640
 30
3.24898e-15
  70
    32
  0
VERTEX
  8
0
  5
144A
 10
383.305
 20
-14.6587
 30
3.24753e-15
  70
    32
  0
VERTEX
  8
0
  5
144B
 10
383.301
 20
-14.6535
 30
3.24610e-15
  70
    32
  0
VERTEX
  8
0
  5
144C
 10
383.298
 20
-14.6482
 30
3.24470e-15
  70
    32
  0
VERTEX
  8
0
  5
144D
 10
383.294
 20
-14.6429
 30
3.24333e-15
  70
    32
  0
VERTEX
  8
0
  5
144E
 10
383.291
 20
-14.6376
 30
3.24197e-15
  70
    32
  0
VERTEX
  8
0
  5
144F
 10
383.287
 20
-14.6323
 30
3.24065e-15
  70
    32
  0
VERTEX
  8
0
  5
1450
 10
383.284
 20
-14.6270
 30
3.23934e-15
  70
    32
  0
VERTEX
  8
0
  5
1451
 10
383.281
 20
-14.6217
 30
3.23806e-15
  70
    32
  0
VERTEX
  8
0
  5
1452
 10
383.277
 20
-14.6163
 30
3.23680e-15
  70
    32
  0
VERTEX
  8
0
  5
1453
 10
383.274
 20
-14.6109
 30
3.23556e-15
  70
    32
  0
VERTEX
  8
0
  5
1454
 10
383.271
 20
-14.6055
 30
3.23435e-15
  70
    32
  0
VERTEX
  8
0
  5
1455
 10
383.267
 20
-14.6001
 30
3.23315e-15
  70
    32
  0
VERTEX
  8
0
  5
1456
 10
383.264
 20
-14.5947
 30
3.23198e-15
  70
    32
  0
VERTEX
  8
0
  5
1457
 10
383.261
 20
-14.5893
 30
3.23082e-15
  70
    32
  0
VERTEX
  8
0
  5
1458
 10
383.257
 20
-14.5838
 30
3.22969e-15
  70
    32
  0
VERTEX
  8
0
  5
1459
 10
383.254
 20
-14.5784
 30
3.22857e-15
  70
    32
  0
VERTEX
  8
0
  5
145A
 10
383.251
 20
-14.5729
 30
3.22747e-15
  70
    32
  0
VERTEX
  8
0
  5
145B
 10
383.248
 20
-14.5674
 30
3.22639e-15
  70
    32
  0
VERTEX
  8
0
  5
145C
 10
383.245
 20
-14.5619
 30
3.22532e-15
  70
    32
  0
VERTEX
  8
0
  5
145D
 10
383.242
 20
-14.5563
 30
3.22428e-15
  70
    32
  0
VERTEX
  8
0
  5
145E
 10
383.238
 20
-14.5508
 30
3.22325e-15
  70
    32
  0
VERTEX
  8
0
  5
145F
 10
383.235
 20
-14.5452
 30
3.22223e-15
  70
    32
  0
VERTEX
  8
0
  5
1460
 10
383.232
 20
-14.5397
 30
3.22123e-15
  70
    32
  0
VERTEX
  8
0
  5
1461
 10
383.229
 20
-14.5341
 30
3.22025e-15
  70
    32
  0
VERTEX
  8
0
  5
1462
 10
383.226
 20
-14.5285
 30
3.21928e-15
  70
    32
  0
VERTEX
  8
0
  5
1463
 10
383.223
 20
-14.5229
 30
3.21833e-15
  70
    32
  0
VERTEX
  8
0
  5
1464
 10
383.220
 20
-14.5173
 30
3.21738e-15
  70
    32
  0
VERTEX
  8
0
  5
1465
 10
383.217
 20
-14.5116
 30
3.21645e-15
  70
    32
  0
VERTEX
  8
0
  5
1466
 10
383.214
 20
-14.5060
 30
3.21554e-15
  70
    32
  0
VERTEX
  8
0
  5
1467
 10
383.211
 20
-14.5003
 30
3.21463e-15
  70
    32
  0
VERTEX
  8
0
  5
1468
 10
383.208
 20
-14.4946
 30
3.21374e-15
  70
    32
  0
VERTEX
  8
0
  5
1469
 10
383.205
 20
-14.4889
 30
3.21286e-15
  70
    32
  0
VERTEX
  8
0
  5
146A
 10
383.202
 20
-14.4832
 30
3.21199e-15
  70
    32
  0
VERTEX
  8
0
  5
146B
 10
383.200
 20
-14.4775
 30
3.21112e-15
  70
    32
  0
VERTEX
  8
0
  5
146C
 10
383.197
 20
-14.4718
 30
3.21027e-15
  70
    32
  0
VERTEX
  8
0
  5
146D
 10
383.194
 20
-14.4661
 30
3.20943e-15
  70
    32
  0
VERTEX
  8
0
  5
146E
 10
383.191
 20
-14.4603
 30
3.20859e-15
  70
    32
  0
VERTEX
  8
0
  5
146F
 10
383.188
 20
-14.4545
 30
3.20777e-15
  70
    32
  0
VERTEX
  8
0
  5
1470
 10
383.186
 20
-14.4488
 30
3.20695e-15
  70
    32
  0
VERTEX
  8
0
  5
1471
 10
383.183
 20
-14.4430
 30
3.20614e-15
  70
    32
  0
VERTEX
  8
0
  5
1472
 10
383.180
 20
-14.4372
 30
3.20533e-15
  70
    32
  0
VERTEX
  8
0
  5
1473
 10
383.177
 20
-14.4314
 30
3.20453e-15
  70
    32
  0
VERTEX
  8
0
  5
1474
 10
383.175
 20
-14.4255
 30
3.20374e-15
  70
    32
  0
VERTEX
  8
0
  5
1475
 10
383.172
 20
-14.4197
 30
3.20295e-15
  70
    32
  0
VERTEX
  8
0
  5
1476
 10
383.169
 20
-14.4138
 30
3.20217e-15
  70
    32
  0
VERTEX
  8
0
  5
1477
 10
383.167
 20
-14.4080
 30
3.20139e-15
  70
    32
  0
VERTEX
  8
0
  5
1478
 10
383.164
 20
-14.4021
 30
3.20061e-15
  70
    32
  0
VERTEX
  8
0
  5
1479
 10
383.161
 20
-14.3962
 30
3.19984e-15
  70
    32
  0
VERTEX
  8
0
  5
147A
 10
383.159
 20
-14.3903
 30
3.19907e-15
  70
    32
  0
VERTEX
  8
0
  5
147B
 10
383.156
 20
-14.3844
 30
3.19830e-15
  70
    32
  0
VERTEX
  8
0
  5
147C
 10
383.154
 20
-14.3785
 30
3.19753e-15
  70
    32
  0
VERTEX
  8
0
  5
147D
 10
383.151
 20
-14.3726
 30
3.19677e-15
  70
    32
  0
VERTEX
  8
0
  5
147E
 10
383.149
 20
-14.3667
 30
3.19600e-15
  70
    32
  0
VERTEX
  8
0
  5
147F
 10
383.146
 20
-14.3607
 30
3.19524e-15
  70
    32
  0
VERTEX
  8
0
  5
1480
 10
383.144
 20
-14.3548
 30
3.19448e-15
  70
    32
  0
VERTEX
  8
0
  5
1481
 10
383.141
 20
-14.3488
 30
3.19371e-15
  70
    32
  0
VERTEX
  8
0
  5
1482
 10
383.139
 20
-14.3428
 30
3.19294e-15
  70
    32
  0
VERTEX
  8
0
  5
1483
 10
383.136
 20
-14.3368
 30
3.19218e-15
  70
    32
  0
VERTEX
  8
0
  5
1484
 10
383.134
 20
-14.3308
 30
3.19141e-15
  70
    32
  0
VERTEX
  8
0
  5
1485
 10
383.131
 20
-14.3248
 30
3.19063e-15
  70
    32
  0
VERTEX
  8
0
  5
1486
 10
383.129
 20
-14.3188
 30
3.18986e-15
  70
    32
  0
VERTEX
  8
0
  5
1487
 10
383.127
 20
-14.3128
 30
3.18908e-15
  70
    32
  0
VERTEX
  8
0
  5
1488
 10
383.124
 20
-14.3068
 30
3.18829e-15
  70
    32
  0
VERTEX
  8
0
  5
1489
 10
383.122
 20
-14.3007
 30
3.18750e-15
  70
    32
  0
VERTEX
  8
0
  5
148A
 10
383.120
 20
-14.2947
 30
3.18671e-15
  70
    32
  0
VERTEX
  8
0
  5
148B
 10
383.117
 20
-14.2886
 30
3.18591e-15
  70
    32
  0
VERTEX
  8
0
  5
148C
 10
383.115
 20
-14.2826
 30
3.18510e-15
  70
    32
  0
VERTEX
  8
0
  5
148D
 10
383.113
 20
-14.2765
 30
3.18429e-15
  70
    32
  0
VERTEX
  8
0
  5
148E
 10
383.111
 20
-14.2704
 30
3.18347e-15
  70
    32
  0
VERTEX
  8
0
  5
148F
 10
383.108
 20
-14.2643
 30
3.18264e-15
  70
    32
  0
VERTEX
  8
0
  5
1490
 10
383.106
 20
-14.2582
 30
3.18181e-15
  70
    32
  0
VERTEX
  8
0
  5
1491
 10
383.104
 20
-14.2521
 30
3.18096e-15
  70
    32
  0
VERTEX
  8
0
  5
1492
 10
383.102
 20
-14.2460
 30
3.18011e-15
  70
    32
  0
VERTEX
  8
0
  5
1493
 10
383.100
 20
-14.2399
 30
3.17925e-15
  70
    32
  0
VERTEX
  8
0
  5
1494
 10
383.098
 20
-14.2338
 30
3.17838e-15
  70
    32
  0
VERTEX
  8
0
  5
1495
 10
383.096
 20
-14.2276
 30
3.17749e-15
  70
    32
  0
VERTEX
  8
0
  5
1496
 10
383.093
 20
-14.2215
 30
3.17660e-15
  70
    32
  0
VERTEX
  8
0
  5
1497
 10
383.091
 20
-14.2153
 30
3.17569e-15
  70
    32
  0
VERTEX
  8
0
  5
1498
 10
383.089
 20
-14.2092
 30
3.17478e-15
  70
    32
  0
VERTEX
  8
0
  5
1499
 10
383.087
 20
-14.2030
 30
3.17384e-15
  70
    32
  0
VERTEX
  8
0
  5
149A
 10
383.085
 20
-14.1968
 30
3.17290e-15
  70
    32
  0
VERTEX
  8
0
  5
149B
 10
383.083
 20
-14.1906
 30
3.17194e-15
  70
    32
  0
VERTEX
  8
0
  5
149C
 10
383.081
 20
-14.1845
 30
3.17097e-15
  70
    32
  0
VERTEX
  8
0
  5
149D
 10
383.079
 20
-14.1783
 30
3.16999e-15
  70
    32
  0
VERTEX
  8
0
  5
149E
 10
383.077
 20
-14.1721
 30
3.16899e-15
  70
    32
  0
VERTEX
  8
0
  5
149F
 10
383.075
 20
-14.1659
 30
3.16797e-15
  70
    32
  0
VERTEX
  8
0
  5
14A0
 10
383.073
 20
-14.1597
 30
3.16694e-15
  70
    32
  0
VERTEX
  8
0
  5
14A1
 10
383.071
 20
-14.1534
 30
3.16589e-15
  70
    32
  0
VERTEX
  8
0
  5
14A2
 10
383.070
 20
-14.1472
 30
3.16483e-15
  70
    32
  0
VERTEX
  8
0
  5
14A3
 10
383.068
 20
-14.1410
 30
3.16374e-15
  70
    32
  0
VERTEX
  8
0
  5
14A4
 10
383.066
 20
-14.1348
 30
3.16264e-15
  70
    32
  0
VERTEX
  8
0
  5
14A5
 10
383.064
 20
-14.1285
 30
3.16152e-15
  70
    32
  0
VERTEX
  8
0
  5
14A6
 10
383.062
 20
-14.1223
 30
3.16039e-15
  70
    32
  0
VERTEX
  8
0
  5
14A7
 10
383.060
 20
-14.1160
 30
3.15923e-15
  70
    32
  0
VERTEX
  8
0
  5
14A8
 10
383.058
 20
-14.1098
 30
3.15805e-15
  70
    32
  0
VERTEX
  8
0
  5
14A9
 10
383.057
 20
-14.1035
 30
3.15685e-15
  70
    32
  0
VERTEX
  8
0
  5
14AA
 10
383.055
 20
-14.0973
 30
3.15564e-15
  70
    32
  0
VERTEX
  8
0
  5
14AB
 10
383.053
 20
-14.0910
 30
3.15440e-15
  70
    32
  0
VERTEX
  8
0
  5
14AC
 10
383.051
 20
-14.0847
 30
3.15314e-15
  70
    32
  0
VERTEX
  8
0
  5
14AD
 10
383.050
 20
-14.0784
 30
3.15185e-15
  70
    32
  0
VERTEX
  8
0
  5
14AE
 10
383.048
 20
-14.0722
 30
3.15054e-15
  70
    32
  0
VERTEX
  8
0
  5
14AF
 10
383.046
 20
-14.0659
 30
3.14921e-15
  70
    32
  0
VERTEX
  8
0
  5
14B0
 10
383.045
 20
-14.0596
 30
3.14786e-15
  70
    32
  0
VERTEX
  8
0
  5
14B1
 10
383.043
 20
-14.0533
 30
3.14649e-15
  70
    32
  0
VERTEX
  8
0
  5
14B2
 10
383.041
 20
-14.0470
 30
3.14509e-15
  70
    32
  0
VERTEX
  8
0
  5
14B3
 10
383.040
 20
-14.0407
 30
3.14367e-15
  70
    32
  0
VERTEX
  8
0
  5
14B4
 10
383.038
 20
-14.0344
 30
3.14222e-15
  70
    32
  0
VERTEX
  8
0
  5
14B5
 10
383.036
 20
-14.0281
 30
3.14076e-15
  70
    32
  0
VERTEX
  8
0
  5
14B6
 10
383.035
 20
-14.0218
 30
3.13928e-15
  70
    32
  0
VERTEX
  8
0
  5
14B7
 10
383.033
 20
-14.0155
 30
3.13777e-15
  70
    32
  0
VERTEX
  8
0
  5
14B8
 10
383.032
 20
-14.0091
 30
3.13625e-15
  70
    32
  0
VERTEX
  8
0
  5
14B9
 10
383.030
 20
-14.0028
 30
3.13470e-15
  70
    32
  0
VERTEX
  8
0
  5
14BA
 10
383.029
 20
-13.9965
 30
3.13314e-15
  70
    32
  0
VERTEX
  8
0
  5
14BB
 10
383.027
 20
-13.9902
 30
3.13156e-15
  70
    32
  0
VERTEX
  8
0
  5
14BC
 10
383.026
 20
-13.9838
 30
3.12996e-15
  70
    32
  0
VERTEX
  8
0
  5
14BD
 10
383.024
 20
-13.9775
 30
3.12834e-15
  70
    32
  0
VERTEX
  8
0
  5
14BE
 10
383.023
 20
-13.9712
 30
3.12670e-15
  70
    32
  0
VERTEX
  8
0
  5
14BF
 10
383.021
 20
-13.9648
 30
3.12505e-15
  70
    32
  0
VERTEX
  8
0
  5
14C0
 10
383.020
 20
-13.9585
 30
3.12338e-15
  70
    32
  0
VERTEX
  8
0
  5
14C1
 10
383.019
 20
-13.9522
 30
3.12169e-15
  70
    32
  0
VERTEX
  8
0
  5
14C2
 10
383.017
 20
-13.9458
 30
3.11999e-15
  70
    32
  0
VERTEX
  8
0
  5
14C3
 10
383.016
 20
-13.9395
 30
3.11827e-15
  70
    32
  0
VERTEX
  8
0
  5
14C4
 10
383.014
 20
-13.9331
 30
3.11653e-15
  70
    32
  0
VERTEX
  8
0
  5
14C5
 10
383.013
 20
-13.9268
 30
3.11479e-15
  70
    32
  0
VERTEX
  8
0
  5
14C6
 10
383.012
 20
-13.9204
 30
3.11302e-15
  70
    32
  0
VERTEX
  8
0
  5
14C7
 10
383.010
 20
-13.9141
 30
3.11125e-15
  70
    32
  0
VERTEX
  8
0
  5
14C8
 10
383.009
 20
-13.9077
 30
3.10946e-15
  70
    32
  0
VERTEX
  8
0
  5
14C9
 10
383.008
 20
-13.9014
 30
3.10765e-15
  70
    32
  0
VERTEX
  8
0
  5
14CA
 10
383.007
 20
-13.8950
 30
3.10584e-15
  70
    32
  0
VERTEX
  8
0
  5
14CB
 10
383.005
 20
-13.8887
 30
3.10401e-15
  70
    32
  0
VERTEX
  8
0
  5
14CC
 10
383.004
 20
-13.8823
 30
3.10217e-15
  70
    32
  0
VERTEX
  8
0
  5
14CD
 10
383.003
 20
-13.8760
 30
3.10032e-15
  70
    32
  0
VERTEX
  8
0
  5
14CE
 10
383.002
 20
-13.8696
 30
3.09845e-15
  70
    32
  0
VERTEX
  8
0
  5
14CF
 10
383.001
 20
-13.8632
 30
3.09658e-15
  70
    32
  0
VERTEX
  8
0
  5
14D0
 10
382.999
 20
-13.8569
 30
3.09469e-15
  70
    32
  0
VERTEX
  8
0
  5
14D1
 10
382.998
 20
-13.8505
 30
3.09280e-15
  70
    32
  0
VERTEX
  8
0
  5
14D2
 10
382.997
 20
-13.8442
 30
3.09090e-15
  70
    32
  0
VERTEX
  8
0
  5
14D3
 10
382.996
 20
-13.8378
 30
3.08898e-15
  70
    32
  0
VERTEX
  8
0
  5
14D4
 10
382.995
 20
-13.8315
 30
3.08706e-15
  70
    32
  0
VERTEX
  8
0
  5
14D5
 10
382.994
 20
-13.8251
 30
3.08513e-15
  70
    32
  0
VERTEX
  8
0
  5
14D6
 10
382.993
 20
-13.8187
 30
3.08319e-15
  70
    32
  0
VERTEX
  8
0
  5
14D7
 10
382.992
 20
-13.8124
 30
3.08125e-15
  70
    32
  0
VERTEX
  8
0
  5
14D8
 10
382.991
 20
-13.8060
 30
3.07930e-15
  70
    32
  0
VERTEX
  8
0
  5
14D9
 10
382.990
 20
-13.7997
 30
3.07734e-15
  70
    32
  0
VERTEX
  8
0
  5
14DA
 10
382.989
 20
-13.7933
 30
3.07537e-15
  70
    32
  0
VERTEX
  8
0
  5
14DB
 10
382.988
 20
-13.7870
 30
3.07340e-15
  70
    32
  0
VERTEX
  8
0
  5
14DC
 10
382.987
 20
-13.7806
 30
3.07142e-15
  70
    32
  0
VERTEX
  8
0
  5
14DD
 10
382.986
 20
-13.7743
 30
3.06944e-15
  70
    32
  0
VERTEX
  8
0
  5
14DE
 10
382.985
 20
-13.7679
 30
3.06746e-15
  70
    32
  0
VERTEX
  8
0
  5
14DF
 10
382.984
 20
-13.7616
 30
3.06547e-15
  70
    32
  0
VERTEX
  8
0
  5
14E0
 10
382.983
 20
-13.7552
 30
3.06347e-15
  70
    32
  0
VERTEX
  8
0
  5
14E1
 10
382.982
 20
-13.7489
 30
3.06147e-15
  70
    32
  0
VERTEX
  8
0
  5
14E2
 10
382.981
 20
-13.7426
 30
3.05947e-15
  70
    32
  0
VERTEX
  8
0
  5
14E3
 10
382.980
 20
-13.7362
 30
3.05747e-15
  70
    32
  0
VERTEX
  8
0
  5
14E4
 10
382.979
 20
-13.7299
 30
3.05546e-15
  70
    32
  0
VERTEX
  8
0
  5
14E5
 10
382.978
 20
-13.7236
 30
3.05346e-15
  70
    32
  0
VERTEX
  8
0
  5
14E6
 10
382.977
 20
-13.7172
 30
3.05145e-15
  70
    32
  0
VERTEX
  8
0
  5
14E7
 10
382.977
 20
-13.7109
 30
3.04944e-15
  70
    32
  0
VERTEX
  8
0
  5
14E8
 10
382.976
 20
-13.7046
 30
3.04743e-15
  70
    32
  0
VERTEX
  8
0
  5
14E9
 10
382.975
 20
-13.6982
 30
3.04542e-15
  70
    32
  0
VERTEX
  8
0
  5
14EA
 10
382.974
 20
-13.6919
 30
3.04340e-15
  70
    32
  0
VERTEX
  8
0
  5
14EB
 10
382.973
 20
-13.6856
 30
3.04139e-15
  70
    32
  0
VERTEX
  8
0
  5
14EC
 10
382.973
 20
-13.6793
 30
3.03939e-15
  70
    32
  0
VERTEX
  8
0
  5
14ED
 10
382.972
 20
-13.6730
 30
3.03738e-15
  70
    32
  0
VERTEX
  8
0
  5
14EE
 10
382.971
 20
-13.6667
 30
3.03537e-15
  70
    32
  0
VERTEX
  8
0
  5
14EF
 10
382.970
 20
-13.6604
 30
3.03337e-15
  70
    32
  0
VERTEX
  8
0
  5
14F0
 10
382.970
 20
-13.6541
 30
3.03137e-15
  70
    32
  0
VERTEX
  8
0
  5
14F1
 10
382.969
 20
-13.6478
 30
3.02937e-15
  70
    32
  0
VERTEX
  8
0
  5
14F2
 10
382.968
 20
-13.6415
 30
3.02738e-15
  70
    32
  0
VERTEX
  8
0
  5
14F3
 10
382.968
 20
-13.6352
 30
3.02538e-15
  70
    32
  0
VERTEX
  8
0
  5
14F4
 10
382.967
 20
-13.6289
 30
3.02340e-15
  70
    32
  0
VERTEX
  8
0
  5
14F5
 10
382.966
 20
-13.6226
 30
3.02142e-15
  70
    32
  0
VERTEX
  8
0
  5
14F6
 10
382.966
 20
-13.6164
 30
3.01944e-15
  70
    32
  0
VERTEX
  8
0
  5
14F7
 10
382.965
 20
-13.6101
 30
3.01747e-15
  70
    32
  0
VERTEX
  8
0
  5
14F8
 10
382.965
 20
-13.6038
 30
3.01550e-15
  70
    32
  0
VERTEX
  8
0
  5
14F9
 10
382.964
 20
-13.5976
 30
3.01354e-15
  70
    32
  0
VERTEX
  8
0
  5
14FA
 10
382.964
 20
-13.5913
 30
3.01159e-15
  70
    32
  0
VERTEX
  8
0
  5
14FB
 10
382.963
 20
-13.5851
 30
3.00965e-15
  70
    32
  0
VERTEX
  8
0
  5
14FC
 10
382.962
 20
-13.5788
 30
3.00771e-15
  70
    32
  0
VERTEX
  8
0
  5
14FD
 10
382.962
 20
-13.5726
 30
3.00578e-15
  70
    32
  0
VERTEX
  8
0
  5
14FE
 10
382.961
 20
-13.5664
 30
3.00386e-15
  70
    32
  0
VERTEX
  8
0
  5
14FF
 10
382.961
 20
-13.5601
 30
3.00194e-15
  70
    32
  0
VERTEX
  8
0
  5
1500
 10
382.960
 20
-13.5539
 30
3.00004e-15
  70
    32
  0
VERTEX
  8
0
  5
1501
 10
382.960
 20
-13.5477
 30
2.99814e-15
  70
    32
  0
VERTEX
  8
0
  5
1502
 10
382.960
 20
-13.5415
 30
2.99626e-15
  70
    32
  0
VERTEX
  8
0
  5
1503
 10
382.959
 20
-13.5353
 30
2.99438e-15
  70
    32
  0
VERTEX
  8
0
  5
1504
 10
382.959
 20
-13.5291
 30
2.99252e-15
  70
    32
  0
VERTEX
  8
0
  5
1505
 10
382.958
 20
-13.5229
 30
2.99067e-15
  70
    32
  0
VERTEX
  8
0
  5
1506
 10
382.958
 20
-13.5167
 30
2.98883e-15
  70
    32
  0
VERTEX
  8
0
  5
1507
 10
382.957
 20
-13.5105
 30
2.98700e-15
  70
    32
  0
VERTEX
  8
0
  5
1508
 10
382.957
 20
-13.5043
 30
2.98518e-15
  70
    32
  0
VERTEX
  8
0
  5
1509
 10
382.957
 20
-13.4982
 30
2.98338e-15
  70
    32
  0
VERTEX
  8
0
  5
150A
 10
382.956
 20
-13.4920
 30
2.98159e-15
  70
    32
  0
VERTEX
  8
0
  5
150B
 10
382.956
 20
-13.4859
 30
2.97981e-15
  70
    32
  0
VERTEX
  8
0
  5
150C
 10
382.956
 20
-13.4797
 30
2.97805e-15
  70
    32
  0
VERTEX
  8
0
  5
150D
 10
382.955
 20
-13.4736
 30
2.97630e-15
  70
    32
  0
VERTEX
  8
0
  5
150E
 10
382.955
 20
-13.4675
 30
2.97456e-15
  70
    32
  0
VERTEX
  8
0
  5
150F
 10
382.955
 20
-13.4613
 30
2.97284e-15
  70
    32
  0
VERTEX
  8
0
  5
1510
 10
382.955
 20
-13.4552
 30
2.97114e-15
  70
    32
  0
VERTEX
  8
0
  5
1511
 10
382.954
 20
-13.4491
 30
2.96945e-15
  70
    32
  0
VERTEX
  8
0
  5
1512
 10
382.954
 20
-13.4430
 30
2.96778e-15
  70
    32
  0
VERTEX
  8
0
  5
1513
 10
382.954
 20
-13.4369
 30
2.96613e-15
  70
    32
  0
VERTEX
  8
0
  5
1514
 10
382.954
 20
-13.4308
 30
2.96449e-15
  70
    32
  0
VERTEX
  8
0
  5
1515
 10
382.953
 20
-13.4248
 30
2.96287e-15
  70
    32
  0
VERTEX
  8
0
  5
1516
 10
382.953
 20
-13.4187
 30
2.96127e-15
  70
    32
  0
VERTEX
  8
0
  5
1517
 10
382.953
 20
-13.4126
 30
2.95969e-15
  70
    32
  0
VERTEX
  8
0
  5
1518
 10
382.953
 20
-13.4066
 30
2.95812e-15
  70
    32
  0
VERTEX
  8
0
  5
1519
 10
382.953
 20
-13.4006
 30
2.95658e-15
  70
    32
  0
VERTEX
  8
0
  5
151A
 10
382.953
 20
-13.3945
 30
2.95505e-15
  70
    32
  0
VERTEX
  8
0
  5
151B
 10
382.952
 20
-13.3885
 30
2.95355e-15
  70
    32
  0
VERTEX
  8
0
  5
151C
 10
382.952
 20
-13.3825
 30
2.95206e-15
  70
    32
  0
VERTEX
  8
0
  5
151D
 10
382.952
 20
-13.3765
 30
2.95060e-15
  70
    32
  0
VERTEX
  8
0
  5
151E
 10
382.952
 20
-13.3705
 30
2.94915e-15
  70
    32
  0
VERTEX
  8
0
  5
151F
 10
382.952
 20
-13.3645
 30
2.94773e-15
  70
    32
  0
VERTEX
  8
0
  5
1520
 10
382.952
 20
-13.3585
 30
2.94633e-15
  70
    32
  0
VERTEX
  8
0
  5
1521
 10
382.952
 20
-13.3525
 30
2.94496e-15
  70
    32
  0
VERTEX
  8
0
  5
1522
 10
382.952
 20
-13.3465
 30
2.94362e-15
  70
    32
  0
VERTEX
  8
0
  5
1523
 10
382.952
 20
-13.3405
 30
2.94230e-15
  70
    32
  0
VERTEX
  8
0
  5
1524
 10
382.952
 20
-13.3345
 30
2.94101e-15
  70
    32
  0
VERTEX
  8
0
  5
1525
 10
382.952
 20
-13.3285
 30
2.93974e-15
  70
    32
  0
VERTEX
  8
0
  5
1526
 10
382.952
 20
-13.3224
 30
2.93850e-15
  70
    32
  0
VERTEX
  8
0
  5
1527
 10
382.952
 20
-13.3164
 30
2.93728e-15
  70
    32
  0
VERTEX
  8
0
  5
1528
 10
382.952
 20
-13.3103
 30
2.93608e-15
  70
    32
  0
VERTEX
  8
0
  5
1529
 10
382.952
 20
-13.3043
 30
2.93491e-15
  70
    32
  0
VERTEX
  8
0
  5
152A
 10
382.952
 20
-13.2982
 30
2.93375e-15
  70
    32
  0
VERTEX
  8
0
  5
152B
 10
382.952
 20
-13.2921
 30
2.93262e-15
  70
    32
  0
VERTEX
  8
0
  5
152C
 10
382.952
 20
-13.2860
 30
2.93151e-15
  70
    32
  0
VERTEX
  8
0
  5
152D
 10
382.952
 20
-13.2799
 30
2.93042e-15
  70
    32
  0
VERTEX
  8
0
  5
152E
 10
382.952
 20
-13.2738
 30
2.92935e-15
  70
    32
  0
VERTEX
  8
0
  5
152F
 10
382.953
 20
-13.2676
 30
2.92830e-15
  70
    32
  0
VERTEX
  8
0
  5
1530
 10
382.953
 20
-13.2615
 30
2.92727e-15
  70
    32
  0
VERTEX
  8
0
  5
1531
 10
382.953
 20
-13.2554
 30
2.92625e-15
  70
    32
  0
VERTEX
  8
0
  5
1532
 10
382.953
 20
-13.2492
 30
2.92525e-15
  70
    32
  0
VERTEX
  8
0
  5
1533
 10
382.953
 20
-13.2430
 30
2.92427e-15
  70
    32
  0
VERTEX
  8
0
  5
1534
 10
382.953
 20
-13.2369
 30
2.92331e-15
  70
    32
  0
VERTEX
  8
0
  5
1535
 10
382.954
 20
-13.2307
 30
2.92235e-15
  70
    32
  0
VERTEX
  8
0
  5
1536
 10
382.954
 20
-13.2245
 30
2.92142e-15
  70
    32
  0
VERTEX
  8
0
  5
1537
 10
382.954
 20
-13.2183
 30
2.92050e-15
  70
    32
  0
VERTEX
  8
0
  5
1538
 10
382.954
 20
-13.2121
 30
2.91959e-15
  70
    32
  0
VERTEX
  8
0
  5
1539
 10
382.954
 20
-13.2059
 30
2.91869e-15
  70
    32
  0
VERTEX
  8
0
  5
153A
 10
382.955
 20
-13.1997
 30
2.91781e-15
  70
    32
  0
VERTEX
  8
0
  5
153B
 10
382.955
 20
-13.1935
 30
2.91694e-15
  70
    32
  0
VERTEX
  8
0
  5
153C
 10
382.955
 20
-13.1872
 30
2.91608e-15
  70
    32
  0
VERTEX
  8
0
  5
153D
 10
382.956
 20
-13.1810
 30
2.91522e-15
  70
    32
  0
VERTEX
  8
0
  5
153E
 10
382.956
 20
-13.1747
 30
2.91438e-15
  70
    32
  0
VERTEX
  8
0
  5
153F
 10
382.956
 20
-13.1685
 30
2.91355e-15
  70
    32
  0
VERTEX
  8
0
  5
1540
 10
382.957
 20
-13.1622
 30
2.91273e-15
  70
    32
  0
VERTEX
  8
0
  5
1541
 10
382.957
 20
-13.1560
 30
2.91191e-15
  70
    32
  0
VERTEX
  8
0
  5
1542
 10
382.957
 20
-13.1497
 30
2.91111e-15
  70
    32
  0
VERTEX
  8
0
  5
1543
 10
382.958
 20
-13.1434
 30
2.91031e-15
  70
    32
  0
VERTEX
  8
0
  5
1544
 10
382.958
 20
-13.1371
 30
2.90951e-15
  70
    32
  0
VERTEX
  8
0
  5
1545
 10
382.959
 20
-13.1309
 30
2.90872e-15
  70
    32
  0
VERTEX
  8
0
  5
1546
 10
382.959
 20
-13.1246
 30
2.90794e-15
  70
    32
  0
VERTEX
  8
0
  5
1547
 10
382.959
 20
-13.1183
 30
2.90716e-15
  70
    32
  0
VERTEX
  8
0
  5
1548
 10
382.960
 20
-13.1120
 30
2.90638e-15
  70
    32
  0
VERTEX
  8
0
  5
1549
 10
382.960
 20
-13.1056
 30
2.90561e-15
  70
    32
  0
VERTEX
  8
0
  5
154A
 10
382.961
 20
-13.0993
 30
2.90484e-15
  70
    32
  0
VERTEX
  8
0
  5
154B
 10
382.961
 20
-13.0930
 30
2.90407e-15
  70
    32
  0
VERTEX
  8
0
  5
154C
 10
382.962
 20
-13.0867
 30
2.90330e-15
  70
    32
  0
VERTEX
  8
0
  5
154D
 10
382.962
 20
-13.0804
 30
2.90254e-15
  70
    32
  0
VERTEX
  8
0
  5
154E
 10
382.963
 20
-13.0740
 30
2.90177e-15
  70
    32
  0
VERTEX
  8
0
  5
154F
 10
382.963
 20
-13.0677
 30
2.90101e-15
  70
    32
  0
VERTEX
  8
0
  5
1550
 10
382.964
 20
-13.0613
 30
2.90024e-15
  70
    32
  0
VERTEX
  8
0
  5
1551
 10
382.965
 20
-13.0550
 30
2.89947e-15
  70
    32
  0
VERTEX
  8
0
  5
1552
 10
382.965
 20
-13.0486
 30
2.89870e-15
  70
    32
  0
VERTEX
  8
0
  5
1553
 10
382.966
 20
-13.0423
 30
2.89792e-15
  70
    32
  0
VERTEX
  8
0
  5
1554
 10
382.966
 20
-13.0359
 30
2.89714e-15
  70
    32
  0
VERTEX
  8
0
  5
1555
 10
382.967
 20
-13.0296
 30
2.89636e-15
  70
    32
  0
VERTEX
  8
0
  5
1556
 10
382.968
 20
-13.0232
 30
2.89557e-15
  70
    32
  0
VERTEX
  8
0
  5
1557
 10
382.968
 20
-13.0168
 30
2.89478e-15
  70
    32
  0
VERTEX
  8
0
  5
1558
 10
382.969
 20
-13.0105
 30
2.89398e-15
  70
    32
  0
VERTEX
  8
0
  5
1559
 10
382.970
 20
-13.0041
 30
2.89318e-15
  70
    32
  0
VERTEX
  8
0
  5
155A
 10
382.970
 20
-12.9977
 30
2.89237e-15
  70
    32
  0
VERTEX
  8
0
  5
155B
 10
382.971
 20
-12.9913
 30
2.89155e-15
  70
    32
  0
VERTEX
  8
0
  5
155C
 10
382.972
 20
-12.9849
 30
2.89072e-15
  70
    32
  0
VERTEX
  8
0
  5
155D
 10
382.973
 20
-12.9786
 30
2.88988e-15
  70
    32
  0
VERTEX
  8
0
  5
155E
 10
382.973
 20
-12.9722
 30
2.88903e-15
  70
    32
  0
VERTEX
  8
0
  5
155F
 10
382.974
 20
-12.9658
 30
2.88818e-15
  70
    32
  0
VERTEX
  8
0
  5
1560
 10
382.975
 20
-12.9594
 30
2.88731e-15
  70
    32
  0
VERTEX
  8
0
  5
1561
 10
382.976
 20
-12.9530
 30
2.88643e-15
  70
    32
  0
VERTEX
  8
0
  5
1562
 10
382.977
 20
-12.9466
 30
2.88554e-15
  70
    32
  0
VERTEX
  8
0
  5
1563
 10
382.978
 20
-12.9402
 30
2.88464e-15
  70
    32
  0
VERTEX
  8
0
  5
1564
 10
382.978
 20
-12.9338
 30
2.88372e-15
  70
    32
  0
VERTEX
  8
0
  5
1565
 10
382.979
 20
-12.9274
 30
2.88279e-15
  70
    32
  0
VERTEX
  8
0
  5
1566
 10
382.980
 20
-12.9210
 30
2.88184e-15
  70
    32
  0
VERTEX
  8
0
  5
1567
 10
382.981
 20
-12.9146
 30
2.88088e-15
  70
    32
  0
VERTEX
  8
0
  5
1568
 10
382.982
 20
-12.9082
 30
2.87991e-15
  70
    32
  0
VERTEX
  8
0
  5
1569
 10
382.983
 20
-12.9018
 30
2.87891e-15
  70
    32
  0
VERTEX
  8
0
  5
156A
 10
382.984
 20
-12.8954
 30
2.87791e-15
  70
    32
  0
VERTEX
  8
0
  5
156B
 10
382.985
 20
-12.8890
 30
2.87688e-15
  70
    32
  0
VERTEX
  8
0
  5
156C
 10
382.986
 20
-12.8826
 30
2.87583e-15
  70
    32
  0
VERTEX
  8
0
  5
156D
 10
382.987
 20
-12.8762
 30
2.87477e-15
  70
    32
  0
VERTEX
  8
0
  5
156E
 10
382.988
 20
-12.8698
 30
2.87369e-15
  70
    32
  0
VERTEX
  8
0
  5
156F
 10
382.989
 20
-12.8634
 30
2.87259e-15
  70
    32
  0
VERTEX
  8
0
  5
1570
 10
382.990
 20
-12.8570
 30
2.87146e-15
  70
    32
  0
VERTEX
  8
0
  5
1571
 10
382.991
 20
-12.8505
 30
2.87032e-15
  70
    32
  0
VERTEX
  8
0
  5
1572
 10
382.992
 20
-12.8441
 30
2.86915e-15
  70
    32
  0
VERTEX
  8
0
  5
1573
 10
382.993
 20
-12.8377
 30
2.86797e-15
  70
    32
  0
VERTEX
  8
0
  5
1574
 10
382.994
 20
-12.8313
 30
2.86675e-15
  70
    32
  0
VERTEX
  8
0
  5
1575
 10
382.995
 20
-12.8249
 30
2.86552e-15
  70
    32
  0
VERTEX
  8
0
  5
1576
 10
382.996
 20
-12.8185
 30
2.86426e-15
  70
    32
  0
VERTEX
  8
0
  5
1577
 10
382.998
 20
-12.8121
 30
2.86298e-15
  70
    32
  0
VERTEX
  8
0
  5
1578
 10
382.999
 20
-12.8057
 30
2.86167e-15
  70
    32
  0
VERTEX
  8
0
  5
1579
 10
383.000
 20
-12.7993
 30
2.86034e-15
  70
    32
  0
VERTEX
  8
0
  5
157A
 10
383.001
 20
-12.7930
 30
2.85897e-15
  70
    32
  0
VERTEX
  8
0
  5
157B
 10
383.002
 20
-12.7866
 30
2.85759e-15
  70
    32
  0
VERTEX
  8
0
  5
157C
 10
383.004
 20
-12.7802
 30
2.85617e-15
  70
    32
  0
VERTEX
  8
0
  5
157D
 10
383.005
 20
-12.7738
 30
2.85473e-15
  70
    32
  0
VERTEX
  8
0
  5
157E
 10
383.006
 20
-12.7674
 30
2.85325e-15
  70
    32
  0
VERTEX
  8
0
  5
157F
 10
383.007
 20
-12.7610
 30
2.85175e-15
  70
    32
  0
VERTEX
  8
0
  5
1580
 10
383.009
 20
-12.7546
 30
2.85022e-15
  70
    32
  0
VERTEX
  8
0
  5
1581
 10
383.010
 20
-12.7483
 30
2.84865e-15
  70
    32
  0
VERTEX
  8
0
  5
1582
 10
383.011
 20
-12.7419
 30
2.84706e-15
  70
    32
  0
VERTEX
  8
0
  5
1583
 10
383.013
 20
-12.7355
 30
2.84543e-15
  70
    32
  0
VERTEX
  8
0
  5
1584
 10
383.014
 20
-12.7291
 30
2.84377e-15
  70
    32
  0
VERTEX
  8
0
  5
1585
 10
383.015
 20
-12.7228
 30
2.84209e-15
  70
    32
  0
VERTEX
  8
0
  5
1586
 10
383.017
 20
-12.7164
 30
2.84045e-15
  70
    32
  0
VERTEX
  8
0
  5
1587
 10
383.018
 20
-12.7101
 30
2.83885e-15
  70
    32
  0
VERTEX
  8
0
  5
1588
 10
383.020
 20
-12.7037
 30
2.83729e-15
  70
    32
  0
VERTEX
  8
0
  5
1589
 10
383.021
 20
-12.6974
 30
2.83577e-15
  70
    32
  0
VERTEX
  8
0
  5
158A
 10
383.023
 20
-12.6910
 30
2.83428e-15
  70
    32
  0
VERTEX
  8
0
  5
158B
 10
383.024
 20
-12.6847
 30
2.83282e-15
  70
    32
  0
VERTEX
  8
0
  5
158C
 10
383.026
 20
-12.6783
 30
2.83140e-15
  70
    32
  0
VERTEX
  8
0
  5
158D
 10
383.027
 20
-12.6720
 30
2.83001e-15
  70
    32
  0
VERTEX
  8
0
  5
158E
 10
383.029
 20
-12.6657
 30
2.82864e-15
  70
    32
  0
VERTEX
  8
0
  5
158F
 10
383.030
 20
-12.6593
 30
2.82730e-15
  70
    32
  0
VERTEX
  8
0
  5
1590
 10
383.032
 20
-12.6530
 30
2.82598e-15
  70
    32
  0
VERTEX
  8
0
  5
1591
 10
383.033
 20
-12.6467
 30
2.82469e-15
  70
    32
  0
VERTEX
  8
0
  5
1592
 10
383.035
 20
-12.6404
 30
2.82341e-15
  70
    32
  0
VERTEX
  8
0
  5
1593
 10
383.036
 20
-12.6341
 30
2.82216e-15
  70
    32
  0
VERTEX
  8
0
  5
1594
 10
383.038
 20
-12.6278
 30
2.82092e-15
  70
    32
  0
VERTEX
  8
0
  5
1595
 10
383.040
 20
-12.6215
 30
2.81969e-15
  70
    32
  0
VERTEX
  8
0
  5
1596
 10
383.041
 20
-12.6152
 30
2.81848e-15
  70
    32
  0
VERTEX
  8
0
  5
1597
 10
383.043
 20
-12.6089
 30
2.81727e-15
  70
    32
  0
VERTEX
  8
0
  5
1598
 10
383.045
 20
-12.6026
 30
2.81608e-15
  70
    32
  0
VERTEX
  8
0
  5
1599
 10
383.046
 20
-12.5964
 30
2.81489e-15
  70
    32
  0
VERTEX
  8
0
  5
159A
 10
383.048
 20
-12.5901
 30
2.81370e-15
  70
    32
  0
VERTEX
  8
0
  5
159B
 10
383.050
 20
-12.5838
 30
2.81252e-15
  70
    32
  0
VERTEX
  8
0
  5
159C
 10
383.052
 20
-12.5776
 30
2.81134e-15
  70
    32
  0
VERTEX
  8
0
  5
159D
 10
383.053
 20
-12.5713
 30
2.81016e-15
  70
    32
  0
VERTEX
  8
0
  5
159E
 10
383.055
 20
-12.5651
 30
2.80898e-15
  70
    32
  0
VERTEX
  8
0
  5
159F
 10
383.057
 20
-12.5589
 30
2.80779e-15
  70
    32
  0
VERTEX
  8
0
  5
15A0
 10
383.059
 20
-12.5526
 30
2.80659e-15
  70
    32
  0
VERTEX
  8
0
  5
15A1
 10
383.061
 20
-12.5464
 30
2.80539e-15
  70
    32
  0
VERTEX
  8
0
  5
15A2
 10
383.063
 20
-12.5402
 30
2.80418e-15
  70
    32
  0
VERTEX
  8
0
  5
15A3
 10
383.064
 20
-12.5340
 30
2.80295e-15
  70
    32
  0
VERTEX
  8
0
  5
15A4
 10
383.066
 20
-12.5278
 30
2.80171e-15
  70
    32
  0
VERTEX
  8
0
  5
15A5
 10
383.068
 20
-12.5216
 30
2.80045e-15
  70
    32
  0
VERTEX
  8
0
  5
15A6
 10
383.070
 20
-12.5154
 30
2.79917e-15
  70
    32
  0
VERTEX
  8
0
  5
15A7
 10
383.072
 20
-12.5093
 30
2.79788e-15
  70
    32
  0
VERTEX
  8
0
  5
15A8
 10
383.074
 20
-12.5031
 30
2.79656e-15
  70
    32
  0
VERTEX
  8
0
  5
15A9
 10
383.076
 20
-12.4969
 30
2.79522e-15
  70
    32
  0
VERTEX
  8
0
  5
15AA
 10
383.078
 20
-12.4908
 30
2.79385e-15
  70
    32
  0
VERTEX
  8
0
  5
15AB
 10
383.080
 20
-12.4846
 30
2.79245e-15
  70
    32
  0
VERTEX
  8
0
  5
15AC
 10
383.082
 20
-12.4785
 30
2.79103e-15
  70
    32
  0
VERTEX
  8
0
  5
15AD
 10
383.084
 20
-12.4724
 30
2.78957e-15
  70
    32
  0
VERTEX
  8
0
  5
15AE
 10
383.086
 20
-12.4663
 30
2.78808e-15
  70
    32
  0
VERTEX
  8
0
  5
15AF
 10
383.088
 20
-12.4602
 30
2.78655e-15
  70
    32
  0
VERTEX
  8
0
  5
15B0
 10
383.090
 20
-12.4541
 30
2.78499e-15
  70
    32
  0
VERTEX
  8
0
  5
15B1
 10
383.092
 20
-12.4480
 30
2.78339e-15
  70
    32
  0
VERTEX
  8
0
  5
15B2
 10
383.094
 20
-12.4419
 30
2.78175e-15
  70
    32
  0
VERTEX
  8
0
  5
15B3
 10
383.097
 20
-12.4358
 30
2.78006e-15
  70
    32
  0
VERTEX
  8
0
  5
15B4
 10
383.099
 20
-12.4298
 30
2.77833e-15
  70
    32
  0
VERTEX
  8
0
  5
15B5
 10
383.101
 20
-12.4237
 30
2.77655e-15
  70
    32
  0
VERTEX
  8
0
  5
15B6
 10
383.103
 20
-12.4177
 30
2.77472e-15
  70
    32
  0
VERTEX
  8
0
  5
15B7
 10
383.105
 20
-12.4117
 30
2.77285e-15
  70
    32
  0
VERTEX
  8
0
  5
15B8
 10
383.107
 20
-12.4056
 30
2.77092e-15
  70
    32
  0
VERTEX
  8
0
  5
15B9
 10
383.110
 20
-12.3996
 30
2.76893e-15
  70
    32
  0
VERTEX
  8
0
  5
15BA
 10
383.112
 20
-12.3936
 30
2.76689e-15
  70
    32
  0
VERTEX
  8
0
  5
15BB
 10
383.114
 20
-12.3876
 30
2.76479e-15
  70
    32
  0
VERTEX
  8
0
  5
15BC
 10
383.116
 20
-12.3817
 30
2.76263e-15
  70
    32
  0
VERTEX
  8
0
  5
15BD
 10
383.119
 20
-12.3757
 30
2.76041e-15
  70
    32
  0
VERTEX
  8
0
  5
15BE
 10
383.121
 20
-12.3697
 30
2.75812e-15
  70
    32
  0
VERTEX
  8
0
  5
15BF
 10
383.123
 20
-12.3638
 30
2.75577e-15
  70
    32
  0
VERTEX
  8
0
  5
15C0
 10
383.126
 20
-12.3579
 30
2.75335e-15
  70
    32
  0
VERTEX
  8
0
  5
15C1
 10
383.128
 20
-12.3519
 30
2.75087e-15
  70
    32
  0
VERTEX
  8
0
  5
15C2
 10
383.131
 20
-12.3460
 30
2.74830e-15
  70
    32
  0
VERTEX
  8
0
  5
15C3
 10
383.133
 20
-12.3401
 30
2.74567e-15
  70
    32
  0
VERTEX
  8
0
  5
15C4
 10
383.135
 20
-12.3343
 30
2.74296e-15
  70
    32
  0
VERTEX
  8
0
  5
15C5
 10
383.138
 20
-12.3284
 30
2.74017e-15
  70
    32
  0
VERTEX
  8
0
  5
15C6
 10
383.140
 20
-12.3225
 30
2.73731e-15
  70
    32
  0
VERTEX
  8
0
  5
15C7
 10
383.143
 20
-12.3167
 30
2.73436e-15
  70
    32
  0
VERTEX
  8
0
  5
15C8
 10
383.145
 20
-12.3108
 30
2.73133e-15
  70
    32
  0
VERTEX
  8
0
  5
15C9
 10
383.148
 20
-12.3050
 30
2.72821e-15
  70
    32
  0
VERTEX
  8
0
  5
15CA
 10
383.150
 20
-12.2992
 30
2.72501e-15
  70
    32
  0
VERTEX
  8
0
  5
15CB
 10
383.153
 20
-12.2934
 30
2.72172e-15
  70
    32
  0
VERTEX
  8
0
  5
15CC
 10
383.155
 20
-12.2876
 30
2.71834e-15
  70
    32
  0
VERTEX
  8
0
  5
15CD
 10
383.158
 20
-12.2818
 30
2.71486e-15
  70
    32
  0
VERTEX
  8
0
  5
15CE
 10
383.160
 20
-12.2761
 30
2.71129e-15
  70
    32
  0
VERTEX
  8
0
  5
15CF
 10
383.163
 20
-12.2703
 30
2.70763e-15
  70
    32
  0
VERTEX
  8
0
  5
15D0
 10
383.166
 20
-12.2646
 30
2.70386e-15
  70
    32
  0
VERTEX
  8
0
  5
15D1
 10
383.168
 20
-12.2589
 30
2.70000e-15
  70
    32
  0
SEQEND
  8
0
  5
15D2
  0
POLYLINE
  8
0
  5
15D3
  66
     1
 10
0.000000
 20
0.000000
 30
0.000000
  70
     8
  0
VERTEX
  8
0
  5
15D4
 10
384.735
 20
-12.2589
 30
2.70000e-15
  70
    32
  0
VERTEX
  8
0
  5
15D5
 10
384.738
 20
-12.2643
 30
2.70364e-15
  70
    32
  0
VERTEX
  8
0
  5
15D6
 10
384.740
 20
-12.2697
 30
2.70719e-15
  70
    32
  0
VERTEX
  8
0
  5
15D7
 10
384.743
 20
-12.2751
 30
2.71065e-15
  70
    32
  0
VERTEX
  8
0
  5
15D8
 10
384.745
 20
-12.2805
 30
2.71403e-15
  70
    32
  0
VERTEX
  8
0
  5
15D9
 10
384.748
 20
-12.2859
 30
2.71732e-15
  70
    32
  0
VERTEX
  8
0
  5
15DA
 10
384.750
 20
-12.2913
 30
2.72053e-15
  70
    32
  0
VERTEX
  8
0
  5
15DB
 10
384.753
 20
-12.2968
 30
2.72366e-15
  70
    32
  0
VERTEX
  8
0
  5
15DC
 10
384.755
 20
-12.3023
 30
2.72672e-15
  70
    32
  0
VERTEX
  8
0
  5
15DD
 10
384.757
 20
-12.3077
 30
2.72969e-15
  70
    32
  0
VERTEX
  8
0
  5
15DE
 10
384.760
 20
-12.3132
 30
2.73258e-15
  70
    32
  0
VERTEX
  8
0
  5
15DF
 10
384.762
 20
-12.3187
 30
2.73541e-15
  70
    32
  0
VERTEX
  8
0
  5
15E0
 10
384.764
 20
-12.3242
 30
2.73816e-15
  70
    32
  0
VERTEX
  8
0
  5
15E1
 10
384.767
 20
-12.3297
 30
2.74083e-15
  70
    32
  0
VERTEX
  8
0
  5
15E2
 10
384.769
 20
-12.3353
 30
2.74344e-15
  70
    32
  0
VERTEX
  8
0
  5
15E3
 10
384.771
 20
-12.3408
 30
2.74598e-15
  70
    32
  0
VERTEX
  8
0
  5
15E4
 10
384.773
 20
-12.3464
 30
2.74845e-15
  70
    32
  0
VERTEX
  8
0
  5
15E5
 10
384.776
 20
-12.3519
 30
2.75086e-15
  70
    32
  0
VERTEX
  8
0
  5
15E6
 10
384.778
 20
-12.3575
 30
2.75321e-15
  70
    32
  0
VERTEX
  8
0
  5
15E7
 10
384.780
 20
-12.3631
 30
2.75549e-15
  70
    32
  0
VERTEX
  8
0
  5
15E8
 10
384.782
 20
-12.3687
 30
2.75771e-15
  70
    32
  0
VERTEX
  8
0
  5
15E9
 10
384.784
 20
-12.3743
 30
2.75987e-15
  70
    32
  0
VERTEX
  8
0
  5
15EA
 10
384.787
 20
-12.3799
 30
2.76198e-15
  70
    32
  0
VERTEX
  8
0
  5
15EB
 10
384.789
 20
-12.3855
 30
2.76403e-15
  70
    32
  0
VERTEX
  8
0
  5
15EC
 10
384.791
 20
-12.3911
 30
2.76603e-15
  70
    32
  0
VERTEX
  8
0
  5
15ED
 10
384.793
 20
-12.3968
 30
2.76797e-15
  70
    32
  0
VERTEX
  8
0
  5
15EE
 10
384.795
 20
-12.4024
 30
2.76987e-15
  70
    32
  0
VERTEX
  8
0
  5
15EF
 10
384.797
 20
-12.4081
 30
2.77171e-15
  70
    32
  0
VERTEX
  8
0
  5
15F0
 10
384.799
 20
-12.4138
 30
2.77351e-15
  70
    32
  0
VERTEX
  8
0
  5
15F1
 10
384.801
 20
-12.4194
 30
2.77526e-15
  70
    32
  0
VERTEX
  8
0
  5
15F2
 10
384.803
 20
-12.4251
 30
2.77697e-15
  70
    32
  0
VERTEX
  8
0
  5
15F3
 10
384.805
 20
-12.4308
 30
2.77863e-15
  70
    32
  0
VERTEX
  8
0
  5
15F4
 10
384.808
 20
-12.4365
 30
2.78025e-15
  70
    32
  0
VERTEX
  8
0
  5
15F5
 10
384.810
 20
-12.4422
 30
2.78184e-15
  70
    32
  0
VERTEX
  8
0
  5
15F6
 10
384.812
 20
-12.4480
 30
2.78338e-15
  70
    32
  0
VERTEX
  8
0
  5
15F7
 10
384.813
 20
-12.4537
 30
2.78489e-15
  70
    32
  0
VERTEX
  8
0
  5
15F8
 10
384.815
 20
-12.4594
 30
2.78637e-15
  70
    32
  0
VERTEX
  8
0
  5
15F9
 10
384.817
 20
-12.4652
 30
2.78781e-15
  70
    32
  0
VERTEX
  8
0
  5
15FA
 10
384.819
 20
-12.4709
 30
2.78922e-15
  70
    32
  0
VERTEX
  8
0
  5
15FB
 10
384.821
 20
-12.4767
 30
2.79060e-15
  70
    32
  0
VERTEX
  8
0
  5
15FC
 10
384.823
 20
-12.4824
 30
2.79195e-15
  70
    32
  0
VERTEX
  8
0
  5
15FD
 10
384.825
 20
-12.4882
 30
2.79327e-15
  70
    32
  0
VERTEX
  8
0
  5
15FE
 10
384.827
 20
-12.4940
 30
2.79457e-15
  70
    32
  0
VERTEX
  8
0
  5
15FF
 10
384.829
 20
-12.4998
 30
2.79584e-15
  70
    32
  0
VERTEX
  8
0
  5
1600
 10
384.831
 20
-12.5056
 30
2.79710e-15
  70
    32
  0
VERTEX
  8
0
  5
1601
 10
384.832
 20
-12.5114
 30
2.79833e-15
  70
    32
  0
VERTEX
  8
0
  5
1602
 10
384.834
 20
-12.5172
 30
2.79954e-15
  70
    32
  0
VERTEX
  8
0
  5
1603
 10
384.836
 20
-12.5230
 30
2.80074e-15
  70
    32
  0
VERTEX
  8
0
  5
1604
 10
384.838
 20
-12.5289
 30
2.80192e-15
  70
    32
  0
VERTEX
  8
0
  5
1605
 10
384.840
 20
-12.5347
 30
2.80309e-15
  70
    32
  0
VERTEX
  8
0
  5
1606
 10
384.841
 20
-12.5405
 30
2.80424e-15
  70
    32
  0
VERTEX
  8
0
  5
1607
 10
384.843
 20
-12.5464
 30
2.80538e-15
  70
    32
  0
VERTEX
  8
0
  5
1608
 10
384.845
 20
-12.5522
 30
2.80652e-15
  70
    32
  0
VERTEX
  8
0
  5
1609
 10
384.847
 20
-12.5581
 30
2.80764e-15
  70
    32
  0
VERTEX
  8
0
  5
160A
 10
384.848
 20
-12.5640
 30
2.80876e-15
  70
    32
  0
VERTEX
  8
0
  5
160B
 10
384.850
 20
-12.5698
 30
2.80988e-15
  70
    32
  0
VERTEX
  8
0
  5
160C
 10
384.852
 20
-12.5757
 30
2.81099e-15
  70
    32
  0
VERTEX
  8
0
  5
160D
 10
384.853
 20
-12.5816
 30
2.81210e-15
  70
    32
  0
VERTEX
  8
0
  5
160E
 10
384.855
 20
-12.5875
 30
2.81321e-15
  70
    32
  0
VERTEX
  8
0
  5
160F
 10
384.857
 20
-12.5934
 30
2.81432e-15
  70
    32
  0
VERTEX
  8
0
  5
1610
 10
384.858
 20
-12.5993
 30
2.81544e-15
  70
    32
  0
VERTEX
  8
0
  5
1611
 10
384.860
 20
-12.6052
 30
2.81656e-15
  70
    32
  0
VERTEX
  8
0
  5
1612
 10
384.861
 20
-12.6111
 30
2.81769e-15
  70
    32
  0
VERTEX
  8
0
  5
1613
 10
384.863
 20
-12.6170
 30
2.81882e-15
  70
    32
  0
VERTEX
  8
0
  5
1614
 10
384.864
 20
-12.6229
 30
2.81997e-15
  70
    32
  0
VERTEX
  8
0
  5
1615
 10
384.866
 20
-12.6288
 30
2.82113e-15
  70
    32
  0
VERTEX
  8
0
  5
1616
 10
384.867
 20
-12.6348
 30
2.82229e-15
  70
    32
  0
VERTEX
  8
0
  5
1617
 10
384.869
 20
-12.6407
 30
2.82348e-15
  70
    32
  0
VERTEX
  8
0
  5
1618
 10
384.870
 20
-12.6466
 30
2.82468e-15
  70
    32
  0
VERTEX
  8
0
  5
1619
 10
384.872
 20
-12.6526
 30
2.82590e-15
  70
    32
  0
VERTEX
  8
0
  5
161A
 10
384.873
 20
-12.6585
 30
2.82713e-15
  70
    32
  0
VERTEX
  8
0
  5
161B
 10
384.875
 20
-12.6645
 30
2.82839e-15
  70
    32
  0
VERTEX
  8
0
  5
161C
 10
384.876
 20
-12.6704
 30
2.82967e-15
  70
    32
  0
VERTEX
  8
0
  5
161D
 10
384.878
 20
-12.6764
 30
2.83098e-15
  70
    32
  0
VERTEX
  8
0
  5
161E
 10
384.879
 20
-12.6824
 30
2.83231e-15
  70
    32
  0
VERTEX
  8
0
  5
161F
 10
384.881
 20
-12.6883
 30
2.83366e-15
  70
    32
  0
VERTEX
  8
0
  5
1620
 10
384.882
 20
-12.6943
 30
2.83505e-15
  70
    32
  0
VERTEX
  8
0
  5
1621
 10
384.883
 20
-12.7003
 30
2.83647e-15
  70
    32
  0
VERTEX
  8
0
  5
1622
 10
384.885
 20
-12.7063
 30
2.83792e-15
  70
    32
  0
VERTEX
  8
0
  5
1623
 10
384.886
 20
-12.7122
 30
2.83940e-15
  70
    32
  0
VERTEX
  8
0
  5
1624
 10
384.887
 20
-12.7182
 30
2.84091e-15
  70
    32
  0
VERTEX
  8
0
  5
1625
 10
384.889
 20
-12.7242
 30
2.84247e-15
  70
    32
  0
VERTEX
  8
0
  5
1626
 10
384.890
 20
-12.7302
 30
2.84405e-15
  70
    32
  0
VERTEX
  8
0
  5
1627
 10
384.891
 20
-12.7362
 30
2.84561e-15
  70
    32
  0
VERTEX
  8
0
  5
1628
 10
384.892
 20
-12.7422
 30
2.84714e-15
  70
    32
  0
VERTEX
  8
0
  5
1629
 10
384.894
 20
-12.7482
 30
2.84864e-15
  70
    32
  0
VERTEX
  8
0
  5
162A
 10
384.895
 20
-12.7542
 30
2.85011e-15
  70
    32
  0
VERTEX
  8
0
  5
162B
 10
384.896
 20
-12.7602
 30
2.85156e-15
  70
    32
  0
VERTEX
  8
0
  5
162C
 10
384.897
 20
-12.7662
 30
2.85299e-15
  70
    32
  0
VERTEX
  8
0
  5
162D
 10
384.899
 20
-12.7722
 30
2.85439e-15
  70
    32
  0
VERTEX
  8
0
  5
162E
 10
384.900
 20
-12.7782
 30
2.85576e-15
  70
    32
  0
VERTEX
  8
0
  5
162F
 10
384.901
 20
-12.7842
 30
2.85711e-15
  70
    32
  0
VERTEX
  8
0
  5
1630
 10
384.902
 20
-12.7903
 30
2.85844e-15
  70
    32
  0
VERTEX
  8
0
  5
1631
 10
384.903
 20
-12.7963
 30
2.85975e-15
  70
    32
  0
VERTEX
  8
0
  5
1632
 10
384.904
 20
-12.8023
 30
2.86104e-15
  70
    32
  0
VERTEX
  8
0
  5
1633
 10
384.905
 20
-12.8083
 30
2.86231e-15
  70
    32
  0
VERTEX
  8
0
  5
1634
 10
384.907
 20
-12.8143
 30
2.86355e-15
  70
    32
  0
VERTEX
  8
0
  5
1635
 10
384.908
 20
-12.8204
 30
2.86478e-15
  70
    32
  0
VERTEX
  8
0
  5
1636
 10
384.909
 20
-12.8264
 30
2.86599e-15
  70
    32
  0
VERTEX
  8
0
  5
1637
 10
384.910
 20
-12.8324
 30
2.86719e-15
  70
    32
  0
VERTEX
  8
0
  5
1638
 10
384.911
 20
-12.8384
 30
2.86837e-15
  70
    32
  0
VERTEX
  8
0
  5
1639
 10
384.912
 20
-12.8445
 30
2.86953e-15
  70
    32
  0
VERTEX
  8
0
  5
163A
 10
384.913
 20
-12.8505
 30
2.87068e-15
  70
    32
  0
VERTEX
  8
0
  5
163B
 10
384.914
 20
-12.8565
 30
2.87181e-15
  70
    32
  0
VERTEX
  8
0
  5
163C
 10
384.915
 20
-12.8625
 30
2.87293e-15
  70
    32
  0
VERTEX
  8
0
  5
163D
 10
384.916
 20
-12.8686
 30
2.87404e-15
  70
    32
  0
VERTEX
  8
0
  5
163E
 10
384.917
 20
-12.8746
 30
2.87514e-15
  70
    32
  0
VERTEX
  8
0
  5
163F
 10
384.918
 20
-12.8806
 30
2.87623e-15
  70
    32
  0
VERTEX
  8
0
  5
1640
 10
384.919
 20
-12.8866
 30
2.87730e-15
  70
    32
  0
VERTEX
  8
0
  5
1641
 10
384.919
 20
-12.8927
 30
2.87837e-15
  70
    32
  0
VERTEX
  8
0
  5
1642
 10
384.920
 20
-12.8987
 30
2.87943e-15
  70
    32
  0
VERTEX
  8
0
  5
1643
 10
384.921
 20
-12.9047
 30
2.88048e-15
  70
    32
  0
VERTEX
  8
0
  5
1644
 10
384.922
 20
-12.9107
 30
2.88152e-15
  70
    32
  0
VERTEX
  8
0
  5
1645
 10
384.923
 20
-12.9168
 30
2.88256e-15
  70
    32
  0
VERTEX
  8
0
  5
1646
 10
384.924
 20
-12.9228
 30
2.88359e-15
  70
    32
  0
VERTEX
  8
0
  5
1647
 10
384.925
 20
-12.9288
 30
2.88461e-15
  70
    32
  0
VERTEX
  8
0
  5
1648
 10
384.926
 20
-12.9348
 30
2.88564e-15
  70
    32
  0
VERTEX
  8
0
  5
1649
 10
384.926
 20
-12.9409
 30
2.88665e-15
  70
    32
  0
VERTEX
  8
0
  5
164A
 10
384.927
 20
-12.9469
 30
2.88767e-15
  70
    32
  0
VERTEX
  8
0
  5
164B
 10
384.928
 20
-12.9529
 30
2.88869e-15
  70
    32
  0
VERTEX
  8
0
  5
164C
 10
384.929
 20
-12.9589
 30
2.88970e-15
  70
    32
  0
VERTEX
  8
0
  5
164D
 10
384.929
 20
-12.9649
 30
2.89071e-15
  70
    32
  0
VERTEX
  8
0
  5
164E
 10
384.930
 20
-12.9710
 30
2.89173e-15
  70
    32
  0
VERTEX
  8
0
  5
164F
 10
384.931
 20
-12.9770
 30
2.89274e-15
  70
    32
  0
VERTEX
  8
0
  5
1650
 10
384.932
 20
-12.9830
 30
2.89376e-15
  70
    32
  0
VERTEX
  8
0
  5
1651
 10
384.932
 20
-12.9890
 30
2.89478e-15
  70
    32
  0
VERTEX
  8
0
  5
1652
 10
384.933
 20
-12.9950
 30
2.89580e-15
  70
    32
  0
VERTEX
  8
0
  5
1653
 10
384.934
 20
-13.0010
 30
2.89683e-15
  70
    32
  0
VERTEX
  8
0
  5
1654
 10
384.934
 20
-13.0070
 30
2.89786e-15
  70
    32
  0
VERTEX
  8
0
  5
1655
 10
384.935
 20
-13.0130
 30
2.89890e-15
  70
    32
  0
VERTEX
  8
0
  5
1656
 10
384.936
 20
-13.0190
 30
2.89995e-15
  70
    32
  0
VERTEX
  8
0
  5
1657
 10
384.936
 20
-13.0250
 30
2.90100e-15
  70
    32
  0
VERTEX
  8
0
  5
1658
 10
384.937
 20
-13.0310
 30
2.90206e-15
  70
    32
  0
VERTEX
  8
0
  5
1659
 10
384.937
 20
-13.0370
 30
2.90313e-15
  70
    32
  0
VERTEX
  8
0
  5
165A
 10
384.938
 20
-13.0429
 30
2.90421e-15
  70
    32
  0
VERTEX
  8
0
  5
165B
 10
384.939
 20
-13.0489
 30
2.90530e-15
  70
    32
  0
VERTEX
  8
0
  5
165C
 10
384.939
 20
-13.0549
 30
2.90640e-15
  70
    32
  0
VERTEX
  8
0
  5
165D
 10
384.940
 20
-13.0609
 30
2.90751e-15
  70
    32
  0
VERTEX
  8
0
  5
165E
 10
384.940
 20
-13.0668
 30
2.90864e-15
  70
    32
  0
VERTEX
  8
0
  5
165F
 10
384.941
 20
-13.0728
 30
2.90978e-15
  70
    32
  0
VERTEX
  8
0
  5
1660
 10
384.941
 20
-13.0788
 30
2.91093e-15
  70
    32
  0
VERTEX
  8
0
  5
1661
 10
384.942
 20
-13.0847
 30
2.91210e-15
  70
    32
  0
VERTEX
  8
0
  5
1662
 10
384.942
 20
-13.0907
 30
2.91328e-15
  70
    32
  0
VERTEX
  8
0
  5
1663
 10
384.943
 20
-13.0966
 30
2.91448e-15
  70
    32
  0
VERTEX
  8
0
  5
1664
 10
384.943
 20
-13.1026
 30
2.91570e-15
  70
    32
  0
VERTEX
  8
0
  5
1665
 10
384.944
 20
-13.1085
 30
2.91694e-15
  70
    32
  0
VERTEX
  8
0
  5
1666
 10
384.944
 20
-13.1145
 30
2.91819e-15
  70
    32
  0
VERTEX
  8
0
  5
1667
 10
384.945
 20
-13.1204
 30
2.91946e-15
  70
    32
  0
VERTEX
  8
0
  5
1668
 10
384.945
 20
-13.1263
 30
2.92076e-15
  70
    32
  0
VERTEX
  8
0
  5
1669
 10
384.945
 20
-13.1322
 30
2.92207e-15
  70
    32
  0
VERTEX
  8
0
  5
166A
 10
384.946
 20
-13.1381
 30
2.92341e-15
  70
    32
  0
VERTEX
  8
0
  5
166B
 10
384.946
 20
-13.1441
 30
2.92477e-15
  70
    32
  0
VERTEX
  8
0
  5
166C
 10
384.946
 20
-13.1500
 30
2.92615e-15
  70
    32
  0
VERTEX
  8
0
  5
166D
 10
384.947
 20
-13.1559
 30
2.92756e-15
  70
    32
  0
VERTEX
  8
0
  5
166E
 10
384.947
 20
-13.1618
 30
2.92899e-15
  70
    32
  0
VERTEX
  8
0
  5
166F
 10
384.947
 20
-13.1677
 30
2.93045e-15
  70
    32
  0
VERTEX
  8
0
  5
1670
 10
384.948
 20
-13.1735
 30
2.93194e-15
  70
    32
  0
VERTEX
  8
0
  5
1671
 10
384.948
 20
-13.1794
 30
2.93345e-15
  70
    32
  0
VERTEX
  8
0
  5
1672
 10
384.948
 20
-13.1853
 30
2.93499e-15
  70
    32
  0
VERTEX
  8
0
  5
1673
 10
384.949
 20
-13.1912
 30
2.93655e-15
  70
    32
  0
VERTEX
  8
0
  5
1674
 10
384.949
 20
-13.1970
 30
2.93815e-15
  70
    32
  0
VERTEX
  8
0
  5
1675
 10
384.949
 20
-13.2029
 30
2.93978e-15
  70
    32
  0
VERTEX
  8
0
  5
1676
 10
384.949
 20
-13.2087
 30
2.94144e-15
  70
    32
  0
VERTEX
  8
0
  5
1677
 10
384.950
 20
-13.2146
 30
2.94313e-15
  70
    32
  0
VERTEX
  8
0
  5
1678
 10
384.950
 20
-13.2204
 30
2.94485e-15
  70
    32
  0
VERTEX
  8
0
  5
1679
 10
384.950
 20
-13.2262
 30
2.94661e-15
  70
    32
  0
VERTEX
  8
0
  5
167A
 10
384.950
 20
-13.2320
 30
2.94840e-15
  70
    32
  0
VERTEX
  8
0
  5
167B
 10
384.950
 20
-13.2378
 30
2.95022e-15
  70
    32
  0
VERTEX
  8
0
  5
167C
 10
384.951
 20
-13.2436
 30
2.95208e-15
  70
    32
  0
VERTEX
  8
0
  5
167D
 10
384.951
 20
-13.2494
 30
2.95398e-15
  70
    32
  0
VERTEX
  8
0
  5
167E
 10
384.951
 20
-13.2552
 30
2.95591e-15
  70
    32
  0
VERTEX
  8
0
  5
167F
 10
384.951
 20
-13.2610
 30
2.95789e-15
  70
    32
  0
VERTEX
  8
0
  5
1680
 10
384.951
 20
-13.2668
 30
2.95990e-15
  70
    32
  0
VERTEX
  8
0
  5
1681
 10
384.951
 20
-13.2726
 30
2.96194e-15
  70
    32
  0
VERTEX
  8
0
  5
1682
 10
384.951
 20
-13.2783
 30
2.96403e-15
  70
    32
  0
VERTEX
  8
0
  5
1683
 10
384.952
 20
-13.2841
 30
2.96616e-15
  70
    32
  0
VERTEX
  8
0
  5
1684
 10
384.952
 20
-13.2898
 30
2.96834e-15
  70
    32
  0
VERTEX
  8
0
  5
1685
 10
384.952
 20
-13.2956
 30
2.97055e-15
  70
    32
  0
VERTEX
  8
0
  5
1686
 10
384.952
 20
-13.3013
 30
2.97281e-15
  70
    32
  0
VERTEX
  8
0
  5
1687
 10
384.952
 20
-13.3070
 30
2.97511e-15
  70
    32
  0
VERTEX
  8
0
  5
1688
 10
384.952
 20
-13.3127
 30
2.97746e-15
  70
    32
  0
VERTEX
  8
0
  5
1689
 10
384.952
 20
-13.3184
 30
2.97985e-15
  70
    32
  0
VERTEX
  8
0
  5
168A
 10
384.952
 20
-13.3241
 30
2.98229e-15
  70
    32
  0
VERTEX
  8
0
  5
168B
 10
384.952
 20
-13.3298
 30
2.98477e-15
  70
    32
  0
VERTEX
  8
0
  5
168C
 10
384.952
 20
-13.3355
 30
2.98730e-15
  70
    32
  0
VERTEX
  8
0
  5
168D
 10
384.952
 20
-13.3411
 30
2.98988e-15
  70
    32
  0
VERTEX
  8
0
  5
168E
 10
384.952
 20
-13.3468
 30
2.99251e-15
  70
    32
  0
VERTEX
  8
0
  5
168F
 10
384.952
 20
-13.3524
 30
2.99519e-15
  70
    32
  0
VERTEX
  8
0
  5
1690
 10
384.952
 20
-13.3581
 30
2.99793e-15
  70
    32
  0
VERTEX
  8
0
  5
1691
 10
384.952
 20
-13.3637
 30
3.00000e-15
  70
    32
  0
VERTEX
  8
0
  5
1692
 10
384.952
 20
-13.3693
 30
3.00003e-15
  70
    32
  0
VERTEX
  8
0
  5
1693
 10
384.952
 20
-13.3750
 30
3.00010e-15
  70
    32
  0
VERTEX
  8
0
  5
1694
 10
384.951
 20
-13.3806
 30
3.00022e-15
  70
    32
  0
VERTEX
  8
0
  5
1695
 10
384.951
 20
-13.3863
 30
3.00037e-15
  70
    32
  0
VERTEX
  8
0
  5
1696
 10
384.951
 20
-13.3919
 30
3.00056e-15
  70
    32
  0
VERTEX
  8
0
  5
1697
 10
384.951
 20
-13.3976
 30
3.00079e-15
  70
    32
  0
VERTEX
  8
0
  5
1698
 10
384.951
 20
-13.4033
 30
3.00106e-15
  70
    32
  0
VERTEX
  8
0
  5
1699
 10
384.951
 20
-13.4090
 30
3.00137e-15
  70
    32
  0
VERTEX
  8
0
  5
169A
 10
384.951
 20
-13.4147
 30
3.00171e-15
  70
    32
  0
VERTEX
  8
0
  5
169B
 10
384.950
 20
-13.4204
 30
3.00210e-15
  70
    32
  0
VERTEX
  8
0
  5
169C
 10
384.950
 20
-13.4261
 30
3.00251e-15
  70
    32
  0
VERTEX
  8
0
  5
169D
 10
384.950
 20
-13.4318
 30
3.00297e-15
  70
    32
  0
VERTEX
  8
0
  5
169E
 10
384.950
 20
-13.4375
 30
3.00345e-15
  70
    32
  0
VERTEX
  8
0
  5
169F
 10
384.950
 20
-13.4432
 30
3.00398e-15
  70
    32
  0
VERTEX
  8
0
  5
16A0
 10
384.949
 20
-13.4490
 30
3.00454e-15
  70
    32
  0
VERTEX
  8
0
  5
16A1
 10
384.949
 20
-13.4547
 30
3.00513e-15
  70
    32
  0
VERTEX
  8
0
  5
16A2
 10
384.949
 20
-13.4605
 30
3.00575e-15
  70
    32
  0
VERTEX
  8
0
  5
16A3
 10
384.949
 20
-13.4662
 30
3.00641e-15
  70
    32
  0
VERTEX
  8
0
  5
16A4
 10
384.948
 20
-13.4720
 30
3.00710e-15
  70
    32
  0
VERTEX
  8
0
  5
16A5
 10
384.948
 20
-13.4778
 30
3.00782e-15
  70
    32
  0
VERTEX
  8
0
  5
16A6
 10
384.948
 20
-13.4836
 30
3.00857e-15
  70
    32
  0
VERTEX
  8
0
  5
16A7
 10
384.948
 20
-13.4894
 30
3.00935e-15
  70
    32
  0
VERTEX
  8
0
  5
16A8
 10
384.947
 20
-13.4951
 30
3.01017e-15
  70
    32
  0
VERTEX
  8
0
  5
16A9
 10
384.947
 20
-13.5009
 30
3.01101e-15
  70
    32
  0
VERTEX
  8
0
  5
16AA
 10
384.947
 20
-13.5067
 30
3.01188e-15
  70
    32
  0
VERTEX
  8
0
  5
16AB
 10
384.946
 20
-13.5126
 30
3.01278e-15
  70
    32
  0
VERTEX
  8
0
  5
16AC
 10
384.946
 20
-13.5184
 30
3.01371e-15
  70
    32
  0
VERTEX
  8
0
  5
16AD
 10
384.945
 20
-13.5242
 30
3.01466e-15
  70
    32
  0
VERTEX
  8
0
  5
16AE
 10
384.945
 20
-13.5300
 30
3.01565e-15
  70
    32
  0
VERTEX
  8
0
  5
16AF
 10
384.945
 20
-13.5359
 30
3.01665e-15
  70
    32
  0
VERTEX
  8
0
  5
16B0
 10
384.944
 20
-13.5417
 30
3.01769e-15
  70
    32
  0
VERTEX
  8
0
  5
16B1
 10
384.944
 20
-13.5475
 30
3.01875e-15
  70
    32
  0
VERTEX
  8
0
  5
16B2
 10
384.943
 20
-13.5534
 30
3.01983e-15
  70
    32
  0
VERTEX
  8
0
  5
16B3
 10
384.943
 20
-13.5592
 30
3.02094e-15
  70
    32
  0
VERTEX
  8
0
  5
16B4
 10
384.942
 20
-13.5651
 30
3.02207e-15
  70
    32
  0
VERTEX
  8
0
  5
16B5
 10
384.942
 20
-13.5710
 30
3.02323e-15
  70
    32
  0
VERTEX
  8
0
  5
16B6
 10
384.941
 20
-13.5768
 30
3.02441e-15
  70
    32
  0
VERTEX
  8
0
  5
16B7
 10
384.941
 20
-13.5827
 30
3.02561e-15
  70
    32
  0
VERTEX
  8
0
  5
16B8
 10
384.940
 20
-13.5886
 30
3.02683e-15
  70
    32
  0
VERTEX
  8
0
  5
16B9
 10
384.940
 20
-13.5945
 30
3.02808e-15
  70
    32
  0
VERTEX
  8
0
  5
16BA
 10
384.939
 20
-13.6004
 30
3.02934e-15
  70
    32
  0
VERTEX
  8
0
  5
16BB
 10
384.939
 20
-13.6063
 30
3.03063e-15
  70
    32
  0
VERTEX
  8
0
  5
16BC
 10
384.938
 20
-13.6122
 30
3.03193e-15
  70
    32
  0
VERTEX
  8
0
  5
16BD
 10
384.938
 20
-13.6181
 30
3.03326e-15
  70
    32
  0
VERTEX
  8
0
  5
16BE
 10
384.937
 20
-13.6240
 30
3.03460e-15
  70
    32
  0
VERTEX
  8
0
  5
16BF
 10
384.937
 20
-13.6299
 30
3.03596e-15
  70
    32
  0
VERTEX
  8
0
  5
16C0
 10
384.936
 20
-13.6358
 30
3.03734e-15
  70
    32
  0
VERTEX
  8
0
  5
16C1
 10
384.935
 20
-13.6417
 30
3.03873e-15
  70
    32
  0
VERTEX
  8
0
  5
16C2
 10
384.935
 20
-13.6476
 30
3.04014e-15
  70
    32
  0
VERTEX
  8
0
  5
16C3
 10
384.934
 20
-13.6535
 30
3.04157e-15
  70
    32
  0
VERTEX
  8
0
  5
16C4
 10
384.933
 20
-13.6595
 30
3.04302e-15
  70
    32
  0
VERTEX
  8
0
  5
16C5
 10
384.933
 20
-13.6654
 30
3.04447e-15
  70
    32
  0
VERTEX
  8
0
  5
16C6
 10
384.932
 20
-13.6713
 30
3.04595e-15
  70
    32
  0
VERTEX
  8
0
  5
16C7
 10
384.931
 20
-13.6773
 30
3.04743e-15
  70
    32
  0
VERTEX
  8
0
  5
16C8
 10
384.931
 20
-13.6832
 30
3.04893e-15
  70
    32
  0
VERTEX
  8
0
  5
16C9
 10
384.930
 20
-13.6892
 30
3.05045e-15
  70
    32
  0
VERTEX
  8
0
  5
16CA
 10
384.929
 20
-13.6951
 30
3.05197e-15
  70
    32
  0
VERTEX
  8
0
  5
16CB
 10
384.928
 20
-13.7011
 30
3.05351e-15
  70
    32
  0
VERTEX
  8
0
  5
16CC
 10
384.928
 20
-13.7070
 30
3.05506e-15
  70
    32
  0
VERTEX
  8
0
  5
16CD
 10
384.927
 20
-13.7130
 30
3.05662e-15
  70
    32
  0
VERTEX
  8
0
  5
16CE
 10
384.926
 20
-13.7189
 30
3.05818e-15
  70
    32
  0
VERTEX
  8
0
  5
16CF
 10
384.925
 20
-13.7249
 30
3.05976e-15
  70
    32
  0
VERTEX
  8
0
  5
16D0
 10
384.925
 20
-13.7308
 30
3.06135e-15
  70
    32
  0
VERTEX
  8
0
  5
16D1
 10
384.924
 20
-13.7368
 30
3.06295e-15
  70
    32
  0
VERTEX
  8
0
  5
16D2
 10
384.923
 20
-13.7428
 30
3.06456e-15
  70
    32
  0
VERTEX
  8
0
  5
16D3
 10
384.922
 20
-13.7487
 30
3.06617e-15
  70
    32
  0
VERTEX
  8
0
  5
16D4
 10
384.921
 20
-13.7547
 30
3.06779e-15
  70
    32
  0
VERTEX
  8
0
  5
16D5
 10
384.920
 20
-13.7607
 30
3.06942e-15
  70
    32
  0
VERTEX
  8
0
  5
16D6
 10
384.919
 20
-13.7666
 30
3.07105e-15
  70
    32
  0
VERTEX
  8
0
  5
16D7
 10
384.918
 20
-13.7726
 30
3.07269e-15
  70
    32
  0
VERTEX
  8
0
  5
16D8
 10
384.918
 20
-13.7786
 30
3.07433e-15
  70
    32
  0
VERTEX
  8
0
  5
16D9
 10
384.917
 20
-13.7846
 30
3.07598e-15
  70
    32
  0
VERTEX
  8
0
  5
16DA
 10
384.916
 20
-13.7905
 30
3.07763e-15
  70
    32
  0
VERTEX
  8
0
  5
16DB
 10
384.915
 20
-13.7965
 30
3.07929e-15
  70
    32
  0
VERTEX
  8
0
  5
16DC
 10
384.914
 20
-13.8025
 30
3.08095e-15
  70
    32
  0
VERTEX
  8
0
  5
16DD
 10
384.913
 20
-13.8085
 30
3.08261e-15
  70
    32
  0
VERTEX
  8
0
  5
16DE
 10
384.912
 20
-13.8144
 30
3.08427e-15
  70
    32
  0
VERTEX
  8
0
  5
16DF
 10
384.911
 20
-13.8204
 30
3.08594e-15
  70
    32
  0
VERTEX
  8
0
  5
16E0
 10
384.910
 20
-13.8264
 30
3.08760e-15
  70
    32
  0
VERTEX
  8
0
  5
16E1
 10
384.909
 20
-13.8324
 30
3.08927e-15
  70
    32
  0
VERTEX
  8
0
  5
16E2
 10
384.908
 20
-13.8384
 30
3.09093e-15
  70
    32
  0
VERTEX
  8
0
  5
16E3
 10
384.907
 20
-13.8444
 30
3.09260e-15
  70
    32
  0
VERTEX
  8
0
  5
16E4
 10
384.906
 20
-13.8503
 30
3.09426e-15
  70
    32
  0
VERTEX
  8
0
  5
16E5
 10
384.904
 20
-13.8563
 30
3.09593e-15
  70
    32
  0
VERTEX
  8
0
  5
16E6
 10
384.903
 20
-13.8623
 30
3.09759e-15
  70
    32
  0
VERTEX
  8
0
  5
16E7
 10
384.902
 20
-13.8683
 30
3.09924e-15
  70
    32
  0
VERTEX
  8
0
  5
16E8
 10
384.901
 20
-13.8743
 30
3.10090e-15
  70
    32
  0
VERTEX
  8
0
  5
16E9
 10
384.900
 20
-13.8802
 30
3.10255e-15
  70
    32
  0
VERTEX
  8
0
  5
16EA
 10
384.899
 20
-13.8862
 30
3.10419e-15
  70
    32
  0
VERTEX
  8
0
  5
16EB
 10
384.898
 20
-13.8922
 30
3.10584e-15
  70
    32
  0
VERTEX
  8
0
  5
16EC
 10
384.896
 20
-13.8982
 30
3.10747e-15
  70
    32
  0
VERTEX
  8
0
  5
16ED
 10
384.895
 20
-13.9042
 30
3.10910e-15
  70
    32
  0
VERTEX
  8
0
  5
16EE
 10
384.894
 20
-13.9101
 30
3.11073e-15
  70
    32
  0
VERTEX
  8
0
  5
16EF
 10
384.893
 20
-13.9161
 30
3.11234e-15
  70
    32
  0
VERTEX
  8
0
  5
16F0
 10
384.892
 20
-13.9221
 30
3.11395e-15
  70
    32
  0
VERTEX
  8
0
  5
16F1
 10
384.890
 20
-13.9281
 30
3.11556e-15
  70
    32
  0
VERTEX
  8
0
  5
16F2
 10
384.889
 20
-13.9340
 30
3.11715e-15
  70
    32
  0
VERTEX
  8
0
  5
16F3
 10
384.888
 20
-13.9400
 30
3.11873e-15
  70
    32
  0
VERTEX
  8
0
  5
16F4
 10
384.887
 20
-13.9460
 30
3.12031e-15
  70
    32
  0
VERTEX
  8
0
  5
16F5
 10
384.885
 20
-13.9520
 30
3.12187e-15
  70
    32
  0
VERTEX
  8
0
  5
16F6
 10
384.884
 20
-13.9579
 30
3.12343e-15
  70
    32
  0
VERTEX
  8
0
  5
16F7
 10
384.883
 20
-13.9639
 30
3.12497e-15
  70
    32
  0
VERTEX
  8
0
  5
16F8
 10
384.881
 20
-13.9699
 30
3.12650e-15
  70
    32
  0
VERTEX
  8
0
  5
16F9
 10
384.880
 20
-13.9758
 30
3.12802e-15
  70
    32
  0
VERTEX
  8
0
  5
16FA
 10
384.879
 20
-13.9818
 30
3.12953e-15
  70
    32
  0
VERTEX
  8
0
  5
16FB
 10
384.877
 20
-13.9877
 30
3.13102e-15
  70
    32
  0
VERTEX
  8
0
  5
16FC
 10
384.876
 20
-13.9937
 30
3.13250e-15
  70
    32
  0
VERTEX
  8
0
  5
16FD
 10
384.874
 20
-13.9996
 30
3.13397e-15
  70
    32
  0
VERTEX
  8
0
  5
16FE
 10
384.873
 20
-14.0056
 30
3.13542e-15
  70
    32
  0
VERTEX
  8
0
  5
16FF
 10
384.871
 20
-14.0115
 30
3.13686e-15
  70
    32
  0
VERTEX
  8
0
  5
1700
 10
384.870
 20
-14.0175
 30
3.13828e-15
  70
    32
  0
VERTEX
  8
0
  5
1701
 10
384.868
 20
-14.0234
 30
3.13968e-15
  70
    32
  0
VERTEX
  8
0
  5
1702
 10
384.867
 20
-14.0294
 30
3.14107e-15
  70
    32
  0
VERTEX
  8
0
  5
1703
 10
384.865
 20
-14.0353
 30
3.14244e-15
  70
    32
  0
VERTEX
  8
0
  5
1704
 10
384.864
 20
-14.0412
 30
3.14379e-15
  70
    32
  0
VERTEX
  8
0
  5
1705
 10
384.862
 20
-14.0472
 30
3.14513e-15
  70
    32
  0
VERTEX
  8
0
  5
1706
 10
384.861
 20
-14.0531
 30
3.14644e-15
  70
    32
  0
VERTEX
  8
0
  5
1707
 10
384.859
 20
-14.0590
 30
3.14774e-15
  70
    32
  0
VERTEX
  8
0
  5
1708
 10
384.858
 20
-14.0649
 30
3.14901e-15
  70
    32
  0
VERTEX
  8
0
  5
1709
 10
384.856
 20
-14.0708
 30
3.15027e-15
  70
    32
  0
VERTEX
  8
0
  5
170A
 10
384.855
 20
-14.0767
 30
3.15150e-15
  70
    32
  0
VERTEX
  8
0
  5
170B
 10
384.853
 20
-14.0827
 30
3.15272e-15
  70
    32
  0
VERTEX
  8
0
  5
170C
 10
384.851
 20
-14.0886
 30
3.15391e-15
  70
    32
  0
VERTEX
  8
0
  5
170D
 10
384.850
 20
-14.0945
 30
3.15509e-15
  70
    32
  0
VERTEX
  8
0
  5
170E
 10
384.848
 20
-14.1004
 30
3.15624e-15
  70
    32
  0
VERTEX
  8
0
  5
170F
 10
384.846
 20
-14.1062
 30
3.15738e-15
  70
    32
  0
VERTEX
  8
0
  5
1710
 10
384.845
 20
-14.1121
 30
3.15850e-15
  70
    32
  0
VERTEX
  8
0
  5
1711
 10
384.843
 20
-14.1180
 30
3.15960e-15
  70
    32
  0
VERTEX
  8
0
  5
1712
 10
384.841
 20
-14.1239
 30
3.16068e-15
  70
    32
  0
VERTEX
  8
0
  5
1713
 10
384.839
 20
-14.1298
 30
3.16175e-15
  70
    32
  0
VERTEX
  8
0
  5
1714
 10
384.838
 20
-14.1356
 30
3.16280e-15
  70
    32
  0
VERTEX
  8
0
  5
1715
 10
384.836
 20
-14.1415
 30
3.16383e-15
  70
    32
  0
VERTEX
  8
0
  5
1716
 10
384.834
 20
-14.1474
 30
3.16485e-15
  70
    32
  0
VERTEX
  8
0
  5
1717
 10
384.832
 20
-14.1532
 30
3.16585e-15
  70
    32
  0
VERTEX
  8
0
  5
1718
 10
384.831
 20
-14.1591
 30
3.16684e-15
  70
    32
  0
VERTEX
  8
0
  5
1719
 10
384.829
 20
-14.1649
 30
3.16782e-15
  70
    32
  0
VERTEX
  8
0
  5
171A
 10
384.827
 20
-14.1708
 30
3.16877e-15
  70
    32
  0
VERTEX
  8
0
  5
171B
 10
384.825
 20
-14.1766
 30
3.16972e-15
  70
    32
  0
VERTEX
  8
0
  5
171C
 10
384.823
 20
-14.1824
 30
3.17065e-15
  70
    32
  0
VERTEX
  8
0
  5
171D
 10
384.821
 20
-14.1882
 30
3.17157e-15
  70
    32
  0
VERTEX
  8
0
  5
171E
 10
384.819
 20
-14.1941
 30
3.17247e-15
  70
    32
  0
VERTEX
  8
0
  5
171F
 10
384.818
 20
-14.1999
 30
3.17337e-15
  70
    32
  0
VERTEX
  8
0
  5
1720
 10
384.816
 20
-14.2057
 30
3.17425e-15
  70
    32
  0
VERTEX
  8
0
  5
1721
 10
384.814
 20
-14.2115
 30
3.17512e-15
  70
    32
  0
VERTEX
  8
0
  5
1722
 10
384.812
 20
-14.2173
 30
3.17598e-15
  70
    32
  0
VERTEX
  8
0
  5
1723
 10
384.810
 20
-14.2231
 30
3.17683e-15
  70
    32
  0
VERTEX
  8
0
  5
1724
 10
384.808
 20
-14.2288
 30
3.17767e-15
  70
    32
  0
VERTEX
  8
0
  5
1725
 10
384.806
 20
-14.2346
 30
3.17850e-15
  70
    32
  0
VERTEX
  8
0
  5
1726
 10
384.804
 20
-14.2404
 30
3.17932e-15
  70
    32
  0
VERTEX
  8
0
  5
1727
 10
384.802
 20
-14.2461
 30
3.18013e-15
  70
    32
  0
VERTEX
  8
0
  5
1728
 10
384.800
 20
-14.2519
 30
3.18093e-15
  70
    32
  0
VERTEX
  8
0
  5
1729
 10
384.798
 20
-14.2576
 30
3.18173e-15
  70
    32
  0
VERTEX
  8
0
  5
172A
 10
384.796
 20
-14.2634
 30
3.18252e-15
  70
    32
  0
VERTEX
  8
0
  5
172B
 10
384.794
 20
-14.2691
 30
3.18330e-15
  70
    32
  0
VERTEX
  8
0
  5
172C
 10
384.791
 20
-14.2748
 30
3.18407e-15
  70
    32
  0
VERTEX
  8
0
  5
172D
 10
384.789
 20
-14.2806
 30
3.18484e-15
  70
    32
  0
VERTEX
  8
0
  5
172E
 10
384.787
 20
-14.2863
 30
3.18560e-15
  70
    32
  0
VERTEX
  8
0
  5
172F
 10
384.785
 20
-14.2920
 30
3.18635e-15
  70
    32
  0
VERTEX
  8
0
  5
1730
 10
384.783
 20
-14.2977
 30
3.18710e-15
  70
    32
  0
VERTEX
  8
0
  5
1731
 10
384.781
 20
-14.3034
 30
3.18785e-15
  70
    32
  0
VERTEX
  8
0
  5
1732
 10
384.779
 20
-14.3090
 30
3.18859e-15
  70
    32
  0
VERTEX
  8
0
  5
1733
 10
384.776
 20
-14.3147
 30
3.18932e-15
  70
    32
  0
VERTEX
  8
0
  5
1734
 10
384.774
 20
-14.3204
 30
3.19006e-15
  70
    32
  0
VERTEX
  8
0
  5
1735
 10
384.772
 20
-14.3260
 30
3.19079e-15
  70
    32
  0
VERTEX
  8
0
  5
1736
 10
384.770
 20
-14.3317
 30
3.19151e-15
  70
    32
  0
VERTEX
  8
0
  5
1737
 10
384.767
 20
-14.3373
 30
3.19224e-15
  70
    32
  0
VERTEX
  8
0
  5
1738
 10
384.765
 20
-14.3429
 30
3.19296e-15
  70
    32
  0
VERTEX
  8
0
  5
1739
 10
384.763
 20
-14.3486
 30
3.19368e-15
  70
    32
  0
VERTEX
  8
0
  5
173A
 10
384.760
 20
-14.3542
 30
3.19440e-15
  70
    32
  0
VERTEX
  8
0
  5
173B
 10
384.758
 20
-14.3598
 30
3.19512e-15
  70
    32
  0
VERTEX
  8
0
  5
173C
 10
384.756
 20
-14.3654
 30
3.19584e-15
  70
    32
  0
VERTEX
  8
0
  5
173D
 10
384.753
 20
-14.3710
 30
3.19656e-15
  70
    32
  0
VERTEX
  8
0
  5
173E
 10
384.751
 20
-14.3765
 30
3.19728e-15
  70
    32
  0
VERTEX
  8
0
  5
173F
 10
384.749
 20
-14.3821
 30
3.19800e-15
  70
    32
  0
VERTEX
  8
0
  5
1740
 10
384.746
 20
-14.3877
 30
3.19872e-15
  70
    32
  0
VERTEX
  8
0
  5
1741
 10
384.744
 20
-14.3932
 30
3.19944e-15
  70
    32
  0
VERTEX
  8
0
  5
1742
 10
384.741
 20
-14.3988
 30
3.20017e-15
  70
    32
  0
VERTEX
  8
0
  5
1743
 10
384.739
 20
-14.4043
 30
3.20090e-15
  70
    32
  0
VERTEX
  8
0
  5
1744
 10
384.736
 20
-14.4098
 30
3.20163e-15
  70
    32
  0
VERTEX
  8
0
  5
1745
 10
384.734
 20
-14.4153
 30
3.20237e-15
  70
    32
  0
VERTEX
  8
0
  5
1746
 10
384.731
 20
-14.4208
 30
3.20310e-15
  70
    32
  0
VERTEX
  8
0
  5
1747
 10
384.729
 20
-14.4263
 30
3.20385e-15
  70
    32
  0
VERTEX
  8
0
  5
1748
 10
384.726
 20
-14.4318
 30
3.20459e-15
  70
    32
  0
VERTEX
  8
0
  5
1749
 10
384.724
 20
-14.4373
 30
3.20535e-15
  70
    32
  0
VERTEX
  8
0
  5
174A
 10
384.721
 20
-14.4427
 30
3.20610e-15
  70
    32
  0
VERTEX
  8
0
  5
174B
 10
384.719
 20
-14.4482
 30
3.20687e-15
  70
    32
  0
VERTEX
  8
0
  5
174C
 10
384.716
 20
-14.4536
 30
3.20764e-15
  70
    32
  0
VERTEX
  8
0
  5
174D
 10
384.713
 20
-14.4590
 30
3.20841e-15
  70
    32
  0
VERTEX
  8
0
  5
174E
 10
384.711
 20
-14.4645
 30
3.20920e-15
  70
    32
  0
VERTEX
  8
0
  5
174F
 10
384.708
 20
-14.4699
 30
3.20999e-15
  70
    32
  0
VERTEX
  8
0
  5
1750
 10
384.705
 20
-14.4753
 30
3.21079e-15
  70
    32
  0
VERTEX
  8
0
  5
1751
 10
384.703
 20
-14.4807
 30
3.21159e-15
  70
    32
  0
VERTEX
  8
0
  5
1752
 10
384.700
 20
-14.4860
 30
3.21241e-15
  70
    32
  0
VERTEX
  8
0
  5
1753
 10
384.697
 20
-14.4914
 30
3.21323e-15
  70
    32
  0
VERTEX
  8
0
  5
1754
 10
384.694
 20
-14.4967
 30
3.21407e-15
  70
    32
  0
VERTEX
  8
0
  5
1755
 10
384.692
 20
-14.5021
 30
3.21491e-15
  70
    32
  0
VERTEX
  8
0
  5
1756
 10
384.689
 20
-14.5074
 30
3.21577e-15
  70
    32
  0
VERTEX
  8
0
  5
1757
 10
384.686
 20
-14.5127
 30
3.21663e-15
  70
    32
  0
VERTEX
  8
0
  5
1758
 10
384.683
 20
-14.5180
 30
3.21751e-15
  70
    32
  0
VERTEX
  8
0
  5
1759
 10
384.680
 20
-14.5233
 30
3.21840e-15
  70
    32
  0
VERTEX
  8
0
  5
175A
 10
384.678
 20
-14.5286
 30
3.21930e-15
  70
    32
  0
VERTEX
  8
0
  5
175B
 10
384.675
 20
-14.5339
 30
3.22021e-15
  70
    32
  0
VERTEX
  8
0
  5
175C
 10
384.672
 20
-14.5391
 30
3.22113e-15
  70
    32
  0
VERTEX
  8
0
  5
175D
 10
384.669
 20
-14.5444
 30
3.22207e-15
  70
    32
  0
VERTEX
  8
0
  5
175E
 10
384.666
 20
-14.5496
 30
3.22302e-15
  70
    32
  0
VERTEX
  8
0
  5
175F
 10
384.663
 20
-14.5548
 30
3.22399e-15
  70
    32
  0
VERTEX
  8
0
  5
1760
 10
384.660
 20
-14.5600
 30
3.22497e-15
  70
    32
  0
VERTEX
  8
0
  5
1761
 10
384.657
 20
-14.5652
 30
3.22597e-15
  70
    32
  0
VERTEX
  8
0
  5
1762
 10
384.654
 20
-14.5704
 30
3.22698e-15
  70
    32
  0
VERTEX
  8
0
  5
1763
 10
384.651
 20
-14.5755
 30
3.22800e-15
  70
    32
  0
VERTEX
  8
0
  5
1764
 10
384.648
 20
-14.5807
 30
3.22904e-15
  70
    32
  0
VERTEX
  8
0
  5
1765
 10
384.645
 20
-14.5858
 30
3.23010e-15
  70
    32
  0
VERTEX
  8
0
  5
1766
 10
384.642
 20
-14.5910
 30
3.23118e-15
  70
    32
  0
VERTEX
  8
0
  5
1767
 10
384.639
 20
-14.5961
 30
3.23227e-15
  70
    32
  0
VERTEX
  8
0
  5
1768
 10
384.636
 20
-14.6012
 30
3.23338e-15
  70
    32
  0
VERTEX
  8
0
  5
1769
 10
384.633
 20
-14.6063
 30
3.23451e-15
  70
    32
  0
VERTEX
  8
0
  5
176A
 10
384.630
 20
-14.6113
 30
3.23565e-15
  70
    32
  0
VERTEX
  8
0
  5
176B
 10
384.626
 20
-14.6164
 30
3.23682e-15
  70
    32
  0
VERTEX
  8
0
  5
176C
 10
384.623
 20
-14.6214
 30
3.23800e-15
  70
    32
  0
VERTEX
  8
0
  5
176D
 10
384.620
 20
-14.6265
 30
3.23921e-15
  70
    32
  0
VERTEX
  8
0
  5
176E
 10
384.617
 20
-14.6315
 30
3.24043e-15
  70
    32
  0
VERTEX
  8
0
  5
176F
 10
384.614
 20
-14.6365
 30
3.24168e-15
  70
    32
  0
VERTEX
  8
0
  5
1770
 10
384.610
 20
-14.6415
 30
3.24295e-15
  70
    32
  0
VERTEX
  8
0
  5
1771
 10
384.607
 20
-14.6464
 30
3.24423e-15
  70
    32
  0
VERTEX
  8
0
  5
1772
 10
384.604
 20
-14.6514
 30
3.24554e-15
  70
    32
  0
VERTEX
  8
0
  5
1773
 10
384.601
 20
-14.6563
 30
3.24687e-15
  70
    32
  0
VERTEX
  8
0
  5
1774
 10
384.597
 20
-14.6613
 30
3.24823e-15
  70
    32
  0
VERTEX
  8
0
  5
1775
 10
384.594
 20
-14.6662
 30
3.24960e-15
  70
    32
  0
VERTEX
  8
0
  5
1776
 10
384.591
 20
-14.6711
 30
3.25100e-15
  70
    32
  0
VERTEX
  8
0
  5
1777
 10
384.587
 20
-14.6760
 30
3.25243e-15
  70
    32
  0
VERTEX
  8
0
  5
1778
 10
384.584
 20
-14.6808
 30
3.25388e-15
  70
    32
  0
VERTEX
  8
0
  5
1779
 10
384.580
 20
-14.6857
 30
3.25535e-15
  70
    32
  0
VERTEX
  8
0
  5
177A
 10
384.577
 20
-14.6905
 30
3.25685e-15
  70
    32
  0
VERTEX
  8
0
  5
177B
 10
384.574
 20
-14.6953
 30
3.25837e-15
  70
    32
  0
VERTEX
  8
0
  5
177C
 10
384.570
 20
-14.7001
 30
3.25992e-15
  70
    32
  0
VERTEX
  8
0
  5
177D
 10
384.567
 20
-14.7049
 30
3.26150e-15
  70
    32
  0
VERTEX
  8
0
  5
177E
 10
384.563
 20
-14.7097
 30
3.26310e-15
  70
    32
  0
VERTEX
  8
0
  5
177F
 10
384.560
 20
-14.7145
 30
3.26473e-15
  70
    32
  0
VERTEX
  8
0
  5
1780
 10
384.556
 20
-14.7192
 30
3.26638e-15
  70
    32
  0
VERTEX
  8
0
  5
1781
 10
384.552
 20
-14.7239
 30
3.26807e-15
  70
    32
  0
VERTEX
  8
0
  5
1782
 10
384.549
 20
-14.7286
 30
3.26972e-15
  70
    32
  0
VERTEX
  8
0
  5
1783
 10
384.545
 20
-14.7334
 30
3.27132e-15
  70
    32
  0
VERTEX
  8
0
  5
1784
 10
384.542
 20
-14.7381
 30
3.27286e-15
  70
    32
  0
VERTEX
  8
0
  5
1785
 10
384.538
 20
-14.7428
 30
3.27434e-15
  70
    32
  0
VERTEX
  8
0
  5
1786
 10
384.534
 20
-14.7475
 30
3.27577e-15
  70
    32
  0
VERTEX
  8
0
  5
1787
 10
384.530
 20
-14.7522
 30
3.27714e-15
  70
    32
  0
VERTEX
  8
0
  5
1788
 10
384.527
 20
-14.7569
 30
3.27846e-15
  70
    32
  0
VERTEX
  8
0
  5
1789
 10
384.523
 20
-14.7616
 30
3.27973e-15
  70
    32
  0
VERTEX
  8
0
  5
178A
 10
384.519
 20
-14.7663
 30
3.28095e-15
  70
    32
  0
VERTEX
  8
0
  5
178B
 10
384.515
 20
-14.7710
 30
3.28212e-15
  70
    32
  0
VERTEX
  8
0
  5
178C
 10
384.511
 20
-14.7757
 30
3.28324e-15
  70
    32
  0
VERTEX
  8
0
  5
178D
 10
384.507
 20
-14.7804
 30
3.28431e-15
  70
    32
  0
VERTEX
  8
0
  5
178E
 10
384.503
 20
-14.7851
 30
3.28533e-15
  70
    32
  0
VERTEX
  8
0
  5
178F
 10
384.499
 20
-14.7897
 30
3.28631e-15
  70
    32
  0
VERTEX
  8
0
  5
1790
 10
384.495
 20
-14.7944
 30
3.28725e-15
  70
    32
  0
VERTEX
  8
0
  5
1791
 10
384.491
 20
-14.7990
 30
3.28814e-15
  70
    32
  0
VERTEX
  8
0
  5
1792
 10
384.487
 20
-14.8036
 30
3.28899e-15
  70
    32
  0
VERTEX
  8
0
  5
1793
 10
384.483
 20
-14.8083
 30
3.28979e-15
  70
    32
  0
VERTEX
  8
0
  5
1794
 10
384.478
 20
-14.8129
 30
3.29056e-15
  70
    32
  0
VERTEX
  8
0
  5
1795
 10
384.474
 20
-14.8174
 30
3.29129e-15
  70
    32
  0
VERTEX
  8
0
  5
1796
 10
384.470
 20
-14.8220
 30
3.29198e-15
  70
    32
  0
VERTEX
  8
0
  5
1797
 10
384.466
 20
-14.8266
 30
3.29263e-15
  70
    32
  0
VERTEX
  8
0
  5
1798
 10
384.461
 20
-14.8311
 30
3.29324e-15
  70
    32
  0
VERTEX
  8
0
  5
1799
 10
384.457
 20
-14.8356
 30
3.29382e-15
  70
    32
  0
VERTEX
  8
0
  5
179A
 10
384.453
 20
-14.8401
 30
3.29437e-15
  70
    32
  0
VERTEX
  8
0
  5
179B
 10
384.448
 20
-14.8446
 30
3.29488e-15
  70
    32
  0
VERTEX
  8
0
  5
179C
 10
384.444
 20
-14.8491
 30
3.29536e-15
  70
    32
  0
VERTEX
  8
0
  5
179D
 10
384.439
 20
-14.8535
 30
3.29581e-15
  70
    32
  0
VERTEX
  8
0
  5
179E
 10
384.435
 20
-14.8579
 30
3.29623e-15
  70
    32
  0
VERTEX
  8
0
  5
179F
 10
384.430
 20
-14.8623
 30
3.29662e-15
  70
    32
  0
VERTEX
  8
0
  5
17A0
 10
384.425
 20
-14.8667
 30
3.29699e-15
  70
    32
  0
VERTEX
  8
0
  5
17A1
 10
384.421
 20
-14.8711
 30
3.29732e-15
  70
    32
  0
VERTEX
  8
0
  5
17A2
 10
384.416
 20
-14.8754
 30
3.29763e-15
  70
    32
  0
VERTEX
  8
0
  5
17A3
 10
384.412
 20
-14.8797
 30
3.29792e-15
  70
    32
  0
VERTEX
  8
0
  5
17A4
 10
384.407
 20
-14.8840
 30
3.29818e-15
  70
    32
  0
VERTEX
  8
0
  5
17A5
 10
384.402
 20
-14.8882
 30
3.29842e-15
  70
    32
  0
VERTEX
  8
0
  5
17A6
 10
384.397
 20
-14.8925
 30
3.29863e-15
  70
    32
  0
VERTEX
  8
0
  5
17A7
 10
384.393
 20
-14.8967
 30
3.29883e-15
  70
    32
  0
VERTEX
  8
0
  5
17A8
 10
384.388
 20
-14.9008
 30
3.29900e-15
  70
    32
  0
VERTEX
  8
0
  5
17A9
 10
384.383
 20
-14.9050
 30
3.29916e-15
  70
    32
  0
VERTEX
  8
0
  5
17AA
 10
384.378
 20
-14.9091
 30
3.29930e-15
  70
    32
  0
VERTEX
  8
0
  5
17AB
 10
384.373
 20
-14.9131
 30
3.29943e-15
  70
    32
  0
VERTEX
  8
0
  5
17AC
 10
384.368
 20
-14.9172
 30
3.29953e-15
  70
    32
  0
VERTEX
  8
0
  5
17AD
 10
384.363
 20
-14.9212
 30
3.29963e-15
  70
    32
  0
VERTEX
  8
0
  5
17AE
 10
384.358
 20
-14.9251
 30
3.29971e-15
  70
    32
  0
VERTEX
  8
0
  5
17AF
 10
384.353
 20
-14.9291
 30
3.29977e-15
  70
    32
  0
VERTEX
  8
0
  5
17B0
 10
384.348
 20
-14.9330
 30
3.29983e-15
  70
    32
  0
VERTEX
  8
0
  5
17B1
 10
384.343
 20
-14.9368
 30
3.29988e-15
  70
    32
  0
VERTEX
  8
0
  5
17B2
 10
384.338
 20
-14.9407
 30
3.29991e-15
  70
    32
  0
VERTEX
  8
0
  5
17B3
 10
384.332
 20
-14.9445
 30
3.29994e-15
  70
    32
  0
VERTEX
  8
0
  5
17B4
 10
384.327
 20
-14.9482
 30
3.29996e-15
  70
    32
  0
VERTEX
  8
0
  5
17B5
 10
384.322
 20
-14.9519
 30
3.29998e-15
  70
    32
  0
VERTEX
  8
0
  5
17B6
 10
384.317
 20
-14.9556
 30
3.29999e-15
  70
    32
  0
VERTEX
  8
0
  5
17B7
 10
384.312
 20
-14.9592
 30
3.30000e-15
  70
    32
  0
VERTEX
  8
0
  5
17B8
 10
384.306
 20
-14.9628
 30
3.30000e-15
  70
    32
  0
VERTEX
  8
0
  5
17B9
 10
384.301
 20
-14.9663
 30
3.30000e-15
  70
    32
  0
VERTEX
  8
0
  5
17BA
 10
384.296
 20
-14.9698
 30
3.30000e-15
  70
    32
  0
VERTEX
  8
0
  5
17BB
 10
384.290
 20
-14.9733
 30
3.30000e-15
  70
    32
  0
VERTEX
  8
0
  5
17BC
 10
384.285
 20
-14.9767
 30
3.30000e-15
  70
    32
  0
VERTEX
  8
0
  5
17BD
 10
384.279
 20
-14.9801
 30
3.30000e-15
  70
    32
  0
VERTEX
  8
0
  5
17BE
 10
384.274
 20
-14.9834
 30
3.30000e-15
  70
    32
  0
VERTEX
  8
0
  5
17BF
 10
384.268
 20
-14.9866
 30
3.30000e-15
  70
    32
  0
VERTEX
  8
0
  5
17C0
 10
384.263
 20
-14.9899
 30
3.30000e-15
  70
    32
  0
VERTEX
  8
0
  5
17C1
 10
384.257
 20
-14.9930
 30
3.30000e-15
  70
    32
  0
VERTEX
  8
0
  5
17C2
 10
384.252
 20
-14.9962
 30
3.30000e-15
  70
    32
  0
VERTEX
  8
0
  5
17C3
 10
384.246
 20
-14.9992
 30
3.30000e-15
  70
    32
  0
VERTEX
  8
0
  5
17C4
 10
384.240
 20
-15.0023
 30
3.30000e-15
  70
    32
  0
VERTEX
  8
0
  5
17C5
 10
384.235
 20
-15.0053
 30
3.30000e-15
  70
    32
  0
VERTEX
  8
0
  5
17C6
 10
384.229
 20
-15.0082
 30
3.30000e-15
  70
    32
  0
VERTEX
  8
0
  5
17C7
 10
384.223
 20
-15.0111
 30
3.30000e-15
  70
    32
  0
VERTEX
  8
0
  5
17C8
 10
384.218
 20
-15.0139
 30
3.30000e-15
  70
    32
  0
VERTEX
  8
0
  5
17C9
 10
384.212
 20
-15.0167
 30
3.30000e-15
  70
    32
  0
VERTEX
  8
0
  5
17CA
 10
384.206
 20
-15.0194
 30
3.30000e-15
  70
    32
  0
VERTEX
  8
0
  5
17CB
 10
384.200
 20
-15.0220
 30
3.30000e-15
  70
    32
  0
VERTEX
  8
0
  5
17CC
 10
384.194
 20
-15.0246
 30
3.30000e-15
  70
    32
  0
VERTEX
  8
0
  5
17CD
 10
384.188
 20
-15.0272
 30
3.30000e-15
  70
    32
  0
VERTEX
  8
0
  5
17CE
 10
384.183
 20
-15.0297
 30
3.30000e-15
  70
    32
  0
VERTEX
  8
0
  5
17CF
 10
384.177
 20
-15.0321
 30
3.30000e-15
  70
    32
  0
VERTEX
  8
0
  5
17D0
 10
384.171
 20
-15.0345
 30
3.30000e-15
  70
    32
  0
VERTEX
  8
0
  5
17D1
 10
384.165
 20
-15.0368
 30
3.30000e-15
  70
    32
  0
VERTEX
  8
0
  5
17D2
 10
384.159
 20
-15.0391
 30
3.30000e-15
  70
    32
  0
VERTEX
  8
0
  5
17D3
 10
384.153
 20
-15.0413
 30
3.30000e-15
  70
    32
  0
VERTEX
  8
0
  5
17D4
 10
384.147
 20
-15.0434
 30
3.30000e-15
  70
    32
  0
VERTEX
  8
0
  5
17D5
 10
384.141
 20
-15.0455
 30
3.30000e-15
  70
    32
  0
VERTEX
  8
0
  5
17D6
 10
384.135
 20
-15.0476
 30
3.30000e-15
  70
    32
  0
VERTEX
  8
0
  5
17D7
 10
384.129
 20
-15.0495
 30
3.30000e-15
  70
    32
  0
VERTEX
  8
0
  5
17D8
 10
384.123
 20
-15.0514
 30
3.30000e-15
  70
    32
  0
VERTEX
  8
0
  5
17D9
 10
384.116
 20
-15.0532
 30
3.30000e-15
  70
    32
  0
VERTEX
  8
0
  5
17DA
 10
384.110
 20
-15.0550
 30
3.30000e-15
  70
    32
  0
VERTEX
  8
0
  5
17DB
 10
384.104
 20
-15.0567
 30
3.30000e-15
  70
    32
  0
VERTEX
  8
0
  5
17DC
 10
384.098
 20
-15.0584
 30
3.30000e-15
  70
    32
  0
VERTEX
  8
0
  5
17DD
 10
384.092
 20
-15.0599
 30
3.30000e-15
  70
    32
  0
VERTEX
  8
0
  5
17DE
 10
384.086
 20
-15.0615
 30
3.30000e-15
  70
    32
  0
VERTEX
  8
0
  5
17DF
 10
384.079
 20
-15.0629
 30
3.30000e-15
  70
    32
  0
VERTEX
  8
0
  5
17E0
 10
384.073
 20
-15.0643
 30
3.30000e-15
  70
    32
  0
VERTEX
  8
0
  5
17E1
 10
384.067
 20
-15.0656
 30
3.30000e-15
  70
    32
  0
VERTEX
  8
0
  5
17E2
 10
384.061
 20
-15.0668
 30
3.30000e-15
  70
    32
  0
VERTEX
  8
0
  5
17E3
 10
384.054
 20
-15.0680
 30
3.30000e-15
  70
    32
  0
VERTEX
  8
0
  5
17E4
 10
384.048
 20
-15.0691
 30
3.30000e-15
  70
    32
  0
VERTEX
  8
0
  5
17E5
 10
384.042
 20
-15.0702
 30
3.30000e-15
  70
    32
  0
VERTEX
  8
0
  5
17E6
 10
384.035
 20
-15.0711
 30
3.30000e-15
  70
    32
  0
VERTEX
  8
0
  5
17E7
 10
384.029
 20
-15.0721
 30
3.30000e-15
  70
    32
  0
VERTEX
  8
0
  5
17E8
 10
384.023
 20
-15.0729
 30
3.30000e-15
  70
    32
  0
VERTEX
  8
0
  5
17E9
 10
384.016
 20
-15.0737
 30
3.30000e-15
  70
    32
  0
VERTEX
  8
0
  5
17EA
 10
384.010
 20
-15.0743
 30
3.30000e-15
  70
    32
  0
VERTEX
  8
0
  5
17EB
 10
384.004
 20
-15.0750
 30
3.30000e-15
  70
    32
  0
VERTEX
  8
0
  5
17EC
 10
383.997
 20
-15.0755
 30
3.30000e-15
  70
    32
  0
VERTEX
  8
0
  5
17ED
 10
383.991
 20
-15.0760
 30
3.30000e-15
  70
    32
  0
VERTEX
  8
0
  5
17EE
 10
383.984
 20
-15.0764
 30
3.30000e-15
  70
    32
  0
VERTEX
  8
0
  5
17EF
 10
383.978
 20
-15.0767
 30
3.30000e-15
  70
    32
  0
VERTEX
  8
0
  5
17F0
 10
383.971
 20
-15.0770
 30
3.30000e-15
  70
    32
  0
VERTEX
  8
0
  5
17F1
 10
383.965
 20
-15.0772
 30
3.30000e-15
  70
    32
  0
VERTEX
  8
0
  5
17F2
 10
383.958
 20
-15.0773
 30
3.30000e-15
  70
    32
  0
VERTEX
  8
0
  5
17F3
 10
383.952
 20
-15.0773
 30
3.30000e-15
  70
    32
  0
SEQEND
  8
0
  5
17F4
  0
POLYLINE
  8
0
  5
17F5
  66
     1
 10
0.000000
 20
0.000000
 30
0.000000
  70
     8
  0
VERTEX
  8
0
  5
17F6
 10
383.168
 20
-12.2589
 30
2.70000e-15
  70
    32
  0
VERTEX
  8
0
  5
17F7
 10
383.170
 20
-12.2556
 30
2.70000e-15
  70
    32
  0
VERTEX
  8
0
  5
17F8
 10
383.171
 20
-12.2524
 30
2.70000e-15
  70
    32
  0
VERTEX
  8
0
  5
17F9
 10
383.173
 20
-12.2492
 30
2.70000e-15
  70
    32
  0
VERTEX
  8
0
  5
17FA
 10
383.174
 20
-12.2459
 30
2.70000e-15
  70
    32
  0
VERTEX
  8
0
  5
17FB
 10
383.176
 20
-12.2427
 30
2.70000e-15
  70
    32
  0
VERTEX
  8
0
  5
17FC
 10
383.177
 20
-12.2395
 30
2.70000e-15
  70
    32
  0
VERTEX
  8
0
  5
17FD
 10
383.179
 20
-12.2363
 30
2.70000e-15
  70
    32
  0
VERTEX
  8
0
  5
17FE
 10
383.181
 20
-12.2331
 30
2.70000e-15
  70
    32
  0
VERTEX
  8
0
  5
17FF
 10
383.182
 20
-12.2299
 30
2.70000e-15
  70
    32
  0
VERTEX
  8
0
  5
1800
 10
383.184
 20
-12.2267
 30
2.70000e-15
  70
    32
  0
VERTEX
  8
0
  5
1801
 10
383.185
 20
-12.2235
 30
2.70000e-15
  70
    32
  0
VERTEX
  8
0
  5
1802
 10
383.187
 20
-12.2203
 30
2.70000e-15
  70
    32
  0
VERTEX
  8
0
  5
1803
 10
383.189
 20
-12.2171
 30
2.70000e-15
  70
    32
  0
VERTEX
  8
0
  5
1804
 10
383.190
 20
-12.2139
 30
2.70000e-15
  70
    32
  0
VERTEX
  8
0
  5
1805
 10
383.192
 20
-12.2108
 30
2.70000e-15
  70
    32
  0
VERTEX
  8
0
  5
1806
 10
383.193
 20
-12.2076
 30
2.70000e-15
  70
    32
  0
VERTEX
  8
0
  5
1807
 10
383.195
 20
-12.2044
 30
2.70000e-15
  70
    32
  0
VERTEX
  8
0
  5
1808
 10
383.197
 20
-12.2013
 30
2.70000e-15
  70
    32
  0
VERTEX
  8
0
  5
1809
 10
383.198
 20
-12.1981
 30
2.70000e-15
  70
    32
  0
VERTEX
  8
0
  5
180A
 10
383.200
 20
-12.1950
 30
2.70000e-15
  70
    32
  0
VERTEX
  8
0
  5
180B
 10
383.202
 20
-12.1918
 30
2.70000e-15
  70
    32
  0
VERTEX
  8
0
  5
180C
 10
383.203
 20
-12.1887
 30
2.70000e-15
  70
    32
  0
VERTEX
  8
0
  5
180D
 10
383.205
 20
-12.1856
 30
2.70000e-15
  70
    32
  0
VERTEX
  8
0
  5
180E
 10
383.207
 20
-12.1824
 30
2.70000e-15
  70
    32
  0
VERTEX
  8
0
  5
180F
 10
383.209
 20
-12.1793
 30
2.70000e-15
  70
    32
  0
VERTEX
  8
0
  5
1810
 10
383.210
 20
-12.1762
 30
2.70000e-15
  70
    32
  0
VERTEX
  8
0
  5
1811
 10
383.212
 20
-12.1731
 30
2.70000e-15
  70
    32
  0
VERTEX
  8
0
  5
1812
 10
383.214
 20
-12.1700
 30
2.70000e-15
  70
    32
  0
VERTEX
  8
0
  5
1813
 10
383.216
 20
-12.1669
 30
2.70000e-15
  70
    32
  0
VERTEX
  8
0
  5
1814
 10
383.217
 20
-12.1638
 30
2.70000e-15
  70
    32
  0
VERTEX
  8
0
  5
1815
 10
383.219
 20
-12.1607
 30
2.70000e-15
  70
    32
  0
VERTEX
  8
0
  5
1816
 10
383.221
 20
-12.1576
 30
2.70000e-15
  70
    32
  0
VERTEX
  8
0
  5
1817
 10
383.223
 20
-12.1545
 30
2.70000e-15
  70
    32
  0
VERTEX
  8
0
  5
1818
 10
383.224
 20
-12.1515
 30
2.70000e-15
  70
    32
  0
VERTEX
  8
0
  5
1819
 10
383.226
 20
-12.1484
 30
2.70000e-15
  70
    32
  0
VERTEX
  8
0
  5
181A
 10
383.228
 20
-12.1454
 30
2.70000e-15
  70
    32
  0
VERTEX
  8
0
  5
181B
 10
383.230
 20
-12.1423
 30
2.70000e-15
  70
    32
  0
VERTEX
  8
0
  5
181C
 10
383.232
 20
-12.1393
 30
2.70000e-15
  70
    32
  0
VERTEX
  8
0
  5
181D
 10
383.234
 20
-12.1362
 30
2.70000e-15
  70
    32
  0
VERTEX
  8
0
  5
181E
 10
383.236
 20
-12.1332
 30
2.70000e-15
  70
    32
  0
VERTEX
  8
0
  5
181F
 10
383.237
 20
-12.1301
 30
2.70000e-15
  70
    32
  0
VERTEX
  8
0
  5
1820
 10
383.239
 20
-12.1271
 30
2.70000e-15
  70
    32
  0
VERTEX
  8
0
  5
1821
 10
383.241
 20
-12.1241
 30
2.70000e-15
  70
    32
  0
VERTEX
  8
0
  5
1822
 10
383.243
 20
-12.1211
 30
2.70000e-15
  70
    32
  0
VERTEX
  8
0
  5
1823
 10
383.245
 20
-12.1181
 30
2.70000e-15
  70
    32
  0
VERTEX
  8
0
  5
1824
 10
383.247
 20
-12.1151
 30
2.70000e-15
  70
    32
  0
VERTEX
  8
0
  5
1825
 10
383.249
 20
-12.1121
 30
2.70000e-15
  70
    32
  0
VERTEX
  8
0
  5
1826
 10
383.251
 20
-12.1091
 30
2.70000e-15
  70
    32
  0
VERTEX
  8
0
  5
1827
 10
383.253
 20
-12.1061
 30
2.70000e-15
  70
    32
  0
VERTEX
  8
0
  5
1828
 10
383.255
 20
-12.1032
 30
2.70000e-15
  70
    32
  0
VERTEX
  8
0
  5
1829
 10
383.257
 20
-12.1002
 30
2.70000e-15
  70
    32
  0
VERTEX
  8
0
  5
182A
 10
383.259
 20
-12.0972
 30
2.70000e-15
  70
    32
  0
VERTEX
  8
0
  5
182B
 10
383.261
 20
-12.0943
 30
2.70000e-15
  70
    32
  0
VERTEX
  8
0
  5
182C
 10
383.263
 20
-12.0913
 30
2.70000e-15
  70
    32
  0
VERTEX
  8
0
  5
182D
 10
383.265
 20
-12.0884
 30
2.70000e-15
  70
    32
  0
VERTEX
  8
0
  5
182E
 10
383.267
 20
-12.0855
 30
2.70000e-15
  70
    32
  0
VERTEX
  8
0
  5
182F
 10
383.269
 20
-12.0825
 30
2.70000e-15
  70
    32
  0
VERTEX
  8
0
  5
1830
 10
383.271
 20
-12.0796
 30
2.70000e-15
  70
    32
  0
VERTEX
  8
0
  5
1831
 10
383.273
 20
-12.0767
 30
2.70000e-15
  70
    32
  0
VERTEX
  8
0
  5
1832
 10
383.275
 20
-12.0738
 30
2.70000e-15
  70
    32
  0
VERTEX
  8
0
  5
1833
 10
383.277
 20
-12.0709
 30
2.70000e-15
  70
    32
  0
VERTEX
  8
0
  5
1834
 10
383.279
 20
-12.0680
 30
2.70000e-15
  70
    32
  0
VERTEX
  8
0
  5
1835
 10
383.281
 20
-12.0651
 30
2.70000e-15
  70
    32
  0
VERTEX
  8
0
  5
1836
 10
383.283
 20
-12.0623
 30
2.70000e-15
  70
    32
  0
VERTEX
  8
0
  5
1837
 10
383.285
 20
-12.0594
 30
2.70000e-15
  70
    32
  0
VERTEX
  8
0
  5
1838
 10
383.287
 20
-12.0565
 30
2.70000e-15
  70
    32
  0
VERTEX
  8
0
  5
1839
 10
383.290
 20
-12.0537
 30
2.70000e-15
  70
    32
  0
VERTEX
  8
0
  5
183A
 10
383.292
 20
-12.0508
 30
2.70000e-15
  70
    32
  0
VERTEX
  8
0
  5
183B
 10
383.294
 20
-12.0480
 30
2.70000e-15
  70
    32
  0
VERTEX
  8
0
  5
183C
 10
383.296
 20
-12.0451
 30
2.70000e-15
  70
    32
  0
VERTEX
  8
0
  5
183D
 10
383.298
 20
-12.0423
 30
2.70000e-15
  70
    32
  0
VERTEX
  8
0
  5
183E
 10
383.300
 20
-12.0395
 30
2.69999e-15
  70
    32
  0
VERTEX
  8
0
  5
183F
 10
383.303
 20
-12.0367
 30
2.69990e-15
  70
    32
  0
VERTEX
  8
0
  5
1840
 10
383.305
 20
-12.0339
 30
2.69968e-15
  70
    32
  0
VERTEX
  8
0
  5
1841
 10
383.307
 20
-12.0311
 30
2.69935e-15
  70
    32
  0
VERTEX
  8
0
  5
1842
 10
383.309
 20
-12.0283
 30
2.69891e-15
  70
    32
  0
VERTEX
  8
0
  5
1843
 10
383.311
 20
-12.0255
 30
2.69835e-15
  70
    32
  0
VERTEX
  8
0
  5
1844
 10
383.314
 20
-12.0228
 30
2.69770e-15
  70
    32
  0
VERTEX
  8
0
  5
1845
 10
383.316
 20
-12.0200
 30
2.69694e-15
  70
    32
  0
VERTEX
  8
0
  5
1846
 10
383.318
 20
-12.0172
 30
2.69608e-15
  70
    32
  0
VERTEX
  8
0
  5
1847
 10
383.321
 20
-12.0145
 30
2.69513e-15
  70
    32
  0
VERTEX
  8
0
  5
1848
 10
383.323
 20
-12.0117
 30
2.69409e-15
  70
    32
  0
VERTEX
  8
0
  5
1849
 10
383.325
 20
-12.0090
 30
2.69296e-15
  70
    32
  0
VERTEX
  8
0
  5
184A
 10
383.327
 20
-12.0063
 30
2.69174e-15
  70
    32
  0
VERTEX
  8
0
  5
184B
 10
383.330
 20
-12.0036
 30
2.69045e-15
  70
    32
  0
VERTEX
  8
0
  5
184C
 10
383.332
 20
-12.0009
 30
2.68908e-15
  70
    32
  0
VERTEX
  8
0
  5
184D
 10
383.335
 20
-11.9982
 30
2.68764e-15
  70
    32
  0
VERTEX
  8
0
  5
184E
 10
383.337
 20
-11.9955
 30
2.68612e-15
  70
    32
  0
VERTEX
  8
0
  5
184F
 10
383.339
 20
-11.9928
 30
2.68455e-15
  70
    32
  0
VERTEX
  8
0
  5
1850
 10
383.342
 20
-11.9901
 30
2.68291e-15
  70
    32
  0
VERTEX
  8
0
  5
1851
 10
383.344
 20
-11.9874
 30
2.68121e-15
  70
    32
  0
VERTEX
  8
0
  5
1852
 10
383.346
 20
-11.9848
 30
2.67945e-15
  70
    32
  0
VERTEX
  8
0
  5
1853
 10
383.349
 20
-11.9821
 30
2.67764e-15
  70
    32
  0
VERTEX
  8
0
  5
1854
 10
383.351
 20
-11.9795
 30
2.67579e-15
  70
    32
  0
VERTEX
  8
0
  5
1855
 10
383.354
 20
-11.9769
 30
2.67389e-15
  70
    32
  0
VERTEX
  8
0
  5
1856
 10
383.356
 20
-11.9742
 30
2.67195e-15
  70
    32
  0
VERTEX
  8
0
  5
1857
 10
383.359
 20
-11.9716
 30
2.66997e-15
  70
    32
  0
VERTEX
  8
0
  5
1858
 10
383.361
 20
-11.9690
 30
2.66796e-15
  70
    32
  0
VERTEX
  8
0
  5
1859
 10
383.364
 20
-11.9664
 30
2.66592e-15
  70
    32
  0
VERTEX
  8
0
  5
185A
 10
383.366
 20
-11.9638
 30
2.66385e-15
  70
    32
  0
VERTEX
  8
0
  5
185B
 10
383.369
 20
-11.9613
 30
2.66176e-15
  70
    32
  0
VERTEX
  8
0
  5
185C
 10
383.371
 20
-11.9587
 30
2.65965e-15
  70
    32
  0
VERTEX
  8
0
  5
185D
 10
383.374
 20
-11.9561
 30
2.65752e-15
  70
    32
  0
VERTEX
  8
0
  5
185E
 10
383.376
 20
-11.9536
 30
2.65538e-15
  70
    32
  0
VERTEX
  8
0
  5
185F
 10
383.379
 20
-11.9510
 30
2.65323e-15
  70
    32
  0
VERTEX
  8
0
  5
1860
 10
383.381
 20
-11.9485
 30
2.65108e-15
  70
    32
  0
VERTEX
  8
0
  5
1861
 10
383.384
 20
-11.9460
 30
2.64892e-15
  70
    32
  0
VERTEX
  8
0
  5
1862
 10
383.387
 20
-11.9435
 30
2.64677e-15
  70
    32
  0
VERTEX
  8
0
  5
1863
 10
383.389
 20
-11.9410
 30
2.64462e-15
  70
    32
  0
VERTEX
  8
0
  5
1864
 10
383.392
 20
-11.9385
 30
2.64248e-15
  70
    32
  0
VERTEX
  8
0
  5
1865
 10
383.394
 20
-11.9360
 30
2.64035e-15
  70
    32
  0
VERTEX
  8
0
  5
1866
 10
383.397
 20
-11.9335
 30
2.63824e-15
  70
    32
  0
VERTEX
  8
0
  5
1867
 10
383.400
 20
-11.9311
 30
2.63615e-15
  70
    32
  0
VERTEX
  8
0
  5
1868
 10
383.402
 20
-11.9286
 30
2.63408e-15
  70
    32
  0
VERTEX
  8
0
  5
1869
 10
383.405
 20
-11.9262
 30
2.63204e-15
  70
    32
  0
VERTEX
  8
0
  5
186A
 10
383.408
 20
-11.9237
 30
2.63003e-15
  70
    32
  0
VERTEX
  8
0
  5
186B
 10
383.410
 20
-11.9213
 30
2.62805e-15
  70
    32
  0
VERTEX
  8
0
  5
186C
 10
383.413
 20
-11.9189
 30
2.62611e-15
  70
    32
  0
VERTEX
  8
0
  5
186D
 10
383.416
 20
-11.9165
 30
2.62421e-15
  70
    32
  0
VERTEX
  8
0
  5
186E
 10
383.419
 20
-11.9141
 30
2.62236e-15
  70
    32
  0
VERTEX
  8
0
  5
186F
 10
383.421
 20
-11.9117
 30
2.62055e-15
  70
    32
  0
VERTEX
  8
0
  5
1870
 10
383.424
 20
-11.9093
 30
2.61880e-15
  70
    32
  0
VERTEX
  8
0
  5
1871
 10
383.427
 20
-11.9070
 30
2.61710e-15
  70
    32
  0
VERTEX
  8
0
  5
1872
 10
383.430
 20
-11.9046
 30
2.61546e-15
  70
    32
  0
VERTEX
  8
0
  5
1873
 10
383.432
 20
-11.9023
 30
2.61388e-15
  70
    32
  0
VERTEX
  8
0
  5
1874
 10
383.435
 20
-11.9000
 30
2.61237e-15
  70
    32
  0
VERTEX
  8
0
  5
1875
 10
383.438
 20
-11.8976
 30
2.61092e-15
  70
    32
  0
VERTEX
  8
0
  5
1876
 10
383.441
 20
-11.8953
 30
2.60955e-15
  70
    32
  0
VERTEX
  8
0
  5
1877
 10
383.444
 20
-11.8930
 30
2.60826e-15
  70
    32
  0
VERTEX
  8
0
  5
1878
 10
383.447
 20
-11.8907
 30
2.60705e-15
  70
    32
  0
VERTEX
  8
0
  5
1879
 10
383.449
 20
-11.8885
 30
2.60592e-15
  70
    32
  0
VERTEX
  8
0
  5
187A
 10
383.452
 20
-11.8862
 30
2.60487e-15
  70
    32
  0
VERTEX
  8
0
  5
187B
 10
383.455
 20
-11.8839
 30
2.60392e-15
  70
    32
  0
VERTEX
  8
0
  5
187C
 10
383.458
 20
-11.8817
 30
2.60306e-15
  70
    32
  0
VERTEX
  8
0
  5
187D
 10
383.461
 20
-11.8795
 30
2.60230e-15
  70
    32
  0
VERTEX
  8
0
  5
187E
 10
383.464
 20
-11.8772
 30
2.60165e-15
  70
    32
  0
VERTEX
  8
0
  5
187F
 10
383.467
 20
-11.8750
 30
2.60109e-15
  70
    32
  0
VERTEX
  8
0
  5
1880
 10
383.470
 20
-11.8728
 30
2.60065e-15
  70
    32
  0
VERTEX
  8
0
  5
1881
 10
383.473
 20
-11.8706
 30
2.60032e-15
  70
    32
  0
VERTEX
  8
0
  5
1882
 10
383.476
 20
-11.8685
 30
2.60010e-15
  70
    32
  0
VERTEX
  8
0
  5
1883
 10
383.479
 20
-11.8663
 30
2.60001e-15
  70
    32
  0
VERTEX
  8
0
  5
1884
 10
383.482
 20
-11.8641
 30
2.60000e-15
  70
    32
  0
VERTEX
  8
0
  5
1885
 10
383.485
 20
-11.8620
 30
2.60000e-15
  70
    32
  0
VERTEX
  8
0
  5
1886
 10
383.488
 20
-11.8599
 30
2.60000e-15
  70
    32
  0
VERTEX
  8
0
  5
1887
 10
383.491
 20
-11.8578
 30
2.60000e-15
  70
    32
  0
VERTEX
  8
0
  5
1888
 10
383.494
 20
-11.8557
 30
2.60000e-15
  70
    32
  0
VERTEX
  8
0
  5
1889
 10
383.497
 20
-11.8536
 30
2.60000e-15
  70
    32
  0
VERTEX
  8
0
  5
188A
 10
383.500
 20
-11.8515
 30
2.60000e-15
  70
    32
  0
VERTEX
  8
0
  5
188B
 10
383.503
 20
-11.8494
 30
2.60000e-15
  70
    32
  0
VERTEX
  8
0
  5
188C
 10
383.506
 20
-11.8474
 30
2.60000e-15
  70
    32
  0
VERTEX
  8
0
  5
188D
 10
383.509
 20
-11.8453
 30
2.60000e-15
  70
    32
  0
VERTEX
  8
0
  5
188E
 10
383.512
 20
-11.8433
 30
2.60000e-15
  70
    32
  0
VERTEX
  8
0
  5
188F
 10
383.515
 20
-11.8413
 30
2.60000e-15
  70
    32
  0
VERTEX
  8
0
  5
1890
 10
383.519
 20
-11.8393
 30
2.60000e-15
  70
    32
  0
VERTEX
  8
0
  5
1891
 10
383.522
 20
-11.8373
 30
2.60000e-15
  70
    32
  0
VERTEX
  8
0
  5
1892
 10
383.525
 20
-11.8353
 30
2.60000e-15
  70
    32
  0
VERTEX
  8
0
  5
1893
 10
383.528
 20
-11.8334
 30
2.60000e-15
  70
    32
  0
VERTEX
  8
0
  5
1894
 10
383.531
 20
-11.8314
 30
2.60000e-15
  70
    32
  0
VERTEX
  8
0
  5
1895
 10
383.534
 20
-11.8295
 30
2.60000e-15
  70
    32
  0
VERTEX
  8
0
  5
1896
 10
383.538
 20
-11.8276
 30
2.60000e-15
  70
    32
  0
VERTEX
  8
0
  5
1897
 10
383.541
 20
-11.8257
 30
2.60000e-15
  70
    32
  0
VERTEX
  8
0
  5
1898
 10
383.544
 20
-11.8238
 30
2.60000e-15
  70
    32
  0
VERTEX
  8
0
  5
1899
 10
383.547
 20
-11.8219
 30
2.60000e-15
  70
    32
  0
VERTEX
  8
0
  5
189A
 10
383.550
 20
-11.8201
 30
2.60000e-15
  70
    32
  0
VERTEX
  8
0
  5
189B
 10
383.554
 20
-11.8182
 30
2.60000e-15
  70
    32
  0
VERTEX
  8
0
  5
189C
 10
383.557
 20
-11.8164
 30
2.60000e-15
  70
    32
  0
VERTEX
  8
0
  5
189D
 10
383.560
 20
-11.8145
 30
2.60000e-15
  70
    32
  0
VERTEX
  8
0
  5
189E
 10
383.564
 20
-11.8127
 30
2.60000e-15
  70
    32
  0
VERTEX
  8
0
  5
189F
 10
383.567
 20
-11.8109
 30
2.60000e-15
  70
    32
  0
VERTEX
  8
0
  5
18A0
 10
383.570
 20
-11.8092
 30
2.60000e-15
  70
    32
  0
VERTEX
  8
0
  5
18A1
 10
383.573
 20
-11.8074
 30
2.60000e-15
  70
    32
  0
VERTEX
  8
0
  5
18A2
 10
383.577
 20
-11.8056
 30
2.60000e-15
  70
    32
  0
VERTEX
  8
0
  5
18A3
 10
383.580
 20
-11.8039
 30
2.60000e-15
  70
    32
  0
VERTEX
  8
0
  5
18A4
 10
383.583
 20
-11.8022
 30
2.60000e-15
  70
    32
  0
VERTEX
  8
0
  5
18A5
 10
383.587
 20
-11.8005
 30
2.60000e-15
  70
    32
  0
VERTEX
  8
0
  5
18A6
 10
383.590
 20
-11.7988
 30
2.60000e-15
  70
    32
  0
VERTEX
  8
0
  5
18A7
 10
383.594
 20
-11.7971
 30
2.60000e-15
  70
    32
  0
VERTEX
  8
0
  5
18A8
 10
383.597
 20
-11.7954
 30
2.60000e-15
  70
    32
  0
VERTEX
  8
0
  5
18A9
 10
383.600
 20
-11.7938
 30
2.60000e-15
  70
    32
  0
VERTEX
  8
0
  5
18AA
 10
383.604
 20
-11.7922
 30
2.60000e-15
  70
    32
  0
VERTEX
  8
0
  5
18AB
 10
383.607
 20
-11.7905
 30
2.60000e-15
  70
    32
  0
VERTEX
  8
0
  5
18AC
 10
383.611
 20
-11.7889
 30
2.60000e-15
  70
    32
  0
VERTEX
  8
0
  5
18AD
 10
383.614
 20
-11.7873
 30
2.60000e-15
  70
    32
  0
VERTEX
  8
0
  5
18AE
 10
383.618
 20
-11.7858
 30
2.60000e-15
  70
    32
  0
VERTEX
  8
0
  5
18AF
 10
383.621
 20
-11.7842
 30
2.60000e-15
  70
    32
  0
VERTEX
  8
0
  5
18B0
 10
383.624
 20
-11.7827
 30
2.60000e-15
  70
    32
  0
VERTEX
  8
0
  5
18B1
 10
383.628
 20
-11.7811
 30
2.60000e-15
  70
    32
  0
VERTEX
  8
0
  5
18B2
 10
383.631
 20
-11.7796
 30
2.60000e-15
  70
    32
  0
VERTEX
  8
0
  5
18B3
 10
383.635
 20
-11.7781
 30
2.60000e-15
  70
    32
  0
VERTEX
  8
0
  5
18B4
 10
383.638
 20
-11.7766
 30
2.60000e-15
  70
    32
  0
VERTEX
  8
0
  5
18B5
 10
383.642
 20
-11.7752
 30
2.60000e-15
  70
    32
  0
VERTEX
  8
0
  5
18B6
 10
383.646
 20
-11.7737
 30
2.60000e-15
  70
    32
  0
VERTEX
  8
0
  5
18B7
 10
383.649
 20
-11.7723
 30
2.60000e-15
  70
    32
  0
VERTEX
  8
0
  5
18B8
 10
383.653
 20
-11.7709
 30
2.60000e-15
  70
    32
  0
VERTEX
  8
0
  5
18B9
 10
383.656
 20
-11.7694
 30
2.60000e-15
  70
    32
  0
VERTEX
  8
0
  5
18BA
 10
383.660
 20
-11.7681
 30
2.60000e-15
  70
    32
  0
VERTEX
  8
0
  5
18BB
 10
383.663
 20
-11.7667
 30
2.60000e-15
  70
    32
  0
VERTEX
  8
0
  5
18BC
 10
383.667
 20
-11.7653
 30
2.60000e-15
  70
    32
  0
VERTEX
  8
0
  5
18BD
 10
383.671
 20
-11.7640
 30
2.60000e-15
  70
    32
  0
VERTEX
  8
0
  5
18BE
 10
383.674
 20
-11.7627
 30
2.60000e-15
  70
    32
  0
VERTEX
  8
0
  5
18BF
 10
383.678
 20
-11.7613
 30
2.60000e-15
  70
    32
  0
VERTEX
  8
0
  5
18C0
 10
383.681
 20
-11.7600
 30
2.60000e-15
  70
    32
  0
VERTEX
  8
0
  5
18C1
 10
383.685
 20
-11.7588
 30
2.60000e-15
  70
    32
  0
VERTEX
  8
0
  5
18C2
 10
383.689
 20
-11.7575
 30
2.60000e-15
  70
    32
  0
VERTEX
  8
0
  5
18C3
 10
383.692
 20
-11.7563
 30
2.60000e-15
  70
    32
  0
VERTEX
  8
0
  5
18C4
 10
383.696
 20
-11.7550
 30
2.60000e-15
  70
    32
  0
VERTEX
  8
0
  5
18C5
 10
383.700
 20
-11.7538
 30
2.60000e-15
  70
    32
  0
VERTEX
  8
0
  5
18C6
 10
383.703
 20
-11.7526
 30
2.60000e-15
  70
    32
  0
VERTEX
  8
0
  5
18C7
 10
383.707
 20
-11.7514
 30
2.60000e-15
  70
    32
  0
VERTEX
  8
0
  5
18C8
 10
383.711
 20
-11.7503
 30
2.60000e-15
  70
    32
  0
VERTEX
  8
0
  5
18C9
 10
383.715
 20
-11.7491
 30
2.60000e-15
  70
    32
  0
VERTEX
  8
0
  5
18CA
 10
383.718
 20
-11.7480
 30
2.60000e-15
  70
    32
  0
VERTEX
  8
0
  5
18CB
 10
383.722
 20
-11.7469
 30
2.60000e-15
  70
    32
  0
VERTEX
  8
0
  5
18CC
 10
383.726
 20
-11.7458
 30
2.60000e-15
  70
    32
  0
VERTEX
  8
0
  5
18CD
 10
383.730
 20
-11.7447
 30
2.60000e-15
  70
    32
  0
VERTEX
  8
0
  5
18CE
 10
383.733
 20
-11.7436
 30
2.60000e-15
  70
    32
  0
VERTEX
  8
0
  5
18CF
 10
383.737
 20
-11.7426
 30
2.60000e-15
  70
    32
  0
VERTEX
  8
0
  5
18D0
 10
383.741
 20
-11.7416
 30
2.60000e-15
  70
    32
  0
VERTEX
  8
0
  5
18D1
 10
383.745
 20
-11.7406
 30
2.60000e-15
  70
    32
  0
VERTEX
  8
0
  5
18D2
 10
383.749
 20
-11.7396
 30
2.60000e-15
  70
    32
  0
VERTEX
  8
0
  5
18D3
 10
383.752
 20
-11.7386
 30
2.60000e-15
  70
    32
  0
VERTEX
  8
0
  5
18D4
 10
383.756
 20
-11.7377
 30
2.60000e-15
  70
    32
  0
VERTEX
  8
0
  5
18D5
 10
383.760
 20
-11.7367
 30
2.60000e-15
  70
    32
  0
VERTEX
  8
0
  5
18D6
 10
383.764
 20
-11.7358
 30
2.60000e-15
  70
    32
  0
VERTEX
  8
0
  5
18D7
 10
383.768
 20
-11.7349
 30
2.60000e-15
  70
    32
  0
VERTEX
  8
0
  5
18D8
 10
383.771
 20
-11.7340
 30
2.60000e-15
  70
    32
  0
VERTEX
  8
0
  5
18D9
 10
383.775
 20
-11.7332
 30
2.60000e-15
  70
    32
  0
VERTEX
  8
0
  5
18DA
 10
383.779
 20
-11.7323
 30
2.60000e-15
  70
    32
  0
VERTEX
  8
0
  5
18DB
 10
383.783
 20
-11.7315
 30
2.60000e-15
  70
    32
  0
VERTEX
  8
0
  5
18DC
 10
383.787
 20
-11.7307
 30
2.60000e-15
  70
    32
  0
VERTEX
  8
0
  5
18DD
 10
383.791
 20
-11.7299
 30
2.60000e-15
  70
    32
  0
VERTEX
  8
0
  5
18DE
 10
383.794
 20
-11.7291
 30
2.60000e-15
  70
    32
  0
VERTEX
  8
0
  5
18DF
 10
383.798
 20
-11.7284
 30
2.60000e-15
  70
    32
  0
VERTEX
  8
0
  5
18E0
 10
383.802
 20
-11.7277
 30
2.60000e-15
  70
    32
  0
VERTEX
  8
0
  5
18E1
 10
383.806
 20
-11.7269
 30
2.60000e-15
  70
    32
  0
VERTEX
  8
0
  5
18E2
 10
383.810
 20
-11.7262
 30
2.60000e-15
  70
    32
  0
VERTEX
  8
0
  5
18E3
 10
383.814
 20
-11.7256
 30
2.60000e-15
  70
    32
  0
VERTEX
  8
0
  5
18E4
 10
383.818
 20
-11.7249
 30
2.60000e-15
  70
    32
  0
VERTEX
  8
0
  5
18E5
 10
383.822
 20
-11.7243
 30
2.60000e-15
  70
    32
  0
VERTEX
  8
0
  5
18E6
 10
383.825
 20
-11.7237
 30
2.60000e-15
  70
    32
  0
VERTEX
  8
0
  5
18E7
 10
383.829
 20
-11.7231
 30
2.60000e-15
  70
    32
  0
VERTEX
  8
0
  5
18E8
 10
383.833
 20
-11.7225
 30
2.60000e-15
  70
    32
  0
VERTEX
  8
0
  5
18E9
 10
383.837
 20
-11.7219
 30
2.60000e-15
  70
    32
  0
VERTEX
  8
0
  5
18EA
 10
383.841
 20
-11.7214
 30
2.60000e-15
  70
    32
  0
VERTEX
  8
0
  5
18EB
 10
383.845
 20
-11.7208
 30
2.60000e-15
  70
    32
  0
VERTEX
  8
0
  5
18EC
 10
383.849
 20
-11.7203
 30
2.60000e-15
  70
    32
  0
VERTEX
  8
0
  5
18ED
 10
383.853
 20
-11.7198
 30
2.60000e-15
  70
    32
  0
VERTEX
  8
0
  5
18EE
 10
383.857
 20
-11.7194
 30
2.60000e-15
  70
    32
  0
VERTEX
  8
0
  5
18EF
 10
383.861
 20
-11.7189
 30
2.60000e-15
  70
    32
  0
VERTEX
  8
0
  5
18F0
 10
383.865
 20
-11.7185
 30
2.60000e-15
  70
    32
  0
VERTEX
  8
0
  5
18F1
 10
383.869
 20
-11.7181
 30
2.60000e-15
  70
    32
  0
VERTEX
  8
0
  5
18F2
 10
383.872
 20
-11.7177
 30
2.60000e-15
  70
    32
  0
VERTEX
  8
0
  5
18F3
 10
383.876
 20
-11.7173
 30
2.60000e-15
  70
    32
  0
VERTEX
  8
0
  5
18F4
 10
383.880
 20
-11.7170
 30
2.60000e-15
  70
    32
  0
VERTEX
  8
0
  5
18F5
 10
383.884
 20
-11.7166
 30
2.60000e-15
  70
    32
  0
VERTEX
  8
0
  5
18F6
 10
383.888
 20
-11.7163
 30
2.60000e-15
  70
    32
  0
VERTEX
  8
0
  5
18F7
 10
383.892
 20
-11.7160
 30
2.60000e-15
  70
    32
  0
VERTEX
  8
0
  5
18F8
 10
383.896
 20
-11.7157
 30
2.60000e-15
  70
    32
  0
VERTEX
  8
0
  5
18F9
 10
383.900
 20
-11.7155
 30
2.60000e-15
  70
    32
  0
VERTEX
  8
0
  5
18FA
 10
383.904
 20
-11.7152
 30
2.60000e-15
  70
    32
  0
VERTEX
  8
0
  5
18FB
 10
383.908
 20
-11.7150
 30
2.60000e-15
  70
    32
  0
VERTEX
  8
0
  5
18FC
 10
383.912
 20
-11.7148
 30
2.60000e-15
  70
    32
  0
VERTEX
  8
0
  5
18FD
 10
383.916
 20
-11.7146
 30
2.60000e-15
  70
    32
  0
VERTEX
  8
0
  5
18FE
 10
383.920
 20
-11.7144
 30
2.60000e-15
  70
    32
  0
VERTEX
  8
0
  5
18FF
 10
383.924
 20
-11.7143
 30
2.60000e-15
  70
    32
  0
VERTEX
  8
0
  5
1900
 10
383.928
 20
-11.7142
 30
2.60000e-15
  70
    32
  0
VERTEX
  8
0
  5
1901
 10
383.932
 20
-11.7141
 30
2.60000e-15
  70
    32
  0
VERTEX
  8
0
  5
1902
 10
383.936
 20
-11.7140
 30
2.60000e-15
  70
    32
  0
VERTEX
  8
0
  5
1903
 10
383.940
 20
-11.7139
 30
2.60000e-15
  70
    32
  0
VERTEX
  8
0
  5
1904
 10
383.944
 20
-11.7139
 30
2.60000e-15
  70
    32
  0
VERTEX
  8
0
  5
1905
 10
383.948
 20
-11.7138
 30
2.60000e-15
  70
    32
  0
VERTEX
  8
0
  5
1906
 10
383.952
 20
-11.7138
 30
2.60000e-15
  70
    32
  0
VERTEX
  8
0
  5
1907
 10
383.956
 20
-11.7138
 30
2.60000e-15
  70
    32
  0
VERTEX
  8
0
  5
1908
 10
383.960
 20
-11.7139
 30
2.60000e-15
  70
    32
  0
VERTEX
  8
0
  5
1909
 10
383.964
 20
-11.7139
 30
2.60000e-15
  70
    32
  0
VERTEX
  8
0
  5
190A
 10
383.968
 20
-11.7140
 30
2.60000e-15
  70
    32
  0
VERTEX
  8
0
  5
190B
 10
383.972
 20
-11.7141
 30
2.60000e-15
  70
    32
  0
VERTEX
  8
0
  5
190C
 10
383.976
 20
-11.7142
 30
2.60000e-15
  70
    32
  0
VERTEX
  8
0
  5
190D
 10
383.980
 20
-11.7143
 30
2.60000e-15
  70
    32
  0
VERTEX
  8
0
  5
190E
 10
383.984
 20
-11.7145
 30
2.60000e-15
  70
    32
  0
VERTEX
  8
0
  5
190F
 10
383.988
 20
-11.7146
 30
2.60000e-15
  70
    32
  0
VERTEX
  8
0
  5
1910
 10
383.992
 20
-11.7148
 30
2.60000e-15
  70
    32
  0
VERTEX
  8
0
  5
1911
 10
383.996
 20
-11.7150
 30
2.60000e-15
  70
    32
  0
VERTEX
  8
0
  5
1912
 10
384.000
 20
-11.7152
 30
2.60000e-15
  70
    32
  0
VERTEX
  8
0
  5
1913
 10
384.004
 20
-11.7155
 30
2.60000e-15
  70
    32
  0
VERTEX
  8
0
  5
1914
 10
384.008
 20
-11.7157
 30
2.60000e-15
  70
    32
  0
VERTEX
  8
0
  5
1915
 10
384.012
 20
-11.7160
 30
2.60000e-15
  70
    32
  0
VERTEX
  8
0
  5
1916
 10
384.016
 20
-11.7163
 30
2.60000e-15
  70
    32
  0
VERTEX
  8
0
  5
1917
 10
384.020
 20
-11.7166
 30
2.60000e-15
  70
    32
  0
VERTEX
  8
0
  5
1918
 10
384.024
 20
-11.7170
 30
2.60000e-15
  70
    32
  0
VERTEX
  8
0
  5
1919
 10
384.028
 20
-11.7173
 30
2.60000e-15
  70
    32
  0
VERTEX
  8
0
  5
191A
 10
384.032
 20
-11.7177
 30
2.60000e-15
  70
    32
  0
VERTEX
  8
0
  5
191B
 10
384.036
 20
-11.7181
 30
2.60000e-15
  70
    32
  0
VERTEX
  8
0
  5
191C
 10
384.039
 20
-11.7185
 30
2.60000e-15
  70
    32
  0
VERTEX
  8
0
  5
191D
 10
384.043
 20
-11.7190
 30
2.60000e-15
  70
    32
  0
VERTEX
  8
0
  5
191E
 10
384.047
 20
-11.7194
 30
2.60000e-15
  70
    32
  0
VERTEX
  8
0
  5
191F
 10
384.051
 20
-11.7199
 30
2.60000e-15
  70
    32
  0
VERTEX
  8
0
  5
1920
 10
384.055
 20
-11.7204
 30
2.60000e-15
  70
    32
  0
VERTEX
  8
0
  5
1921
 10
384.059
 20
-11.7209
 30
2.60000e-15
  70
    32
  0
VERTEX
  8
0
  5
1922
 10
384.063
 20
-11.7214
 30
2.60000e-15
  70
    32
  0
VERTEX
  8
0
  5
1923
 10
384.067
 20
-11.7220
 30
2.60000e-15
  70
    32
  0
VERTEX
  8
0
  5
1924
 10
384.071
 20
-11.7225
 30
2.60000e-15
  70
    32
  0
VERTEX
  8
0
  5
1925
 10
384.075
 20
-11.7231
 30
2.60000e-15
  70
    32
  0
VERTEX
  8
0
  5
1926
 10
384.079
 20
-11.7237
 30
2.60000e-15
  70
    32
  0
VERTEX
  8
0
  5
1927
 10
384.082
 20
-11.7243
 30
2.60000e-15
  70
    32
  0
VERTEX
  8
0
  5
1928
 10
384.086
 20
-11.7250
 30
2.60000e-15
  70
    32
  0
VERTEX
  8
0
  5
1929
 10
384.090
 20
-11.7256
 30
2.60000e-15
  70
    32
  0
VERTEX
  8
0
  5
192A
 10
384.094
 20
-11.7263
 30
2.60000e-15
  70
    32
  0
VERTEX
  8
0
  5
192B
 10
384.098
 20
-11.7270
 30
2.60000e-15
  70
    32
  0
VERTEX
  8
0
  5
192C
 10
384.102
 20
-11.7277
 30
2.60000e-15
  70
    32
  0
VERTEX
  8
0
  5
192D
 10
384.106
 20
-11.7284
 30
2.60000e-15
  70
    32
  0
VERTEX
  8
0
  5
192E
 10
384.110
 20
-11.7292
 30
2.60000e-15
  70
    32
  0
VERTEX
  8
0
  5
192F
 10
384.113
 20
-11.7300
 30
2.60000e-15
  70
    32
  0
VERTEX
  8
0
  5
1930
 10
384.117
 20
-11.7307
 30
2.60000e-15
  70
    32
  0
VERTEX
  8
0
  5
1931
 10
384.121
 20
-11.7315
 30
2.60000e-15
  70
    32
  0
VERTEX
  8
0
  5
1932
 10
384.125
 20
-11.7324
 30
2.60000e-15
  70
    32
  0
VERTEX
  8
0
  5
1933
 10
384.129
 20
-11.7332
 30
2.60000e-15
  70
    32
  0
VERTEX
  8
0
  5
1934
 10
384.133
 20
-11.7341
 30
2.60000e-15
  70
    32
  0
VERTEX
  8
0
  5
1935
 10
384.136
 20
-11.7349
 30
2.60000e-15
  70
    32
  0
VERTEX
  8
0
  5
1936
 10
384.140
 20
-11.7358
 30
2.60000e-15
  70
    32
  0
VERTEX
  8
0
  5
1937
 10
384.144
 20
-11.7367
 30
2.60000e-15
  70
    32
  0
VERTEX
  8
0
  5
1938
 10
384.148
 20
-11.7377
 30
2.60000e-15
  70
    32
  0
VERTEX
  8
0
  5
1939
 10
384.152
 20
-11.7386
 30
2.60000e-15
  70
    32
  0
VERTEX
  8
0
  5
193A
 10
384.155
 20
-11.7396
 30
2.60000e-15
  70
    32
  0
VERTEX
  8
0
  5
193B
 10
384.159
 20
-11.7406
 30
2.60000e-15
  70
    32
  0
VERTEX
  8
0
  5
193C
 10
384.163
 20
-11.7416
 30
2.60000e-15
  70
    32
  0
VERTEX
  8
0
  5
193D
 10
384.167
 20
-11.7426
 30
2.60000e-15
  70
    32
  0
VERTEX
  8
0
  5
193E
 10
384.170
 20
-11.7436
 30
2.60000e-15
  70
    32
  0
VERTEX
  8
0
  5
193F
 10
384.174
 20
-11.7447
 30
2.60000e-15
  70
    32
  0
VERTEX
  8
0
  5
1940
 10
384.178
 20
-11.7458
 30
2.60000e-15
  70
    32
  0
VERTEX
  8
0
  5
1941
 10
384.182
 20
-11.7469
 30
2.60000e-15
  70
    32
  0
VERTEX
  8
0
  5
1942
 10
384.185
 20
-11.7480
 30
2.60000e-15
  70
    32
  0
VERTEX
  8
0
  5
1943
 10
384.189
 20
-11.7491
 30
2.60000e-15
  70
    32
  0
VERTEX
  8
0
  5
1944
 10
384.193
 20
-11.7503
 30
2.60000e-15
  70
    32
  0
VERTEX
  8
0
  5
1945
 10
384.197
 20
-11.7514
 30
2.60000e-15
  70
    32
  0
VERTEX
  8
0
  5
1946
 10
384.200
 20
-11.7526
 30
2.60000e-15
  70
    32
  0
VERTEX
  8
0
  5
1947
 10
384.204
 20
-11.7538
 30
2.60000e-15
  70
    32
  0
VERTEX
  8
0
  5
1948
 10
384.208
 20
-11.7550
 30
2.60000e-15
  70
    32
  0
VERTEX
  8
0
  5
1949
 10
384.211
 20
-11.7562
 30
2.60000e-15
  70
    32
  0
VERTEX
  8
0
  5
194A
 10
384.215
 20
-11.7575
 30
2.60000e-15
  70
    32
  0
VERTEX
  8
0
  5
194B
 10
384.219
 20
-11.7588
 30
2.60000e-15
  70
    32
  0
VERTEX
  8
0
  5
194C
 10
384.222
 20
-11.7600
 30
2.60000e-15
  70
    32
  0
VERTEX
  8
0
  5
194D
 10
384.226
 20
-11.7613
 30
2.60000e-15
  70
    32
  0
VERTEX
  8
0
  5
194E
 10
384.230
 20
-11.7627
 30
2.60000e-15
  70
    32
  0
VERTEX
  8
0
  5
194F
 10
384.233
 20
-11.7640
 30
2.60000e-15
  70
    32
  0
VERTEX
  8
0
  5
1950
 10
384.237
 20
-11.7654
 30
2.60001e-15
  70
    32
  0
VERTEX
  8
0
  5
1951
 10
384.241
 20
-11.7667
 30
2.60002e-15
  70
    32
  0
VERTEX
  8
0
  5
1952
 10
384.244
 20
-11.7681
 30
2.60003e-15
  70
    32
  0
VERTEX
  8
0
  5
1953
 10
384.248
 20
-11.7695
 30
2.60004e-15
  70
    32
  0
VERTEX
  8
0
  5
1954
 10
384.251
 20
-11.7710
 30
2.60006e-15
  70
    32
  0
VERTEX
  8
0
  5
1955
 10
384.255
 20
-11.7724
 30
2.60009e-15
  70
    32
  0
VERTEX
  8
0
  5
1956
 10
384.259
 20
-11.7739
 30
2.60012e-15
  70
    32
  0
VERTEX
  8
0
  5
1957
 10
384.262
 20
-11.7754
 30
2.60016e-15
  70
    32
  0
VERTEX
  8
0
  5
1958
 10
384.266
 20
-11.7769
 30
2.60020e-15
  70
    32
  0
VERTEX
  8
0
  5
1959
 10
384.270
 20
-11.7784
 30
2.60026e-15
  70
    32
  0
VERTEX
  8
0
  5
195A
 10
384.273
 20
-11.7800
 30
2.60032e-15
  70
    32
  0
VERTEX
  8
0
  5
195B
 10
384.277
 20
-11.7815
 30
2.60039e-15
  70
    32
  0
VERTEX
  8
0
  5
195C
 10
384.280
 20
-11.7831
 30
2.60047e-15
  70
    32
  0
VERTEX
  8
0
  5
195D
 10
384.284
 20
-11.7847
 30
2.60056e-15
  70
    32
  0
VERTEX
  8
0
  5
195E
 10
384.287
 20
-11.7863
 30
2.60066e-15
  70
    32
  0
VERTEX
  8
0
  5
195F
 10
384.291
 20
-11.7880
 30
2.60077e-15
  70
    32
  0
VERTEX
  8
0
  5
1960
 10
384.295
 20
-11.7896
 30
2.60089e-15
  70
    32
  0
VERTEX
  8
0
  5
1961
 10
384.298
 20
-11.7913
 30
2.60103e-15
  70
    32
  0
VERTEX
  8
0
  5
1962
 10
384.302
 20
-11.7930
 30
2.60118e-15
  70
    32
  0
VERTEX
  8
0
  5
1963
 10
384.305
 20
-11.7947
 30
2.60135e-15
  70
    32
  0
VERTEX
  8
0
  5
1964
 10
384.309
 20
-11.7964
 30
2.60153e-15
  70
    32
  0
VERTEX
  8
0
  5
1965
 10
384.312
 20
-11.7982
 30
2.60172e-15
  70
    32
  0
VERTEX
  8
0
  5
1966
 10
384.316
 20
-11.7999
 30
2.60193e-15
  70
    32
  0
VERTEX
  8
0
  5
1967
 10
384.319
 20
-11.8017
 30
2.60216e-15
  70
    32
  0
VERTEX
  8
0
  5
1968
 10
384.323
 20
-11.8035
 30
2.60241e-15
  70
    32
  0
VERTEX
  8
0
  5
1969
 10
384.326
 20
-11.8054
 30
2.60267e-15
  70
    32
  0
VERTEX
  8
0
  5
196A
 10
384.330
 20
-11.8072
 30
2.60295e-15
  70
    32
  0
VERTEX
  8
0
  5
196B
 10
384.333
 20
-11.8091
 30
2.60325e-15
  70
    32
  0
VERTEX
  8
0
  5
196C
 10
384.337
 20
-11.8110
 30
2.60357e-15
  70
    32
  0
VERTEX
  8
0
  5
196D
 10
384.340
 20
-11.8129
 30
2.60391e-15
  70
    32
  0
VERTEX
  8
0
  5
196E
 10
384.344
 20
-11.8148
 30
2.60427e-15
  70
    32
  0
VERTEX
  8
0
  5
196F
 10
384.347
 20
-11.8167
 30
2.60465e-15
  70
    32
  0
VERTEX
  8
0
  5
1970
 10
384.351
 20
-11.8187
 30
2.60505e-15
  70
    32
  0
VERTEX
  8
0
  5
1971
 10
384.354
 20
-11.8207
 30
2.60548e-15
  70
    32
  0
VERTEX
  8
0
  5
1972
 10
384.358
 20
-11.8227
 30
2.60593e-15
  70
    32
  0
VERTEX
  8
0
  5
1973
 10
384.361
 20
-11.8247
 30
2.60641e-15
  70
    32
  0
VERTEX
  8
0
  5
1974
 10
384.365
 20
-11.8267
 30
2.60690e-15
  70
    32
  0
VERTEX
  8
0
  5
1975
 10
384.368
 20
-11.8288
 30
2.60743e-15
  70
    32
  0
VERTEX
  8
0
  5
1976
 10
384.372
 20
-11.8309
 30
2.60798e-15
  70
    32
  0
VERTEX
  8
0
  5
1977
 10
384.375
 20
-11.8330
 30
2.60856e-15
  70
    32
  0
VERTEX
  8
0
  5
1978
 10
384.378
 20
-11.8351
 30
2.60916e-15
  70
    32
  0
VERTEX
  8
0
  5
1979
 10
384.382
 20
-11.8372
 30
2.60979e-15
  70
    32
  0
VERTEX
  8
0
  5
197A
 10
384.385
 20
-11.8394
 30
2.61045e-15
  70
    32
  0
VERTEX
  8
0
  5
197B
 10
384.389
 20
-11.8415
 30
2.61114e-15
  70
    32
  0
VERTEX
  8
0
  5
197C
 10
384.392
 20
-11.8437
 30
2.61186e-15
  70
    32
  0
VERTEX
  8
0
  5
197D
 10
384.395
 20
-11.8459
 30
2.61261e-15
  70
    32
  0
VERTEX
  8
0
  5
197E
 10
384.399
 20
-11.8482
 30
2.61339e-15
  70
    32
  0
VERTEX
  8
0
  5
197F
 10
384.402
 20
-11.8504
 30
2.61420e-15
  70
    32
  0
VERTEX
  8
0
  5
1980
 10
384.406
 20
-11.8527
 30
2.61504e-15
  70
    32
  0
VERTEX
  8
0
  5
1981
 10
384.409
 20
-11.8550
 30
2.61592e-15
  70
    32
  0
VERTEX
  8
0
  5
1982
 10
384.412
 20
-11.8573
 30
2.61683e-15
  70
    32
  0
VERTEX
  8
0
  5
1983
 10
384.416
 20
-11.8596
 30
2.61777e-15
  70
    32
  0
VERTEX
  8
0
  5
1984
 10
384.419
 20
-11.8620
 30
2.61875e-15
  70
    32
  0
VERTEX
  8
0
  5
1985
 10
384.422
 20
-11.8644
 30
2.61976e-15
  70
    32
  0
VERTEX
  8
0
  5
1986
 10
384.426
 20
-11.8668
 30
2.62081e-15
  70
    32
  0
VERTEX
  8
0
  5
1987
 10
384.429
 20
-11.8692
 30
2.62190e-15
  70
    32
  0
VERTEX
  8
0
  5
1988
 10
384.432
 20
-11.8716
 30
2.62302e-15
  70
    32
  0
VERTEX
  8
0
  5
1989
 10
384.436
 20
-11.8741
 30
2.62418e-15
  70
    32
  0
VERTEX
  8
0
  5
198A
 10
384.439
 20
-11.8765
 30
2.62538e-15
  70
    32
  0
VERTEX
  8
0
  5
198B
 10
384.442
 20
-11.8790
 30
2.62662e-15
  70
    32
  0
VERTEX
  8
0
  5
198C
 10
384.445
 20
-11.8815
 30
2.62790e-15
  70
    32
  0
VERTEX
  8
0
  5
198D
 10
384.449
 20
-11.8841
 30
2.62921e-15
  70
    32
  0
VERTEX
  8
0
  5
198E
 10
384.452
 20
-11.8866
 30
2.63057e-15
  70
    32
  0
VERTEX
  8
0
  5
198F
 10
384.455
 20
-11.8892
 30
2.63197e-15
  70
    32
  0
VERTEX
  8
0
  5
1990
 10
384.459
 20
-11.8918
 30
2.63342e-15
  70
    32
  0
VERTEX
  8
0
  5
1991
 10
384.462
 20
-11.8944
 30
2.63490e-15
  70
    32
  0
VERTEX
  8
0
  5
1992
 10
384.465
 20
-11.8970
 30
2.63643e-15
  70
    32
  0
VERTEX
  8
0
  5
1993
 10
384.468
 20
-11.8997
 30
2.63800e-15
  70
    32
  0
VERTEX
  8
0
  5
1994
 10
384.471
 20
-11.9024
 30
2.63962e-15
  70
    32
  0
VERTEX
  8
0
  5
1995
 10
384.475
 20
-11.9051
 30
2.64128e-15
  70
    32
  0
VERTEX
  8
0
  5
1996
 10
384.478
 20
-11.9078
 30
2.64299e-15
  70
    32
  0
VERTEX
  8
0
  5
1997
 10
384.481
 20
-11.9105
 30
2.64474e-15
  70
    32
  0
VERTEX
  8
0
  5
1998
 10
384.484
 20
-11.9133
 30
2.64649e-15
  70
    32
  0
VERTEX
  8
0
  5
1999
 10
384.487
 20
-11.9161
 30
2.64820e-15
  70
    32
  0
VERTEX
  8
0
  5
199A
 10
384.491
 20
-11.9189
 30
2.64987e-15
  70
    32
  0
VERTEX
  8
0
  5
199B
 10
384.494
 20
-11.9217
 30
2.65150e-15
  70
    32
  0
VERTEX
  8
0
  5
199C
 10
384.497
 20
-11.9245
 30
2.65310e-15
  70
    32
  0
VERTEX
  8
0
  5
199D
 10
384.500
 20
-11.9273
 30
2.65466e-15
  70
    32
  0
VERTEX
  8
0
  5
199E
 10
384.503
 20
-11.9302
 30
2.65619e-15
  70
    32
  0
VERTEX
  8
0
  5
199F
 10
384.506
 20
-11.9331
 30
2.65768e-15
  70
    32
  0
VERTEX
  8
0
  5
19A0
 10
384.509
 20
-11.9360
 30
2.65914e-15
  70
    32
  0
VERTEX
  8
0
  5
19A1
 10
384.512
 20
-11.9390
 30
2.66057e-15
  70
    32
  0
VERTEX
  8
0
  5
19A2
 10
384.516
 20
-11.9419
 30
2.66196e-15
  70
    32
  0
VERTEX
  8
0
  5
19A3
 10
384.519
 20
-11.9449
 30
2.66332e-15
  70
    32
  0
VERTEX
  8
0
  5
19A4
 10
384.522
 20
-11.9479
 30
2.66464e-15
  70
    32
  0
VERTEX
  8
0
  5
19A5
 10
384.525
 20
-11.9509
 30
2.66594e-15
  70
    32
  0
VERTEX
  8
0
  5
19A6
 10
384.528
 20
-11.9539
 30
2.66720e-15
  70
    32
  0
VERTEX
  8
0
  5
19A7
 10
384.531
 20
-11.9569
 30
2.66843e-15
  70
    32
  0
VERTEX
  8
0
  5
19A8
 10
384.534
 20
-11.9600
 30
2.66963e-15
  70
    32
  0
VERTEX
  8
0
  5
19A9
 10
384.537
 20
-11.9631
 30
2.67080e-15
  70
    32
  0
VERTEX
  8
0
  5
19AA
 10
384.540
 20
-11.9662
 30
2.67193e-15
  70
    32
  0
VERTEX
  8
0
  5
19AB
 10
384.543
 20
-11.9693
 30
2.67304e-15
  70
    32
  0
VERTEX
  8
0
  5
19AC
 10
384.546
 20
-11.9725
 30
2.67412e-15
  70
    32
  0
VERTEX
  8
0
  5
19AD
 10
384.549
 20
-11.9756
 30
2.67517e-15
  70
    32
  0
VERTEX
  8
0
  5
19AE
 10
384.552
 20
-11.9788
 30
2.67619e-15
  70
    32
  0
VERTEX
  8
0
  5
19AF
 10
384.555
 20
-11.9820
 30
2.67718e-15
  70
    32
  0
VERTEX
  8
0
  5
19B0
 10
384.558
 20
-11.9853
 30
2.67815e-15
  70
    32
  0
VERTEX
  8
0
  5
19B1
 10
384.561
 20
-11.9885
 30
2.67908e-15
  70
    32
  0
VERTEX
  8
0
  5
19B2
 10
384.564
 20
-11.9918
 30
2.67999e-15
  70
    32
  0
VERTEX
  8
0
  5
19B3
 10
384.567
 20
-11.9951
 30
2.68087e-15
  70
    32
  0
VERTEX
  8
0
  5
19B4
 10
384.569
 20
-11.9984
 30
2.68173e-15
  70
    32
  0
VERTEX
  8
0
  5
19B5
 10
384.572
 20
-12.0017
 30
2.68256e-15
  70
    32
  0
VERTEX
  8
0
  5
19B6
 10
384.575
 20
-12.0051
 30
2.68336e-15
  70
    32
  0
VERTEX
  8
0
  5
19B7
 10
384.578
 20
-12.0084
 30
2.68414e-15
  70
    32
  0
VERTEX
  8
0
  5
19B8
 10
384.581
 20
-12.0118
 30
2.68490e-15
  70
    32
  0
VERTEX
  8
0
  5
19B9
 10
384.584
 20
-12.0152
 30
2.68563e-15
  70
    32
  0
VERTEX
  8
0
  5
19BA
 10
384.587
 20
-12.0187
 30
2.68634e-15
  70
    32
  0
VERTEX
  8
0
  5
19BB
 10
384.590
 20
-12.0221
 30
2.68702e-15
  70
    32
  0
VERTEX
  8
0
  5
19BC
 10
384.592
 20
-12.0256
 30
2.68768e-15
  70
    32
  0
VERTEX
  8
0
  5
19BD
 10
384.595
 20
-12.0291
 30
2.68832e-15
  70
    32
  0
VERTEX
  8
0
  5
19BE
 10
384.598
 20
-12.0326
 30
2.68893e-15
  70
    32
  0
VERTEX
  8
0
  5
19BF
 10
384.601
 20
-12.0361
 30
2.68952e-15
  70
    32
  0
VERTEX
  8
0
  5
19C0
 10
384.604
 20
-12.0397
 30
2.69010e-15
  70
    32
  0
VERTEX
  8
0
  5
19C1
 10
384.606
 20
-12.0432
 30
2.69065e-15
  70
    32
  0
VERTEX
  8
0
  5
19C2
 10
384.609
 20
-12.0468
 30
2.69118e-15
  70
    32
  0
VERTEX
  8
0
  5
19C3
 10
384.612
 20
-12.0505
 30
2.69168e-15
  70
    32
  0
VERTEX
  8
0
  5
19C4
 10
384.615
 20
-12.0541
 30
2.69217e-15
  70
    32
  0
VERTEX
  8
0
  5
19C5
 10
384.617
 20
-12.0578
 30
2.69264e-15
  70
    32
  0
VERTEX
  8
0
  5
19C6
 10
384.620
 20
-12.0614
 30
2.69309e-15
  70
    32
  0
VERTEX
  8
0
  5
19C7
 10
384.623
 20
-12.0651
 30
2.69352e-15
  70
    32
  0
VERTEX
  8
0
  5
19C8
 10
384.625
 20
-12.0689
 30
2.69394e-15
  70
    32
  0
VERTEX
  8
0
  5
19C9
 10
384.628
 20
-12.0726
 30
2.69433e-15
  70
    32
  0
VERTEX
  8
0
  5
19CA
 10
384.631
 20
-12.0764
 30
2.69471e-15
  70
    32
  0
VERTEX
  8
0
  5
19CB
 10
384.633
 20
-12.0802
 30
2.69507e-15
  70
    32
  0
VERTEX
  8
0
  5
19CC
 10
384.636
 20
-12.0840
 30
2.69541e-15
  70
    32
  0
VERTEX
  8
0
  5
19CD
 10
384.639
 20
-12.0878
 30
2.69574e-15
  70
    32
  0
VERTEX
  8
0
  5
19CE
 10
384.641
 20
-12.0916
 30
2.69605e-15
  70
    32
  0
VERTEX
  8
0
  5
19CF
 10
384.644
 20
-12.0955
 30
2.69635e-15
  70
    32
  0
VERTEX
  8
0
  5
19D0
 10
384.647
 20
-12.0994
 30
2.69663e-15
  70
    32
  0
VERTEX
  8
0
  5
19D1
 10
384.649
 20
-12.1033
 30
2.69690e-15
  70
    32
  0
VERTEX
  8
0
  5
19D2
 10
384.652
 20
-12.1073
 30
2.69715e-15
  70
    32
  0
VERTEX
  8
0
  5
19D3
 10
384.654
 20
-12.1112
 30
2.69739e-15
  70
    32
  0
VERTEX
  8
0
  5
19D4
 10
384.657
 20
-12.1152
 30
2.69761e-15
  70
    32
  0
VERTEX
  8
0
  5
19D5
 10
384.660
 20
-12.1192
 30
2.69782e-15
  70
    32
  0
VERTEX
  8
0
  5
19D6
 10
384.662
 20
-12.1232
 30
2.69802e-15
  70
    32
  0
VERTEX
  8
0
  5
19D7
 10
384.665
 20
-12.1273
 30
2.69820e-15
  70
    32
  0
VERTEX
  8
0
  5
19D8
 10
384.667
 20
-12.1313
 30
2.69838e-15
  70
    32
  0
VERTEX
  8
0
  5
19D9
 10
384.670
 20
-12.1354
 30
2.69854e-15
  70
    32
  0
VERTEX
  8
0
  5
19DA
 10
384.672
 20
-12.1395
 30
2.69869e-15
  70
    32
  0
VERTEX
  8
0
  5
19DB
 10
384.675
 20
-12.1437
 30
2.69883e-15
  70
    32
  0
VERTEX
  8
0
  5
19DC
 10
384.677
 20
-12.1478
 30
2.69896e-15
  70
    32
  0
VERTEX
  8
0
  5
19DD
 10
384.680
 20
-12.1520
 30
2.69908e-15
  70
    32
  0
VERTEX
  8
0
  5
19DE
 10
384.682
 20
-12.1562
 30
2.69919e-15
  70
    32
  0
VERTEX
  8
0
  5
19DF
 10
384.685
 20
-12.1604
 30
2.69929e-15
  70
    32
  0
VERTEX
  8
0
  5
19E0
 10
384.687
 20
-12.1646
 30
2.69938e-15
  70
    32
  0
VERTEX
  8
0
  5
19E1
 10
384.689
 20
-12.1689
 30
2.69947e-15
  70
    32
  0
VERTEX
  8
0
  5
19E2
 10
384.692
 20
-12.1732
 30
2.69954e-15
  70
    32
  0
VERTEX
  8
0
  5
19E3
 10
384.694
 20
-12.1775
 30
2.69961e-15
  70
    32
  0
VERTEX
  8
0
  5
19E4
 10
384.697
 20
-12.1818
 30
2.69967e-15
  70
    32
  0
VERTEX
  8
0
  5
19E5
 10
384.699
 20
-12.1862
 30
2.69973e-15
  70
    32
  0
VERTEX
  8
0
  5
19E6
 10
384.701
 20
-12.1906
 30
2.69978e-15
  70
    32
  0
VERTEX
  8
0
  5
19E7
 10
384.704
 20
-12.1949
 30
2.69982e-15
  70
    32
  0
VERTEX
  8
0
  5
19E8
 10
384.706
 20
-12.1994
 30
2.69985e-15
  70
    32
  0
VERTEX
  8
0
  5
19E9
 10
384.708
 20
-12.2038
 30
2.69989e-15
  70
    32
  0
VERTEX
  8
0
  5
19EA
 10
384.711
 20
-12.2083
 30
2.69991e-15
  70
    32
  0
VERTEX
  8
0
  5
19EB
 10
384.713
 20
-12.2128
 30
2.69993e-15
  70
    32
  0
VERTEX
  8
0
  5
19EC
 10
384.715
 20
-12.2173
 30
2.69995e-15
  70
    32
  0
VERTEX
  8
0
  5
19ED
 10
384.718
 20
-12.2218
 30
2.69997e-15
  70
    32
  0
VERTEX
  8
0
  5
19EE
 10
384.720
 20
-12.2264
 30
2.69998e-15
  70
    32
  0
VERTEX
  8
0
  5
19EF
 10
384.722
 20
-12.2309
 30
2.69999e-15
  70
    32
  0
VERTEX
  8
0
  5
19F0
 10
384.724
 20
-12.2355
 30
2.69999e-15
  70
    32
  0
VERTEX
  8
0
  5
19F1
 10
384.727
 20
-12.2402
 30
2.70000e-15
  70
    32
  0
VERTEX
  8
0
  5
19F2
 10
384.729
 20
-12.2448
 30
2.70000e-15
  70
    32
  0
VERTEX
  8
0
  5
19F3
 10
384.731
 20
-12.2495
 30
2.70000e-15
  70
    32
  0
VERTEX
  8
0
  5
19F4
 10
384.733
 20
-12.2542
 30
2.70000e-15
  70
    32
  0
VERTEX
  8
0
  5
19F5
 10
384.735
 20
-12.2589
 30
2.70000e-15
  70
    32
  0
SEQEND
  8
0
  5
19F6
  0
POLYLINE
  8
0
  5
19F7
  66
     1
 10
0.000000
 20
0.000000
 30
0.000000
  70
     8
  0
VERTEX
  8
0
  5
19F8
 10
332.331
 20
-12.2589
 30
2.70000e-15
  70
    32
  0
VERTEX
  8
0
  5
19F9
 10
332.334
 20
-12.2643
 30
2.70364e-15
  70
    32
  0
VERTEX
  8
0
  5
19FA
 10
332.337
 20
-12.2697
 30
2.70719e-15
  70
    32
  0
VERTEX
  8
0
  5
19FB
 10
332.340
 20
-12.2751
 30
2.71065e-15
  70
    32
  0
VERTEX
  8
0
  5
19FC
 10
332.343
 20
-12.2805
 30
2.71403e-15
  70
    32
  0
VERTEX
  8
0
  5
19FD
 10
332.346
 20
-12.2859
 30
2.71732e-15
  70
    32
  0
VERTEX
  8
0
  5
19FE
 10
332.350
 20
-12.2913
 30
2.72053e-15
  70
    32
  0
VERTEX
  8
0
  5
19FF
 10
332.353
 20
-12.2968
 30
2.72366e-15
  70
    32
  0
VERTEX
  8
0
  5
1A00
 10
332.356
 20
-12.3023
 30
2.72672e-15
  70
    32
  0
VERTEX
  8
0
  5
1A01
 10
332.359
 20
-12.3077
 30
2.72969e-15
  70
    32
  0
VERTEX
  8
0
  5
1A02
 10
332.362
 20
-12.3132
 30
2.73258e-15
  70
    32
  0
VERTEX
  8
0
  5
1A03
 10
332.366
 20
-12.3187
 30
2.73541e-15
  70
    32
  0
VERTEX
  8
0
  5
1A04
 10
332.369
 20
-12.3242
 30
2.73816e-15
  70
    32
  0
VERTEX
  8
0
  5
1A05
 10
332.372
 20
-12.3297
 30
2.74083e-15
  70
    32
  0
VERTEX
  8
0
  5
1A06
 10
332.375
 20
-12.3353
 30
2.74344e-15
  70
    32
  0
VERTEX
  8
0
  5
1A07
 10
332.378
 20
-12.3408
 30
2.74598e-15
  70
    32
  0
VERTEX
  8
0
  5
1A08
 10
332.382
 20
-12.3464
 30
2.74845e-15
  70
    32
  0
VERTEX
  8
0
  5
1A09
 10
332.385
 20
-12.3519
 30
2.75086e-15
  70
    32
  0
VERTEX
  8
0
  5
1A0A
 10
332.388
 20
-12.3575
 30
2.75321e-15
  70
    32
  0
VERTEX
  8
0
  5
1A0B
 10
332.391
 20
-12.3631
 30
2.75549e-15
  70
    32
  0
VERTEX
  8
0
  5
1A0C
 10
332.395
 20
-12.3687
 30
2.75771e-15
  70
    32
  0
VERTEX
  8
0
  5
1A0D
 10
332.398
 20
-12.3743
 30
2.75987e-15
  70
    32
  0
VERTEX
  8
0
  5
1A0E
 10
332.401
 20
-12.3799
 30
2.76198e-15
  70
    32
  0
VERTEX
  8
0
  5
1A0F
 10
332.405
 20
-12.3855
 30
2.76403e-15
  70
    32
  0
VERTEX
  8
0
  5
1A10
 10
332.408
 20
-12.3911
 30
2.76603e-15
  70
    32
  0
VERTEX
  8
0
  5
1A11
 10
332.411
 20
-12.3968
 30
2.76797e-15
  70
    32
  0
VERTEX
  8
0
  5
1A12
 10
332.414
 20
-12.4024
 30
2.76987e-15
  70
    32
  0
VERTEX
  8
0
  5
1A13
 10
332.418
 20
-12.4081
 30
2.77171e-15
  70
    32
  0
VERTEX
  8
0
  5
1A14
 10
332.421
 20
-12.4138
 30
2.77351e-15
  70
    32
  0
VERTEX
  8
0
  5
1A15
 10
332.424
 20
-12.4194
 30
2.77526e-15
  70
    32
  0
VERTEX
  8
0
  5
1A16
 10
332.428
 20
-12.4251
 30
2.77697e-15
  70
    32
  0
VERTEX
  8
0
  5
1A17
 10
332.431
 20
-12.4308
 30
2.77863e-15
  70
    32
  0
VERTEX
  8
0
  5
1A18
 10
332.434
 20
-12.4365
 30
2.78025e-15
  70
    32
  0
VERTEX
  8
0
  5
1A19
 10
332.438
 20
-12.4422
 30
2.78184e-15
  70
    32
  0
VERTEX
  8
0
  5
1A1A
 10
332.441
 20
-12.4480
 30
2.78338e-15
  70
    32
  0
VERTEX
  8
0
  5
1A1B
 10
332.444
 20
-12.4537
 30
2.78489e-15
  70
    32
  0
VERTEX
  8
0
  5
1A1C
 10
332.448
 20
-12.4594
 30
2.78637e-15
  70
    32
  0
VERTEX
  8
0
  5
1A1D
 10
332.451
 20
-12.4652
 30
2.78781e-15
  70
    32
  0
VERTEX
  8
0
  5
1A1E
 10
332.454
 20
-12.4709
 30
2.78922e-15
  70
    32
  0
VERTEX
  8
0
  5
1A1F
 10
332.458
 20
-12.4767
 30
2.79060e-15
  70
    32
  0
VERTEX
  8
0
  5
1A20
 10
332.461
 20
-12.4824
 30
2.79195e-15
  70
    32
  0
VERTEX
  8
0
  5
1A21
 10
332.464
 20
-12.4882
 30
2.79327e-15
  70
    32
  0
VERTEX
  8
0
  5
1A22
 10
332.468
 20
-12.4940
 30
2.79457e-15
  70
    32
  0
VERTEX
  8
0
  5
1A23
 10
332.471
 20
-12.4998
 30
2.79584e-15
  70
    32
  0
VERTEX
  8
0
  5
1A24
 10
332.475
 20
-12.5056
 30
2.79710e-15
  70
    32
  0
VERTEX
  8
0
  5
1A25
 10
332.478
 20
-12.5114
 30
2.79833e-15
  70
    32
  0
VERTEX
  8
0
  5
1A26
 10
332.481
 20
-12.5172
 30
2.79954e-15
  70
    32
  0
VERTEX
  8
0
  5
1A27
 10
332.485
 20
-12.5230
 30
2.80074e-15
  70
    32
  0
VERTEX
  8
0
  5
1A28
 10
332.488
 20
-12.5289
 30
2.80192e-15
  70
    32
  0
VERTEX
  8
0
  5
1A29
 10
332.492
 20
-12.5347
 30
2.80309e-15
  70
    32
  0
VERTEX
  8
0
  5
1A2A
 10
332.495
 20
-12.5405
 30
2.80424e-15
  70
    32
  0
VERTEX
  8
0
  5
1A2B
 10
332.498
 20
-12.5464
 30
2.80538e-15
  70
    32
  0
VERTEX
  8
0
  5
1A2C
 10
332.502
 20
-12.5522
 30
2.80652e-15
  70
    32
  0
VERTEX
  8
0
  5
1A2D
 10
332.505
 20
-12.5581
 30
2.80764e-15
  70
    32
  0
VERTEX
  8
0
  5
1A2E
 10
332.509
 20
-12.5640
 30
2.80876e-15
  70
    32
  0
VERTEX
  8
0
  5
1A2F
 10
332.512
 20
-12.5698
 30
2.80988e-15
  70
    32
  0
VERTEX
  8
0
  5
1A30
 10
332.515
 20
-12.5757
 30
2.81099e-15
  70
    32
  0
VERTEX
  8
0
  5
1A31
 10
332.519
 20
-12.5816
 30
2.81210e-15
  70
    32
  0
VERTEX
  8
0
  5
1A32
 10
332.522
 20
-12.5875
 30
2.81321e-15
  70
    32
  0
VERTEX
  8
0
  5
1A33
 10
332.526
 20
-12.5934
 30
2.81432e-15
  70
    32
  0
VERTEX
  8
0
  5
1A34
 10
332.529
 20
-12.5993
 30
2.81544e-15
  70
    32
  0
VERTEX
  8
0
  5
1A35
 10
332.533
 20
-12.6052
 30
2.81656e-15
  70
    32
  0
VERTEX
  8
0
  5
1A36
 10
332.536
 20
-12.6111
 30
2.81769e-15
  70
    32
  0
VERTEX
  8
0
  5
1A37
 10
332.539
 20
-12.6170
 30
2.81882e-15
  70
    32
  0
VERTEX
  8
0
  5
1A38
 10
332.543
 20
-12.6229
 30
2.81997e-15
  70
    32
  0
VERTEX
  8
0
  5
1A39
 10
332.546
 20
-12.6288
 30
2.82113e-15
  70
    32
  0
VERTEX
  8
0
  5
1A3A
 10
332.550
 20
-12.6348
 30
2.82229e-15
  70
    32
  0
VERTEX
  8
0
  5
1A3B
 10
332.553
 20
-12.6407
 30
2.82348e-15
  70
    32
  0
VERTEX
  8
0
  5
1A3C
 10
332.557
 20
-12.6466
 30
2.82468e-15
  70
    32
  0
VERTEX
  8
0
  5
1A3D
 10
332.560
 20
-12.6526
 30
2.82590e-15
  70
    32
  0
VERTEX
  8
0
  5
1A3E
 10
332.564
 20
-12.6585
 30
2.82713e-15
  70
    32
  0
VERTEX
  8
0
  5
1A3F
 10
332.567
 20
-12.6645
 30
2.82839e-15
  70
    32
  0
VERTEX
  8
0
  5
1A40
 10
332.571
 20
-12.6704
 30
2.82967e-15
  70
    32
  0
VERTEX
  8
0
  5
1A41
 10
332.574
 20
-12.6764
 30
2.83098e-15
  70
    32
  0
VERTEX
  8
0
  5
1A42
 10
332.578
 20
-12.6824
 30
2.83231e-15
  70
    32
  0
VERTEX
  8
0
  5
1A43
 10
332.581
 20
-12.6883
 30
2.83366e-15
  70
    32
  0
VERTEX
  8
0
  5
1A44
 10
332.584
 20
-12.6943
 30
2.83505e-15
  70
    32
  0
VERTEX
  8
0
  5
1A45
 10
332.588
 20
-12.7003
 30
2.83647e-15
  70
    32
  0
VERTEX
  8
0
  5
1A46
 10
332.591
 20
-12.7063
 30
2.83792e-15
  70
    32
  0
VERTEX
  8
0
  5
1A47
 10
332.595
 20
-12.7122
 30
2.83940e-15
  70
    32
  0
VERTEX
  8
0
  5
1A48
 10
332.598
 20
-12.7182
 30
2.84091e-15
  70
    32
  0
VERTEX
  8
0
  5
1A49
 10
332.602
 20
-12.7242
 30
2.84247e-15
  70
    32
  0
VERTEX
  8
0
  5
1A4A
 10
332.605
 20
-12.7302
 30
2.84405e-15
  70
    32
  0
VERTEX
  8
0
  5
1A4B
 10
332.609
 20
-12.7362
 30
2.84561e-15
  70
    32
  0
VERTEX
  8
0
  5
1A4C
 10
332.612
 20
-12.7422
 30
2.84714e-15
  70
    32
  0
VERTEX
  8
0
  5
1A4D
 10
332.616
 20
-12.7482
 30
2.84864e-15
  70
    32
  0
VERTEX
  8
0
  5
1A4E
 10
332.619
 20
-12.7542
 30
2.85011e-15
  70
    32
  0
VERTEX
  8
0
  5
1A4F
 10
332.623
 20
-12.7602
 30
2.85156e-15
  70
    32
  0
VERTEX
  8
0
  5
1A50
 10
332.626
 20
-12.7662
 30
2.85299e-15
  70
    32
  0
VERTEX
  8
0
  5
1A51
 10
332.630
 20
-12.7722
 30
2.85439e-15
  70
    32
  0
VERTEX
  8
0
  5
1A52
 10
332.633
 20
-12.7782
 30
2.85576e-15
  70
    32
  0
VERTEX
  8
0
  5
1A53
 10
332.637
 20
-12.7842
 30
2.85711e-15
  70
    32
  0
VERTEX
  8
0
  5
1A54
 10
332.640
 20
-12.7903
 30
2.85844e-15
  70
    32
  0
VERTEX
  8
0
  5
1A55
 10
332.644
 20
-12.7963
 30
2.85975e-15
  70
    32
  0
VERTEX
  8
0
  5
1A56
 10
332.647
 20
-12.8023
 30
2.86104e-15
  70
    32
  0
VERTEX
  8
0
  5
1A57
 10
332.651
 20
-12.8083
 30
2.86231e-15
  70
    32
  0
VERTEX
  8
0
  5
1A58
 10
332.654
 20
-12.8143
 30
2.86355e-15
  70
    32
  0
VERTEX
  8
0
  5
1A59
 10
332.658
 20
-12.8204
 30
2.86478e-15
  70
    32
  0
VERTEX
  8
0
  5
1A5A
 10
332.661
 20
-12.8264
 30
2.86599e-15
  70
    32
  0
VERTEX
  8
0
  5
1A5B
 10
332.665
 20
-12.8324
 30
2.86719e-15
  70
    32
  0
VERTEX
  8
0
  5
1A5C
 10
332.668
 20
-12.8384
 30
2.86837e-15
  70
    32
  0
VERTEX
  8
0
  5
1A5D
 10
332.672
 20
-12.8445
 30
2.86953e-15
  70
    32
  0
VERTEX
  8
0
  5
1A5E
 10
332.675
 20
-12.8505
 30
2.87068e-15
  70
    32
  0
VERTEX
  8
0
  5
1A5F
 10
332.679
 20
-12.8565
 30
2.87181e-15
  70
    32
  0
VERTEX
  8
0
  5
1A60
 10
332.682
 20
-12.8625
 30
2.87293e-15
  70
    32
  0
VERTEX
  8
0
  5
1A61
 10
332.686
 20
-12.8686
 30
2.87404e-15
  70
    32
  0
VERTEX
  8
0
  5
1A62
 10
332.689
 20
-12.8746
 30
2.87514e-15
  70
    32
  0
VERTEX
  8
0
  5
1A63
 10
332.693
 20
-12.8806
 30
2.87623e-15
  70
    32
  0
VERTEX
  8
0
  5
1A64
 10
332.696
 20
-12.8866
 30
2.87730e-15
  70
    32
  0
VERTEX
  8
0
  5
1A65
 10
332.700
 20
-12.8927
 30
2.87837e-15
  70
    32
  0
VERTEX
  8
0
  5
1A66
 10
332.703
 20
-12.8987
 30
2.87943e-15
  70
    32
  0
VERTEX
  8
0
  5
1A67
 10
332.707
 20
-12.9047
 30
2.88048e-15
  70
    32
  0
VERTEX
  8
0
  5
1A68
 10
332.710
 20
-12.9107
 30
2.88152e-15
  70
    32
  0
VERTEX
  8
0
  5
1A69
 10
332.714
 20
-12.9168
 30
2.88256e-15
  70
    32
  0
VERTEX
  8
0
  5
1A6A
 10
332.717
 20
-12.9228
 30
2.88359e-15
  70
    32
  0
VERTEX
  8
0
  5
1A6B
 10
332.721
 20
-12.9288
 30
2.88461e-15
  70
    32
  0
VERTEX
  8
0
  5
1A6C
 10
332.724
 20
-12.9348
 30
2.88564e-15
  70
    32
  0
VERTEX
  8
0
  5
1A6D
 10
332.728
 20
-12.9409
 30
2.88665e-15
  70
    32
  0
VERTEX
  8
0
  5
1A6E
 10
332.731
 20
-12.9469
 30
2.88767e-15
  70
    32
  0
VERTEX
  8
0
  5
1A6F
 10
332.735
 20
-12.9529
 30
2.88869e-15
  70
    32
  0
VERTEX
  8
0
  5
1A70
 10
332.738
 20
-12.9589
 30
2.88970e-15
  70
    32
  0
VERTEX
  8
0
  5
1A71
 10
332.742
 20
-12.9649
 30
2.89071e-15
  70
    32
  0
VERTEX
  8
0
  5
1A72
 10
332.745
 20
-12.9710
 30
2.89173e-15
  70
    32
  0
VERTEX
  8
0
  5
1A73
 10
332.749
 20
-12.9770
 30
2.89274e-15
  70
    32
  0
VERTEX
  8
0
  5
1A74
 10
332.752
 20
-12.9830
 30
2.89376e-15
  70
    32
  0
VERTEX
  8
0
  5
1A75
 10
332.756
 20
-12.9890
 30
2.89478e-15
  70
    32
  0
VERTEX
  8
0
  5
1A76
 10
332.759
 20
-12.9950
 30
2.89580e-15
  70
    32
  0
VERTEX
  8
0
  5
1A77
 10
332.763
 20
-13.0010
 30
2.89683e-15
  70
    32
  0
VERTEX
  8
0
  5
1A78
 10
332.766
 20
-13.0070
 30
2.89786e-15
  70
    32
  0
VERTEX
  8
0
  5
1A79
 10
332.769
 20
-13.0130
 30
2.89890e-15
  70
    32
  0
VERTEX
  8
0
  5
1A7A
 10
332.773
 20
-13.0190
 30
2.89995e-15
  70
    32
  0
VERTEX
  8
0
  5
1A7B
 10
332.776
 20
-13.0250
 30
2.90100e-15
  70
    32
  0
VERTEX
  8
0
  5
1A7C
 10
332.780
 20
-13.0310
 30
2.90206e-15
  70
    32
  0
VERTEX
  8
0
  5
1A7D
 10
332.783
 20
-13.0370
 30
2.90313e-15
  70
    32
  0
VERTEX
  8
0
  5
1A7E
 10
332.787
 20
-13.0429
 30
2.90421e-15
  70
    32
  0
VERTEX
  8
0
  5
1A7F
 10
332.790
 20
-13.0489
 30
2.90530e-15
  70
    32
  0
VERTEX
  8
0
  5
1A80
 10
332.794
 20
-13.0549
 30
2.90640e-15
  70
    32
  0
VERTEX
  8
0
  5
1A81
 10
332.797
 20
-13.0609
 30
2.90751e-15
  70
    32
  0
VERTEX
  8
0
  5
1A82
 10
332.801
 20
-13.0668
 30
2.90864e-15
  70
    32
  0
VERTEX
  8
0
  5
1A83
 10
332.804
 20
-13.0728
 30
2.90978e-15
  70
    32
  0
VERTEX
  8
0
  5
1A84
 10
332.808
 20
-13.0788
 30
2.91093e-15
  70
    32
  0
VERTEX
  8
0
  5
1A85
 10
332.811
 20
-13.0847
 30
2.91210e-15
  70
    32
  0
VERTEX
  8
0
  5
1A86
 10
332.814
 20
-13.0907
 30
2.91328e-15
  70
    32
  0
VERTEX
  8
0
  5
1A87
 10
332.818
 20
-13.0966
 30
2.91448e-15
  70
    32
  0
VERTEX
  8
0
  5
1A88
 10
332.821
 20
-13.1026
 30
2.91570e-15
  70
    32
  0
VERTEX
  8
0
  5
1A89
 10
332.825
 20
-13.1085
 30
2.91694e-15
  70
    32
  0
VERTEX
  8
0
  5
1A8A
 10
332.828
 20
-13.1145
 30
2.91819e-15
  70
    32
  0
VERTEX
  8
0
  5
1A8B
 10
332.832
 20
-13.1204
 30
2.91946e-15
  70
    32
  0
VERTEX
  8
0
  5
1A8C
 10
332.835
 20
-13.1263
 30
2.92076e-15
  70
    32
  0
VERTEX
  8
0
  5
1A8D
 10
332.839
 20
-13.1322
 30
2.92207e-15
  70
    32
  0
VERTEX
  8
0
  5
1A8E
 10
332.842
 20
-13.1381
 30
2.92341e-15
  70
    32
  0
VERTEX
  8
0
  5
1A8F
 10
332.845
 20
-13.1441
 30
2.92477e-15
  70
    32
  0
VERTEX
  8
0
  5
1A90
 10
332.849
 20
-13.1500
 30
2.92615e-15
  70
    32
  0
VERTEX
  8
0
  5
1A91
 10
332.852
 20
-13.1559
 30
2.92756e-15
  70
    32
  0
VERTEX
  8
0
  5
1A92
 10
332.856
 20
-13.1618
 30
2.92899e-15
  70
    32
  0
VERTEX
  8
0
  5
1A93
 10
332.859
 20
-13.1677
 30
2.93045e-15
  70
    32
  0
VERTEX
  8
0
  5
1A94
 10
332.862
 20
-13.1735
 30
2.93194e-15
  70
    32
  0
VERTEX
  8
0
  5
1A95
 10
332.866
 20
-13.1794
 30
2.93345e-15
  70
    32
  0
VERTEX
  8
0
  5
1A96
 10
332.869
 20
-13.1853
 30
2.93499e-15
  70
    32
  0
VERTEX
  8
0
  5
1A97
 10
332.873
 20
-13.1912
 30
2.93655e-15
  70
    32
  0
VERTEX
  8
0
  5
1A98
 10
332.876
 20
-13.1970
 30
2.93815e-15
  70
    32
  0
VERTEX
  8
0
  5
1A99
 10
332.879
 20
-13.2029
 30
2.93978e-15
  70
    32
  0
VERTEX
  8
0
  5
1A9A
 10
332.883
 20
-13.2087
 30
2.94144e-15
  70
    32
  0
VERTEX
  8
0
  5
1A9B
 10
332.886
 20
-13.2146
 30
2.94313e-15
  70
    32
  0
VERTEX
  8
0
  5
1A9C
 10
332.890
 20
-13.2204
 30
2.94485e-15
  70
    32
  0
VERTEX
  8
0
  5
1A9D
 10
332.893
 20
-13.2262
 30
2.94661e-15
  70
    32
  0
VERTEX
  8
0
  5
1A9E
 10
332.896
 20
-13.2320
 30
2.94840e-15
  70
    32
  0
VERTEX
  8
0
  5
1A9F
 10
332.900
 20
-13.2378
 30
2.95022e-15
  70
    32
  0
VERTEX
  8
0
  5
1AA0
 10
332.903
 20
-13.2436
 30
2.95208e-15
  70
    32
  0
VERTEX
  8
0
  5
1AA1
 10
332.906
 20
-13.2494
 30
2.95398e-15
  70
    32
  0
VERTEX
  8
0
  5
1AA2
 10
332.910
 20
-13.2552
 30
2.95591e-15
  70
    32
  0
VERTEX
  8
0
  5
1AA3
 10
332.913
 20
-13.2610
 30
2.95789e-15
  70
    32
  0
VERTEX
  8
0
  5
1AA4
 10
332.916
 20
-13.2668
 30
2.95990e-15
  70
    32
  0
VERTEX
  8
0
  5
1AA5
 10
332.920
 20
-13.2726
 30
2.96194e-15
  70
    32
  0
VERTEX
  8
0
  5
1AA6
 10
332.923
 20
-13.2783
 30
2.96403e-15
  70
    32
  0
VERTEX
  8
0
  5
1AA7
 10
332.926
 20
-13.2841
 30
2.96616e-15
  70
    32
  0
VERTEX
  8
0
  5
1AA8
 10
332.930
 20
-13.2898
 30
2.96834e-15
  70
    32
  0
VERTEX
  8
0
  5
1AA9
 10
332.933
 20
-13.2956
 30
2.97055e-15
  70
    32
  0
VERTEX
  8
0
  5
1AAA
 10
332.936
 20
-13.3013
 30
2.97281e-15
  70
    32
  0
VERTEX
  8
0
  5
1AAB
 10
332.940
 20
-13.3070
 30
2.97511e-15
  70
    32
  0
VERTEX
  8
0
  5
1AAC
 10
332.943
 20
-13.3127
 30
2.97746e-15
  70
    32
  0
VERTEX
  8
0
  5
1AAD
 10
332.946
 20
-13.3184
 30
2.97985e-15
  70
    32
  0
VERTEX
  8
0
  5
1AAE
 10
332.949
 20
-13.3241
 30
2.98229e-15
  70
    32
  0
VERTEX
  8
0
  5
1AAF
 10
332.953
 20
-13.3298
 30
2.98477e-15
  70
    32
  0
VERTEX
  8
0
  5
1AB0
 10
332.956
 20
-13.3355
 30
2.98730e-15
  70
    32
  0
VERTEX
  8
0
  5
1AB1
 10
332.959
 20
-13.3411
 30
2.98988e-15
  70
    32
  0
VERTEX
  8
0
  5
1AB2
 10
332.963
 20
-13.3468
 30
2.99251e-15
  70
    32
  0
VERTEX
  8
0
  5
1AB3
 10
332.966
 20
-13.3524
 30
2.99519e-15
  70
    32
  0
VERTEX
  8
0
  5
1AB4
 10
332.969
 20
-13.3581
 30
2.99793e-15
  70
    32
  0
VERTEX
  8
0
  5
1AB5
 10
332.972
 20
-13.3637
 30
3.00000e-15
  70
    32
  0
VERTEX
  8
0
  5
1AB6
 10
332.976
 20
-13.3693
 30
3.00003e-15
  70
    32
  0
VERTEX
  8
0
  5
1AB7
 10
332.979
 20
-13.3750
 30
3.00010e-15
  70
    32
  0
VERTEX
  8
0
  5
1AB8
 10
332.982
 20
-13.3806
 30
3.00022e-15
  70
    32
  0
VERTEX
  8
0
  5
1AB9
 10
332.985
 20
-13.3863
 30
3.00037e-15
  70
    32
  0
VERTEX
  8
0
  5
1ABA
 10
332.989
 20
-13.3919
 30
3.00056e-15
  70
    32
  0
VERTEX
  8
0
  5
1ABB
 10
332.992
 20
-13.3976
 30
3.00079e-15
  70
    32
  0
VERTEX
  8
0
  5
1ABC
 10
332.995
 20
-13.4033
 30
3.00106e-15
  70
    32
  0
VERTEX
  8
0
  5
1ABD
 10
332.998
 20
-13.4090
 30
3.00137e-15
  70
    32
  0
VERTEX
  8
0
  5
1ABE
 10
333.002
 20
-13.4147
 30
3.00171e-15
  70
    32
  0
VERTEX
  8
0
  5
1ABF
 10
333.005
 20
-13.4204
 30
3.00210e-15
  70
    32
  0
VERTEX
  8
0
  5
1AC0
 10
333.008
 20
-13.4261
 30
3.00251e-15
  70
    32
  0
VERTEX
  8
0
  5
1AC1
 10
333.012
 20
-13.4318
 30
3.00297e-15
  70
    32
  0
VERTEX
  8
0
  5
1AC2
 10
333.015
 20
-13.4375
 30
3.00345e-15
  70
    32
  0
VERTEX
  8
0
  5
1AC3
 10
333.018
 20
-13.4432
 30
3.00398e-15
  70
    32
  0
VERTEX
  8
0
  5
1AC4
 10
333.022
 20
-13.4490
 30
3.00454e-15
  70
    32
  0
VERTEX
  8
0
  5
1AC5
 10
333.025
 20
-13.4547
 30
3.00513e-15
  70
    32
  0
VERTEX
  8
0
  5
1AC6
 10
333.028
 20
-13.4605
 30
3.00575e-15
  70
    32
  0
VERTEX
  8
0
  5
1AC7
 10
333.031
 20
-13.4662
 30
3.00641e-15
  70
    32
  0
VERTEX
  8
0
  5
1AC8
 10
333.035
 20
-13.4720
 30
3.00710e-15
  70
    32
  0
VERTEX
  8
0
  5
1AC9
 10
333.038
 20
-13.4778
 30
3.00782e-15
  70
    32
  0
VERTEX
  8
0
  5
1ACA
 10
333.041
 20
-13.4836
 30
3.00857e-15
  70
    32
  0
VERTEX
  8
0
  5
1ACB
 10
333.045
 20
-13.4894
 30
3.00935e-15
  70
    32
  0
VERTEX
  8
0
  5
1ACC
 10
333.048
 20
-13.4951
 30
3.01017e-15
  70
    32
  0
VERTEX
  8
0
  5
1ACD
 10
333.051
 20
-13.5009
 30
3.01101e-15
  70
    32
  0
VERTEX
  8
0
  5
1ACE
 10
333.055
 20
-13.5067
 30
3.01188e-15
  70
    32
  0
VERTEX
  8
0
  5
1ACF
 10
333.058
 20
-13.5126
 30
3.01278e-15
  70
    32
  0
VERTEX
  8
0
  5
1AD0
 10
333.062
 20
-13.5184
 30
3.01371e-15
  70
    32
  0
VERTEX
  8
0
  5
1AD1
 10
333.065
 20
-13.5242
 30
3.01466e-15
  70
    32
  0
VERTEX
  8
0
  5
1AD2
 10
333.068
 20
-13.5300
 30
3.01565e-15
  70
    32
  0
VERTEX
  8
0
  5
1AD3
 10
333.072
 20
-13.5359
 30
3.01665e-15
  70
    32
  0
VERTEX
  8
0
  5
1AD4
 10
333.075
 20
-13.5417
 30
3.01769e-15
  70
    32
  0
VERTEX
  8
0
  5
1AD5
 10
333.078
 20
-13.5475
 30
3.01875e-15
  70
    32
  0
VERTEX
  8
0
  5
1AD6
 10
333.082
 20
-13.5534
 30
3.01983e-15
  70
    32
  0
VERTEX
  8
0
  5
1AD7
 10
333.085
 20
-13.5592
 30
3.02094e-15
  70
    32
  0
VERTEX
  8
0
  5
1AD8
 10
333.088
 20
-13.5651
 30
3.02207e-15
  70
    32
  0
VERTEX
  8
0
  5
1AD9
 10
333.092
 20
-13.5710
 30
3.02323e-15
  70
    32
  0
VERTEX
  8
0
  5
1ADA
 10
333.095
 20
-13.5768
 30
3.02441e-15
  70
    32
  0
VERTEX
  8
0
  5
1ADB
 10
333.099
 20
-13.5827
 30
3.02561e-15
  70
    32
  0
VERTEX
  8
0
  5
1ADC
 10
333.102
 20
-13.5886
 30
3.02683e-15
  70
    32
  0
VERTEX
  8
0
  5
1ADD
 10
333.105
 20
-13.5945
 30
3.02808e-15
  70
    32
  0
VERTEX
  8
0
  5
1ADE
 10
333.109
 20
-13.6004
 30
3.02934e-15
  70
    32
  0
VERTEX
  8
0
  5
1ADF
 10
333.112
 20
-13.6063
 30
3.03063e-15
  70
    32
  0
VERTEX
  8
0
  5
1AE0
 10
333.116
 20
-13.6122
 30
3.03193e-15
  70
    32
  0
VERTEX
  8
0
  5
1AE1
 10
333.119
 20
-13.6181
 30
3.03326e-15
  70
    32
  0
VERTEX
  8
0
  5
1AE2
 10
333.122
 20
-13.6240
 30
3.03460e-15
  70
    32
  0
VERTEX
  8
0
  5
1AE3
 10
333.126
 20
-13.6299
 30
3.03596e-15
  70
    32
  0
VERTEX
  8
0
  5
1AE4
 10
333.129
 20
-13.6358
 30
3.03734e-15
  70
    32
  0
VERTEX
  8
0
  5
1AE5
 10
333.133
 20
-13.6417
 30
3.03873e-15
  70
    32
  0
VERTEX
  8
0
  5
1AE6
 10
333.136
 20
-13.6476
 30
3.04014e-15
  70
    32
  0
VERTEX
  8
0
  5
1AE7
 10
333.139
 20
-13.6535
 30
3.04157e-15
  70
    32
  0
VERTEX
  8
0
  5
1AE8
 10
333.143
 20
-13.6595
 30
3.04302e-15
  70
    32
  0
VERTEX
  8
0
  5
1AE9
 10
333.146
 20
-13.6654
 30
3.04447e-15
  70
    32
  0
VERTEX
  8
0
  5
1AEA
 10
333.150
 20
-13.6713
 30
3.04595e-15
  70
    32
  0
VERTEX
  8
0
  5
1AEB
 10
333.153
 20
-13.6773
 30
3.04743e-15
  70
    32
  0
VERTEX
  8
0
  5
1AEC
 10
333.156
 20
-13.6832
 30
3.04893e-15
  70
    32
  0
VERTEX
  8
0
  5
1AED
 10
333.160
 20
-13.6892
 30
3.05045e-15
  70
    32
  0
VERTEX
  8
0
  5
1AEE
 10
333.163
 20
-13.6951
 30
3.05197e-15
  70
    32
  0
VERTEX
  8
0
  5
1AEF
 10
333.167
 20
-13.7011
 30
3.05351e-15
  70
    32
  0
VERTEX
  8
0
  5
1AF0
 10
333.170
 20
-13.7070
 30
3.05506e-15
  70
    32
  0
VERTEX
  8
0
  5
1AF1
 10
333.174
 20
-13.7130
 30
3.05662e-15
  70
    32
  0
VERTEX
  8
0
  5
1AF2
 10
333.177
 20
-13.7189
 30
3.05818e-15
  70
    32
  0
VERTEX
  8
0
  5
1AF3
 10
333.180
 20
-13.7249
 30
3.05976e-15
  70
    32
  0
VERTEX
  8
0
  5
1AF4
 10
333.184
 20
-13.7308
 30
3.06135e-15
  70
    32
  0
VERTEX
  8
0
  5
1AF5
 10
333.187
 20
-13.7368
 30
3.06295e-15
  70
    32
  0
VERTEX
  8
0
  5
1AF6
 10
333.191
 20
-13.7428
 30
3.06456e-15
  70
    32
  0
VERTEX
  8
0
  5
1AF7
 10
333.194
 20
-13.7487
 30
3.06617e-15
  70
    32
  0
VERTEX
  8
0
  5
1AF8
 10
333.198
 20
-13.7547
 30
3.06779e-15
  70
    32
  0
VERTEX
  8
0
  5
1AF9
 10
333.201
 20
-13.7607
 30
3.06942e-15
  70
    32
  0
VERTEX
  8
0
  5
1AFA
 10
333.204
 20
-13.7666
 30
3.07105e-15
  70
    32
  0
VERTEX
  8
0
  5
1AFB
 10
333.208
 20
-13.7726
 30
3.07269e-15
  70
    32
  0
VERTEX
  8
0
  5
1AFC
 10
333.211
 20
-13.7786
 30
3.07433e-15
  70
    32
  0
VERTEX
  8
0
  5
1AFD
 10
333.215
 20
-13.7846
 30
3.07598e-15
  70
    32
  0
VERTEX
  8
0
  5
1AFE
 10
333.218
 20
-13.7905
 30
3.07763e-15
  70
    32
  0
VERTEX
  8
0
  5
1AFF
 10
333.222
 20
-13.7965
 30
3.07929e-15
  70
    32
  0
VERTEX
  8
0
  5
1B00
 10
333.225
 20
-13.8025
 30
3.08095e-15
  70
    32
  0
VERTEX
  8
0
  5
1B01
 10
333.228
 20
-13.8085
 30
3.08261e-15
  70
    32
  0
VERTEX
  8
0
  5
1B02
 10
333.232
 20
-13.8144
 30
3.08427e-15
  70
    32
  0
VERTEX
  8
0
  5
1B03
 10
333.235
 20
-13.8204
 30
3.08594e-15
  70
    32
  0
VERTEX
  8
0
  5
1B04
 10
333.239
 20
-13.8264
 30
3.08760e-15
  70
    32
  0
VERTEX
  8
0
  5
1B05
 10
333.242
 20
-13.8324
 30
3.08927e-15
  70
    32
  0
VERTEX
  8
0
  5
1B06
 10
333.246
 20
-13.8384
 30
3.09093e-15
  70
    32
  0
VERTEX
  8
0
  5
1B07
 10
333.249
 20
-13.8444
 30
3.09260e-15
  70
    32
  0
VERTEX
  8
0
  5
1B08
 10
333.252
 20
-13.8503
 30
3.09426e-15
  70
    32
  0
VERTEX
  8
0
  5
1B09
 10
333.256
 20
-13.8563
 30
3.09593e-15
  70
    32
  0
VERTEX
  8
0
  5
1B0A
 10
333.259
 20
-13.8623
 30
3.09759e-15
  70
    32
  0
VERTEX
  8
0
  5
1B0B
 10
333.263
 20
-13.8683
 30
3.09924e-15
  70
    32
  0
VERTEX
  8
0
  5
1B0C
 10
333.266
 20
-13.8743
 30
3.10090e-15
  70
    32
  0
VERTEX
  8
0
  5
1B0D
 10
333.270
 20
-13.8802
 30
3.10255e-15
  70
    32
  0
VERTEX
  8
0
  5
1B0E
 10
333.273
 20
-13.8862
 30
3.10419e-15
  70
    32
  0
VERTEX
  8
0
  5
1B0F
 10
333.276
 20
-13.8922
 30
3.10584e-15
  70
    32
  0
VERTEX
  8
0
  5
1B10
 10
333.280
 20
-13.8982
 30
3.10747e-15
  70
    32
  0
VERTEX
  8
0
  5
1B11
 10
333.283
 20
-13.9042
 30
3.10910e-15
  70
    32
  0
VERTEX
  8
0
  5
1B12
 10
333.287
 20
-13.9101
 30
3.11073e-15
  70
    32
  0
VERTEX
  8
0
  5
1B13
 10
333.290
 20
-13.9161
 30
3.11234e-15
  70
    32
  0
VERTEX
  8
0
  5
1B14
 10
333.294
 20
-13.9221
 30
3.11395e-15
  70
    32
  0
VERTEX
  8
0
  5
1B15
 10
333.297
 20
-13.9281
 30
3.11556e-15
  70
    32
  0
VERTEX
  8
0
  5
1B16
 10
333.300
 20
-13.9340
 30
3.11715e-15
  70
    32
  0
VERTEX
  8
0
  5
1B17
 10
333.304
 20
-13.9400
 30
3.11873e-15
  70
    32
  0
VERTEX
  8
0
  5
1B18
 10
333.307
 20
-13.9460
 30
3.12031e-15
  70
    32
  0
VERTEX
  8
0
  5
1B19
 10
333.311
 20
-13.9520
 30
3.12187e-15
  70
    32
  0
VERTEX
  8
0
  5
1B1A
 10
333.314
 20
-13.9579
 30
3.12343e-15
  70
    32
  0
VERTEX
  8
0
  5
1B1B
 10
333.318
 20
-13.9639
 30
3.12497e-15
  70
    32
  0
VERTEX
  8
0
  5
1B1C
 10
333.321
 20
-13.9699
 30
3.12650e-15
  70
    32
  0
VERTEX
  8
0
  5
1B1D
 10
333.324
 20
-13.9758
 30
3.12802e-15
  70
    32
  0
VERTEX
  8
0
  5
1B1E
 10
333.328
 20
-13.9818
 30
3.12953e-15
  70
    32
  0
VERTEX
  8
0
  5
1B1F
 10
333.331
 20
-13.9877
 30
3.13102e-15
  70
    32
  0
VERTEX
  8
0
  5
1B20
 10
333.335
 20
-13.9937
 30
3.13250e-15
  70
    32
  0
VERTEX
  8
0
  5
1B21
 10
333.338
 20
-13.9996
 30
3.13397e-15
  70
    32
  0
VERTEX
  8
0
  5
1B22
 10
333.341
 20
-14.0056
 30
3.13542e-15
  70
    32
  0
VERTEX
  8
0
  5
1B23
 10
333.345
 20
-14.0115
 30
3.13686e-15
  70
    32
  0
VERTEX
  8
0
  5
1B24
 10
333.348
 20
-14.0175
 30
3.13828e-15
  70
    32
  0
VERTEX
  8
0
  5
1B25
 10
333.352
 20
-14.0234
 30
3.13968e-15
  70
    32
  0
VERTEX
  8
0
  5
1B26
 10
333.355
 20
-14.0294
 30
3.14107e-15
  70
    32
  0
VERTEX
  8
0
  5
1B27
 10
333.359
 20
-14.0353
 30
3.14244e-15
  70
    32
  0
VERTEX
  8
0
  5
1B28
 10
333.362
 20
-14.0412
 30
3.14379e-15
  70
    32
  0
VERTEX
  8
0
  5
1B29
 10
333.365
 20
-14.0472
 30
3.14513e-15
  70
    32
  0
VERTEX
  8
0
  5
1B2A
 10
333.369
 20
-14.0531
 30
3.14644e-15
  70
    32
  0
VERTEX
  8
0
  5
1B2B
 10
333.372
 20
-14.0590
 30
3.14774e-15
  70
    32
  0
VERTEX
  8
0
  5
1B2C
 10
333.375
 20
-14.0649
 30
3.14901e-15
  70
    32
  0
VERTEX
  8
0
  5
1B2D
 10
333.379
 20
-14.0708
 30
3.15027e-15
  70
    32
  0
VERTEX
  8
0
  5
1B2E
 10
333.382
 20
-14.0767
 30
3.15150e-15
  70
    32
  0
VERTEX
  8
0
  5
1B2F
 10
333.386
 20
-14.0827
 30
3.15272e-15
  70
    32
  0
VERTEX
  8
0
  5
1B30
 10
333.389
 20
-14.0886
 30
3.15391e-15
  70
    32
  0
VERTEX
  8
0
  5
1B31
 10
333.392
 20
-14.0945
 30
3.15509e-15
  70
    32
  0
VERTEX
  8
0
  5
1B32
 10
333.396
 20
-14.1004
 30
3.15624e-15
  70
    32
  0
VERTEX
  8
0
  5
1B33
 10
333.399
 20
-14.1062
 30
3.15738e-15
  70
    32
  0
VERTEX
  8
0
  5
1B34
 10
333.403
 20
-14.1121
 30
3.15850e-15
  70
    32
  0
VERTEX
  8
0
  5
1B35
 10
333.406
 20
-14.1180
 30
3.15960e-15
  70
    32
  0
VERTEX
  8
0
  5
1B36
 10
333.409
 20
-14.1239
 30
3.16068e-15
  70
    32
  0
VERTEX
  8
0
  5
1B37
 10
333.413
 20
-14.1298
 30
3.16175e-15
  70
    32
  0
VERTEX
  8
0
  5
1B38
 10
333.416
 20
-14.1356
 30
3.16280e-15
  70
    32
  0
VERTEX
  8
0
  5
1B39
 10
333.419
 20
-14.1415
 30
3.16383e-15
  70
    32
  0
VERTEX
  8
0
  5
1B3A
 10
333.423
 20
-14.1474
 30
3.16485e-15
  70
    32
  0
VERTEX
  8
0
  5
1B3B
 10
333.426
 20
-14.1532
 30
3.16585e-15
  70
    32
  0
VERTEX
  8
0
  5
1B3C
 10
333.429
 20
-14.1591
 30
3.16684e-15
  70
    32
  0
VERTEX
  8
0
  5
1B3D
 10
333.433
 20
-14.1649
 30
3.16782e-15
  70
    32
  0
VERTEX
  8
0
  5
1B3E
 10
333.436
 20
-14.1708
 30
3.16877e-15
  70
    32
  0
VERTEX
  8
0
  5
1B3F
 10
333.439
 20
-14.1766
 30
3.16972e-15
  70
    32
  0
VERTEX
  8
0
  5
1B40
 10
333.443
 20
-14.1824
 30
3.17065e-15
  70
    32
  0
VERTEX
  8
0
  5
1B41
 10
333.446
 20
-14.1882
 30
3.17157e-15
  70
    32
  0
VERTEX
  8
0
  5
1B42
 10
333.449
 20
-14.1941
 30
3.17247e-15
  70
    32
  0
VERTEX
  8
0
  5
1B43
 10
333.453
 20
-14.1999
 30
3.17337e-15
  70
    32
  0
VERTEX
  8
0
  5
1B44
 10
333.456
 20
-14.2057
 30
3.17425e-15
  70
    32
  0
VERTEX
  8
0
  5
1B45
 10
333.459
 20
-14.2115
 30
3.17512e-15
  70
    32
  0
VERTEX
  8
0
  5
1B46
 10
333.463
 20
-14.2173
 30
3.17598e-15
  70
    32
  0
VERTEX
  8
0
  5
1B47
 10
333.466
 20
-14.2231
 30
3.17683e-15
  70
    32
  0
VERTEX
  8
0
  5
1B48
 10
333.469
 20
-14.2288
 30
3.17767e-15
  70
    32
  0
VERTEX
  8
0
  5
1B49
 10
333.473
 20
-14.2346
 30
3.17850e-15
  70
    32
  0
VERTEX
  8
0
  5
1B4A
 10
333.476
 20
-14.2404
 30
3.17932e-15
  70
    32
  0
VERTEX
  8
0
  5
1B4B
 10
333.479
 20
-14.2461
 30
3.18013e-15
  70
    32
  0
VERTEX
  8
0
  5
1B4C
 10
333.482
 20
-14.2519
 30
3.18093e-15
  70
    32
  0
VERTEX
  8
0
  5
1B4D
 10
333.486
 20
-14.2576
 30
3.18173e-15
  70
    32
  0
VERTEX
  8
0
  5
1B4E
 10
333.489
 20
-14.2634
 30
3.18252e-15
  70
    32
  0
VERTEX
  8
0
  5
1B4F
 10
333.492
 20
-14.2691
 30
3.18330e-15
  70
    32
  0
VERTEX
  8
0
  5
1B50
 10
333.496
 20
-14.2748
 30
3.18407e-15
  70
    32
  0
VERTEX
  8
0
  5
1B51
 10
333.499
 20
-14.2806
 30
3.18484e-15
  70
    32
  0
VERTEX
  8
0
  5
1B52
 10
333.502
 20
-14.2863
 30
3.18560e-15
  70
    32
  0
VERTEX
  8
0
  5
1B53
 10
333.505
 20
-14.2920
 30
3.18635e-15
  70
    32
  0
VERTEX
  8
0
  5
1B54
 10
333.509
 20
-14.2977
 30
3.18710e-15
  70
    32
  0
VERTEX
  8
0
  5
1B55
 10
333.512
 20
-14.3034
 30
3.18785e-15
  70
    32
  0
VERTEX
  8
0
  5
1B56
 10
333.515
 20
-14.3090
 30
3.18859e-15
  70
    32
  0
VERTEX
  8
0
  5
1B57
 10
333.518
 20
-14.3147
 30
3.18932e-15
  70
    32
  0
VERTEX
  8
0
  5
1B58
 10
333.522
 20
-14.3204
 30
3.19006e-15
  70
    32
  0
VERTEX
  8
0
  5
1B59
 10
333.525
 20
-14.3260
 30
3.19079e-15
  70
    32
  0
VERTEX
  8
0
  5
1B5A
 10
333.528
 20
-14.3317
 30
3.19151e-15
  70
    32
  0
VERTEX
  8
0
  5
1B5B
 10
333.531
 20
-14.3373
 30
3.19224e-15
  70
    32
  0
VERTEX
  8
0
  5
1B5C
 10
333.534
 20
-14.3429
 30
3.19296e-15
  70
    32
  0
VERTEX
  8
0
  5
1B5D
 10
333.538
 20
-14.3486
 30
3.19368e-15
  70
    32
  0
VERTEX
  8
0
  5
1B5E
 10
333.541
 20
-14.3542
 30
3.19440e-15
  70
    32
  0
VERTEX
  8
0
  5
1B5F
 10
333.544
 20
-14.3598
 30
3.19512e-15
  70
    32
  0
VERTEX
  8
0
  5
1B60
 10
333.547
 20
-14.3654
 30
3.19584e-15
  70
    32
  0
VERTEX
  8
0
  5
1B61
 10
333.550
 20
-14.3710
 30
3.19656e-15
  70
    32
  0
VERTEX
  8
0
  5
1B62
 10
333.554
 20
-14.3765
 30
3.19728e-15
  70
    32
  0
VERTEX
  8
0
  5
1B63
 10
333.557
 20
-14.3821
 30
3.19800e-15
  70
    32
  0
VERTEX
  8
0
  5
1B64
 10
333.560
 20
-14.3877
 30
3.19872e-15
  70
    32
  0
VERTEX
  8
0
  5
1B65
 10
333.563
 20
-14.3932
 30
3.19944e-15
  70
    32
  0
VERTEX
  8
0
  5
1B66
 10
333.566
 20
-14.3988
 30
3.20017e-15
  70
    32
  0
VERTEX
  8
0
  5
1B67
 10
333.569
 20
-14.4043
 30
3.20090e-15
  70
    32
  0
VERTEX
  8
0
  5
1B68
 10
333.573
 20
-14.4098
 30
3.20163e-15
  70
    32
  0
VERTEX
  8
0
  5
1B69
 10
333.576
 20
-14.4153
 30
3.20237e-15
  70
    32
  0
VERTEX
  8
0
  5
1B6A
 10
333.579
 20
-14.4208
 30
3.20310e-15
  70
    32
  0
VERTEX
  8
0
  5
1B6B
 10
333.582
 20
-14.4263
 30
3.20385e-15
  70
    32
  0
VERTEX
  8
0
  5
1B6C
 10
333.585
 20
-14.4318
 30
3.20459e-15
  70
    32
  0
VERTEX
  8
0
  5
1B6D
 10
333.588
 20
-14.4373
 30
3.20535e-15
  70
    32
  0
VERTEX
  8
0
  5
1B6E
 10
333.591
 20
-14.4427
 30
3.20610e-15
  70
    32
  0
VERTEX
  8
0
  5
1B6F
 10
333.594
 20
-14.4482
 30
3.20687e-15
  70
    32
  0
VERTEX
  8
0
  5
1B70
 10
333.598
 20
-14.4536
 30
3.20764e-15
  70
    32
  0
VERTEX
  8
0
  5
1B71
 10
333.601
 20
-14.4590
 30
3.20841e-15
  70
    32
  0
VERTEX
  8
0
  5
1B72
 10
333.604
 20
-14.4645
 30
3.20920e-15
  70
    32
  0
VERTEX
  8
0
  5
1B73
 10
333.607
 20
-14.4699
 30
3.20999e-15
  70
    32
  0
VERTEX
  8
0
  5
1B74
 10
333.610
 20
-14.4753
 30
3.21079e-15
  70
    32
  0
VERTEX
  8
0
  5
1B75
 10
333.613
 20
-14.4807
 30
3.21159e-15
  70
    32
  0
VERTEX
  8
0
  5
1B76
 10
333.616
 20
-14.4860
 30
3.21241e-15
  70
    32
  0
VERTEX
  8
0
  5
1B77
 10
333.619
 20
-14.4914
 30
3.21323e-15
  70
    32
  0
VERTEX
  8
0
  5
1B78
 10
333.622
 20
-14.4967
 30
3.21407e-15
  70
    32
  0
VERTEX
  8
0
  5
1B79
 10
333.625
 20
-14.5021
 30
3.21491e-15
  70
    32
  0
VERTEX
  8
0
  5
1B7A
 10
333.628
 20
-14.5074
 30
3.21577e-15
  70
    32
  0
VERTEX
  8
0
  5
1B7B
 10
333.631
 20
-14.5127
 30
3.21663e-15
  70
    32
  0
VERTEX
  8
0
  5
1B7C
 10
333.634
 20
-14.5180
 30
3.21751e-15
  70
    32
  0
VERTEX
  8
0
  5
1B7D
 10
333.637
 20
-14.5233
 30
3.21840e-15
  70
    32
  0
VERTEX
  8
0
  5
1B7E
 10
333.640
 20
-14.5286
 30
3.21930e-15
  70
    32
  0
VERTEX
  8
0
  5
1B7F
 10
333.643
 20
-14.5339
 30
3.22021e-15
  70
    32
  0
VERTEX
  8
0
  5
1B80
 10
333.646
 20
-14.5391
 30
3.22113e-15
  70
    32
  0
VERTEX
  8
0
  5
1B81
 10
333.649
 20
-14.5444
 30
3.22207e-15
  70
    32
  0
VERTEX
  8
0
  5
1B82
 10
333.652
 20
-14.5496
 30
3.22302e-15
  70
    32
  0
VERTEX
  8
0
  5
1B83
 10
333.655
 20
-14.5548
 30
3.22399e-15
  70
    32
  0
VERTEX
  8
0
  5
1B84
 10
333.658
 20
-14.5600
 30
3.22497e-15
  70
    32
  0
VERTEX
  8
0
  5
1B85
 10
333.661
 20
-14.5652
 30
3.22597e-15
  70
    32
  0
VERTEX
  8
0
  5
1B86
 10
333.664
 20
-14.5704
 30
3.22698e-15
  70
    32
  0
VERTEX
  8
0
  5
1B87
 10
333.667
 20
-14.5755
 30
3.22800e-15
  70
    32
  0
VERTEX
  8
0
  5
1B88
 10
333.670
 20
-14.5807
 30
3.22904e-15
  70
    32
  0
VERTEX
  8
0
  5
1B89
 10
333.673
 20
-14.5858
 30
3.23010e-15
  70
    32
  0
VERTEX
  8
0
  5
1B8A
 10
333.676
 20
-14.5910
 30
3.23118e-15
  70
    32
  0
VERTEX
  8
0
  5
1B8B
 10
333.679
 20
-14.5961
 30
3.23227e-15
  70
    32
  0
VERTEX
  8
0
  5
1B8C
 10
333.682
 20
-14.6012
 30
3.23338e-15
  70
    32
  0
VERTEX
  8
0
  5
1B8D
 10
333.685
 20
-14.6063
 30
3.23451e-15
  70
    32
  0
VERTEX
  8
0
  5
1B8E
 10
333.687
 20
-14.6113
 30
3.23565e-15
  70
    32
  0
VERTEX
  8
0
  5
1B8F
 10
333.690
 20
-14.6164
 30
3.23682e-15
  70
    32
  0
VERTEX
  8
0
  5
1B90
 10
333.693
 20
-14.6214
 30
3.23800e-15
  70
    32
  0
VERTEX
  8
0
  5
1B91
 10
333.696
 20
-14.6265
 30
3.23921e-15
  70
    32
  0
VERTEX
  8
0
  5
1B92
 10
333.699
 20
-14.6315
 30
3.24043e-15
  70
    32
  0
VERTEX
  8
0
  5
1B93
 10
333.702
 20
-14.6365
 30
3.24168e-15
  70
    32
  0
VERTEX
  8
0
  5
1B94
 10
333.705
 20
-14.6415
 30
3.24295e-15
  70
    32
  0
VERTEX
  8
0
  5
1B95
 10
333.707
 20
-14.6464
 30
3.24423e-15
  70
    32
  0
VERTEX
  8
0
  5
1B96
 10
333.710
 20
-14.6514
 30
3.24554e-15
  70
    32
  0
VERTEX
  8
0
  5
1B97
 10
333.713
 20
-14.6563
 30
3.24687e-15
  70
    32
  0
VERTEX
  8
0
  5
1B98
 10
333.716
 20
-14.6613
 30
3.24823e-15
  70
    32
  0
VERTEX
  8
0
  5
1B99
 10
333.719
 20
-14.6662
 30
3.24960e-15
  70
    32
  0
VERTEX
  8
0
  5
1B9A
 10
333.721
 20
-14.6711
 30
3.25100e-15
  70
    32
  0
VERTEX
  8
0
  5
1B9B
 10
333.724
 20
-14.6760
 30
3.25243e-15
  70
    32
  0
VERTEX
  8
0
  5
1B9C
 10
333.727
 20
-14.6808
 30
3.25388e-15
  70
    32
  0
VERTEX
  8
0
  5
1B9D
 10
333.730
 20
-14.6857
 30
3.25535e-15
  70
    32
  0
VERTEX
  8
0
  5
1B9E
 10
333.732
 20
-14.6905
 30
3.25685e-15
  70
    32
  0
VERTEX
  8
0
  5
1B9F
 10
333.735
 20
-14.6953
 30
3.25837e-15
  70
    32
  0
VERTEX
  8
0
  5
1BA0
 10
333.738
 20
-14.7001
 30
3.25992e-15
  70
    32
  0
VERTEX
  8
0
  5
1BA1
 10
333.741
 20
-14.7049
 30
3.26150e-15
  70
    32
  0
VERTEX
  8
0
  5
1BA2
 10
333.743
 20
-14.7097
 30
3.26310e-15
  70
    32
  0
VERTEX
  8
0
  5
1BA3
 10
333.746
 20
-14.7145
 30
3.26473e-15
  70
    32
  0
VERTEX
  8
0
  5
1BA4
 10
333.749
 20
-14.7192
 30
3.26638e-15
  70
    32
  0
VERTEX
  8
0
  5
1BA5
 10
333.751
 20
-14.7239
 30
3.26807e-15
  70
    32
  0
VERTEX
  8
0
  5
1BA6
 10
333.754
 20
-14.7286
 30
3.26972e-15
  70
    32
  0
VERTEX
  8
0
  5
1BA7
 10
333.757
 20
-14.7334
 30
3.27132e-15
  70
    32
  0
VERTEX
  8
0
  5
1BA8
 10
333.759
 20
-14.7381
 30
3.27286e-15
  70
    32
  0
VERTEX
  8
0
  5
1BA9
 10
333.762
 20
-14.7428
 30
3.27434e-15
  70
    32
  0
VERTEX
  8
0
  5
1BAA
 10
333.765
 20
-14.7475
 30
3.27577e-15
  70
    32
  0
VERTEX
  8
0
  5
1BAB
 10
333.768
 20
-14.7522
 30
3.27714e-15
  70
    32
  0
VERTEX
  8
0
  5
1BAC
 10
333.770
 20
-14.7569
 30
3.27846e-15
  70
    32
  0
VERTEX
  8
0
  5
1BAD
 10
333.773
 20
-14.7616
 30
3.27973e-15
  70
    32
  0
VERTEX
  8
0
  5
1BAE
 10
333.776
 20
-14.7663
 30
3.28095e-15
  70
    32
  0
VERTEX
  8
0
  5
1BAF
 10
333.778
 20
-14.7710
 30
3.28212e-15
  70
    32
  0
VERTEX
  8
0
  5
1BB0
 10
333.781
 20
-14.7757
 30
3.28324e-15
  70
    32
  0
VERTEX
  8
0
  5
1BB1
 10
333.784
 20
-14.7804
 30
3.28431e-15
  70
    32
  0
VERTEX
  8
0
  5
1BB2
 10
333.786
 20
-14.7851
 30
3.28533e-15
  70
    32
  0
VERTEX
  8
0
  5
1BB3
 10
333.789
 20
-14.7897
 30
3.28631e-15
  70
    32
  0
VERTEX
  8
0
  5
1BB4
 10
333.791
 20
-14.7944
 30
3.28725e-15
  70
    32
  0
VERTEX
  8
0
  5
1BB5
 10
333.794
 20
-14.7990
 30
3.28814e-15
  70
    32
  0
VERTEX
  8
0
  5
1BB6
 10
333.797
 20
-14.8036
 30
3.28899e-15
  70
    32
  0
VERTEX
  8
0
  5
1BB7
 10
333.799
 20
-14.8083
 30
3.28979e-15
  70
    32
  0
VERTEX
  8
0
  5
1BB8
 10
333.802
 20
-14.8129
 30
3.29056e-15
  70
    32
  0
VERTEX
  8
0
  5
1BB9
 10
333.805
 20
-14.8174
 30
3.29129e-15
  70
    32
  0
VERTEX
  8
0
  5
1BBA
 10
333.807
 20
-14.8220
 30
3.29198e-15
  70
    32
  0
VERTEX
  8
0
  5
1BBB
 10
333.810
 20
-14.8266
 30
3.29263e-15
  70
    32
  0
VERTEX
  8
0
  5
1BBC
 10
333.812
 20
-14.8311
 30
3.29324e-15
  70
    32
  0
VERTEX
  8
0
  5
1BBD
 10
333.815
 20
-14.8356
 30
3.29382e-15
  70
    32
  0
VERTEX
  8
0
  5
1BBE
 10
333.817
 20
-14.8401
 30
3.29437e-15
  70
    32
  0
VERTEX
  8
0
  5
1BBF
 10
333.820
 20
-14.8446
 30
3.29488e-15
  70
    32
  0
VERTEX
  8
0
  5
1BC0
 10
333.823
 20
-14.8491
 30
3.29536e-15
  70
    32
  0
VERTEX
  8
0
  5
1BC1
 10
333.825
 20
-14.8535
 30
3.29581e-15
  70
    32
  0
VERTEX
  8
0
  5
1BC2
 10
333.828
 20
-14.8579
 30
3.29623e-15
  70
    32
  0
VERTEX
  8
0
  5
1BC3
 10
333.830
 20
-14.8623
 30
3.29662e-15
  70
    32
  0
VERTEX
  8
0
  5
1BC4
 10
333.833
 20
-14.8667
 30
3.29699e-15
  70
    32
  0
VERTEX
  8
0
  5
1BC5
 10
333.835
 20
-14.8711
 30
3.29732e-15
  70
    32
  0
VERTEX
  8
0
  5
1BC6
 10
333.837
 20
-14.8754
 30
3.29763e-15
  70
    32
  0
VERTEX
  8
0
  5
1BC7
 10
333.840
 20
-14.8797
 30
3.29792e-15
  70
    32
  0
VERTEX
  8
0
  5
1BC8
 10
333.842
 20
-14.8840
 30
3.29818e-15
  70
    32
  0
VERTEX
  8
0
  5
1BC9
 10
333.845
 20
-14.8882
 30
3.29842e-15
  70
    32
  0
VERTEX
  8
0
  5
1BCA
 10
333.847
 20
-14.8925
 30
3.29863e-15
  70
    32
  0
VERTEX
  8
0
  5
1BCB
 10
333.850
 20
-14.8967
 30
3.29883e-15
  70
    32
  0
VERTEX
  8
0
  5
1BCC
 10
333.852
 20
-14.9008
 30
3.29900e-15
  70
    32
  0
VERTEX
  8
0
  5
1BCD
 10
333.854
 20
-14.9050
 30
3.29916e-15
  70
    32
  0
VERTEX
  8
0
  5
1BCE
 10
333.857
 20
-14.9091
 30
3.29930e-15
  70
    32
  0
VERTEX
  8
0
  5
1BCF
 10
333.859
 20
-14.9131
 30
3.29943e-15
  70
    32
  0
VERTEX
  8
0
  5
1BD0
 10
333.861
 20
-14.9172
 30
3.29953e-15
  70
    32
  0
VERTEX
  8
0
  5
1BD1
 10
333.863
 20
-14.9212
 30
3.29963e-15
  70
    32
  0
VERTEX
  8
0
  5
1BD2
 10
333.866
 20
-14.9251
 30
3.29971e-15
  70
    32
  0
VERTEX
  8
0
  5
1BD3
 10
333.868
 20
-14.9291
 30
3.29977e-15
  70
    32
  0
VERTEX
  8
0
  5
1BD4
 10
333.870
 20
-14.9330
 30
3.29983e-15
  70
    32
  0
VERTEX
  8
0
  5
1BD5
 10
333.872
 20
-14.9368
 30
3.29988e-15
  70
    32
  0
VERTEX
  8
0
  5
1BD6
 10
333.874
 20
-14.9407
 30
3.29991e-15
  70
    32
  0
VERTEX
  8
0
  5
1BD7
 10
333.877
 20
-14.9445
 30
3.29994e-15
  70
    32
  0
VERTEX
  8
0
  5
1BD8
 10
333.879
 20
-14.9482
 30
3.29996e-15
  70
    32
  0
VERTEX
  8
0
  5
1BD9
 10
333.881
 20
-14.9519
 30
3.29998e-15
  70
    32
  0
VERTEX
  8
0
  5
1BDA
 10
333.883
 20
-14.9556
 30
3.29999e-15
  70
    32
  0
VERTEX
  8
0
  5
1BDB
 10
333.885
 20
-14.9592
 30
3.30000e-15
  70
    32
  0
VERTEX
  8
0
  5
1BDC
 10
333.887
 20
-14.9628
 30
3.30000e-15
  70
    32
  0
VERTEX
  8
0
  5
1BDD
 10
333.889
 20
-14.9663
 30
3.30000e-15
  70
    32
  0
VERTEX
  8
0
  5
1BDE
 10
333.891
 20
-14.9698
 30
3.30000e-15
  70
    32
  0
VERTEX
  8
0
  5
1BDF
 10
333.893
 20
-14.9733
 30
3.30000e-15
  70
    32
  0
VERTEX
  8
0
  5
1BE0
 10
333.895
 20
-14.9767
 30
3.30000e-15
  70
    32
  0
VERTEX
  8
0
  5
1BE1
 10
333.897
 20
-14.9801
 30
3.30000e-15
  70
    32
  0
VERTEX
  8
0
  5
1BE2
 10
333.899
 20
-14.9834
 30
3.30000e-15
  70
    32
  0
VERTEX
  8
0
  5
1BE3
 10
333.901
 20
-14.9866
 30
3.30000e-15
  70
    32
  0
VERTEX
  8
0
  5
1BE4
 10
333.902
 20
-14.9899
 30
3.30000e-15
  70
    32
  0
VERTEX
  8
0
  5
1BE5
 10
333.904
 20
-14.9930
 30
3.30000e-15
  70
    32
  0
VERTEX
  8
0
  5
1BE6
 10
333.906
 20
-14.9962
 30
3.30000e-15
  70
    32
  0
VERTEX
  8
0
  5
1BE7
 10
333.908
 20
-14.9992
 30
3.30000e-15
  70
    32
  0
VERTEX
  8
0
  5
1BE8
 10
333.909
 20
-15.0023
 30
3.30000e-15
  70
    32
  0
VERTEX
  8
0
  5
1BE9
 10
333.911
 20
-15.0053
 30
3.30000e-15
  70
    32
  0
VERTEX
  8
0
  5
1BEA
 10
333.913
 20
-15.0082
 30
3.30000e-15
  70
    32
  0
VERTEX
  8
0
  5
1BEB
 10
333.914
 20
-15.0111
 30
3.30000e-15
  70
    32
  0
VERTEX
  8
0
  5
1BEC
 10
333.916
 20
-15.0139
 30
3.30000e-15
  70
    32
  0
VERTEX
  8
0
  5
1BED
 10
333.918
 20
-15.0167
 30
3.30000e-15
  70
    32
  0
VERTEX
  8
0
  5
1BEE
 10
333.919
 20
-15.0194
 30
3.30000e-15
  70
    32
  0
VERTEX
  8
0
  5
1BEF
 10
333.921
 20
-15.0220
 30
3.30000e-15
  70
    32
  0
VERTEX
  8
0
  5
1BF0
 10
333.922
 20
-15.0246
 30
3.30000e-15
  70
    32
  0
VERTEX
  8
0
  5
1BF1
 10
333.923
 20
-15.0272
 30
3.30000e-15
  70
    32
  0
VERTEX
  8
0
  5
1BF2
 10
333.925
 20
-15.0297
 30
3.30000e-15
  70
    32
  0
VERTEX
  8
0
  5
1BF3
 10
333.926
 20
-15.0321
 30
3.30000e-15
  70
    32
  0
VERTEX
  8
0
  5
1BF4
 10
333.928
 20
-15.0345
 30
3.30000e-15
  70
    32
  0
VERTEX
  8
0
  5
1BF5
 10
333.929
 20
-15.0368
 30
3.30000e-15
  70
    32
  0
VERTEX
  8
0
  5
1BF6
 10
333.930
 20
-15.0391
 30
3.30000e-15
  70
    32
  0
VERTEX
  8
0
  5
1BF7
 10
333.931
 20
-15.0413
 30
3.30000e-15
  70
    32
  0
VERTEX
  8
0
  5
1BF8
 10
333.933
 20
-15.0434
 30
3.30000e-15
  70
    32
  0
VERTEX
  8
0
  5
1BF9
 10
333.934
 20
-15.0455
 30
3.30000e-15
  70
    32
  0
VERTEX
  8
0
  5
1BFA
 10
333.935
 20
-15.0476
 30
3.30000e-15
  70
    32
  0
VERTEX
  8
0
  5
1BFB
 10
333.936
 20
-15.0495
 30
3.30000e-15
  70
    32
  0
VERTEX
  8
0
  5
1BFC
 10
333.937
 20
-15.0514
 30
3.30000e-15
  70
    32
  0
VERTEX
  8
0
  5
1BFD
 10
333.938
 20
-15.0532
 30
3.30000e-15
  70
    32
  0
VERTEX
  8
0
  5
1BFE
 10
333.939
 20
-15.0550
 30
3.30000e-15
  70
    32
  0
VERTEX
  8
0
  5
1BFF
 10
333.940
 20
-15.0567
 30
3.30000e-15
  70
    32
  0
VERTEX
  8
0
  5
1C00
 10
333.941
 20
-15.0584
 30
3.30000e-15
  70
    32
  0
VERTEX
  8
0
  5
1C01
 10
333.942
 20
-15.0599
 30
3.30000e-15
  70
    32
  0
VERTEX
  8
0
  5
1C02
 10
333.943
 20
-15.0615
 30
3.30000e-15
  70
    32
  0
VERTEX
  8
0
  5
1C03
 10
333.944
 20
-15.0629
 30
3.30000e-15
  70
    32
  0
VERTEX
  8
0
  5
1C04
 10
333.944
 20
-15.0643
 30
3.30000e-15
  70
    32
  0
VERTEX
  8
0
  5
1C05
 10
333.945
 20
-15.0656
 30
3.30000e-15
  70
    32
  0
VERTEX
  8
0
  5
1C06
 10
333.946
 20
-15.0668
 30
3.30000e-15
  70
    32
  0
VERTEX
  8
0
  5
1C07
 10
333.947
 20
-15.0680
 30
3.30000e-15
  70
    32
  0
VERTEX
  8
0
  5
1C08
 10
333.947
 20
-15.0691
 30
3.30000e-15
  70
    32
  0
VERTEX
  8
0
  5
1C09
 10
333.948
 20
-15.0702
 30
3.30000e-15
  70
    32
  0
VERTEX
  8
0
  5
1C0A
 10
333.948
 20
-15.0711
 30
3.30000e-15
  70
    32
  0
VERTEX
  8
0
  5
1C0B
 10
333.949
 20
-15.0721
 30
3.30000e-15
  70
    32
  0
VERTEX
  8
0
  5
1C0C
 10
333.949
 20
-15.0729
 30
3.30000e-15
  70
    32
  0
VERTEX
  8
0
  5
1C0D
 10
333.950
 20
-15.0737
 30
3.30000e-15
  70
    32
  0
VERTEX
  8
0
  5
1C0E
 10
333.950
 20
-15.0743
 30
3.30000e-15
  70
    32
  0
VERTEX
  8
0
  5
1C0F
 10
333.951
 20
-15.0750
 30
3.30000e-15
  70
    32
  0
VERTEX
  8
0
  5
1C10
 10
333.951
 20
-15.0755
 30
3.30000e-15
  70
    32
  0
VERTEX
  8
0
  5
1C11
 10
333.951
 20
-15.0760
 30
3.30000e-15
  70
    32
  0
VERTEX
  8
0
  5
1C12
 10
333.951
 20
-15.0764
 30
3.30000e-15
  70
    32
  0
VERTEX
  8
0
  5
1C13
 10
333.952
 20
-15.0767
 30
3.30000e-15
  70
    32
  0
VERTEX
  8
0
  5
1C14
 10
333.952
 20
-15.0770
 30
3.30000e-15
  70
    32
  0
VERTEX
  8
0
  5
1C15
 10
333.952
 20
-15.0772
 30
3.30000e-15
  70
    32
  0
VERTEX
  8
0
  5
1C16
 10
333.952
 20
-15.0773
 30
3.30000e-15
  70
    32
  0
VERTEX
  8
0
  5
1C17
 10
333.952
 20
-15.0773
 30
3.30000e-15
  70
    32
  0
SEQEND
  8
0
  5
1C18
  0
POLYLINE
  8
0
  5
1C19
  66
     1
 10
0.000000
 20
0.000000
 30
0.000000
  70
     8
  0
VERTEX
  8
0
  5
1C1A
 10
331.952
 20
-11.7138
 30
2.60000e-15
  70
    32
  0
VERTEX
  8
0
  5
1C1B
 10
331.952
 20
-11.7138
 30
2.60000e-15
  70
    32
  0
VERTEX
  8
0
  5
1C1C
 10
331.952
 20
-11.7138
 30
2.60000e-15
  70
    32
  0
VERTEX
  8
0
  5
1C1D
 10
331.952
 20
-11.7139
 30
2.60000e-15
  70
    32
  0
VERTEX
  8
0
  5
1C1E
 10
331.952
 20
-11.7139
 30
2.60000e-15
  70
    32
  0
VERTEX
  8
0
  5
1C1F
 10
331.952
 20
-11.7140
 30
2.60000e-15
  70
    32
  0
VERTEX
  8
0
  5
1C20
 10
331.952
 20
-11.7140
 30
2.60000e-15
  70
    32
  0
VERTEX
  8
0
  5
1C21
 10
331.952
 20
-11.7141
 30
2.60000e-15
  70
    32
  0
VERTEX
  8
0
  5
1C22
 10
331.952
 20
-11.7142
 30
2.60000e-15
  70
    32
  0
VERTEX
  8
0
  5
1C23
 10
331.952
 20
-11.7143
 30
2.60000e-15
  70
    32
  0
VERTEX
  8
0
  5
1C24
 10
331.952
 20
-11.7144
 30
2.60000e-15
  70
    32
  0
VERTEX
  8
0
  5
1C25
 10
331.952
 20
-11.7145
 30
2.60000e-15
  70
    32
  0
VERTEX
  8
0
  5
1C26
 10
331.953
 20
-11.7146
 30
2.60000e-15
  70
    32
  0
VERTEX
  8
0
  5
1C27
 10
331.953
 20
-11.7148
 30
2.60000e-15
  70
    32
  0
VERTEX
  8
0
  5
1C28
 10
331.953
 20
-11.7149
 30
2.60000e-15
  70
    32
  0
VERTEX
  8
0
  5
1C29
 10
331.953
 20
-11.7151
 30
2.60000e-15
  70
    32
  0
VERTEX
  8
0
  5
1C2A
 10
331.953
 20
-11.7152
 30
2.60000e-15
  70
    32
  0
VERTEX
  8
0
  5
1C2B
 10
331.953
 20
-11.7154
 30
2.60000e-15
  70
    32
  0
VERTEX
  8
0
  5
1C2C
 10
331.953
 20
-11.7156
 30
2.60000e-15
  70
    32
  0
VERTEX
  8
0
  5
1C2D
 10
331.954
 20
-11.7158
 30
2.60000e-15
  70
    32
  0
VERTEX
  8
0
  5
1C2E
 10
331.954
 20
-11.7160
 30
2.60000e-15
  70
    32
  0
VERTEX
  8
0
  5
1C2F
 10
331.954
 20
-11.7162
 30
2.60000e-15
  70
    32
  0
VERTEX
  8
0
  5
1C30
 10
331.954
 20
-11.7165
 30
2.60000e-15
  70
    32
  0
VERTEX
  8
0
  5
1C31
 10
331.954
 20
-11.7167
 30
2.60000e-15
  70
    32
  0
VERTEX
  8
0
  5
1C32
 10
331.954
 20
-11.7170
 30
2.60000e-15
  70
    32
  0
VERTEX
  8
0
  5
1C33
 10
331.955
 20
-11.7172
 30
2.60000e-15
  70
    32
  0
VERTEX
  8
0
  5
1C34
 10
331.955
 20
-11.7175
 30
2.60000e-15
  70
    32
  0
VERTEX
  8
0
  5
1C35
 10
331.955
 20
-11.7178
 30
2.60000e-15
  70
    32
  0
VERTEX
  8
0
  5
1C36
 10
331.955
 20
-11.7181
 30
2.60000e-15
  70
    32
  0
VERTEX
  8
0
  5
1C37
 10
331.956
 20
-11.7184
 30
2.60000e-15
  70
    32
  0
VERTEX
  8
0
  5
1C38
 10
331.956
 20
-11.7187
 30
2.60000e-15
  70
    32
  0
VERTEX
  8
0
  5
1C39
 10
331.956
 20
-11.7191
 30
2.60000e-15
  70
    32
  0
VERTEX
  8
0
  5
1C3A
 10
331.956
 20
-11.7194
 30
2.60000e-15
  70
    32
  0
VERTEX
  8
0
  5
1C3B
 10
331.957
 20
-11.7197
 30
2.60000e-15
  70
    32
  0
VERTEX
  8
0
  5
1C3C
 10
331.957
 20
-11.7201
 30
2.60000e-15
  70
    32
  0
VERTEX
  8
0
  5
1C3D
 10
331.957
 20
-11.7205
 30
2.60000e-15
  70
    32
  0
VERTEX
  8
0
  5
1C3E
 10
331.958
 20
-11.7209
 30
2.60000e-15
  70
    32
  0
VERTEX
  8
0
  5
1C3F
 10
331.958
 20
-11.7213
 30
2.60000e-15
  70
    32
  0
VERTEX
  8
0
  5
1C40
 10
331.958
 20
-11.7217
 30
2.60000e-15
  70
    32
  0
VERTEX
  8
0
  5
1C41
 10
331.959
 20
-11.7221
 30
2.60000e-15
  70
    32
  0
VERTEX
  8
0
  5
1C42
 10
331.959
 20
-11.7225
 30
2.60000e-15
  70
    32
  0
VERTEX
  8
0
  5
1C43
 10
331.959
 20
-11.7229
 30
2.60000e-15
  70
    32
  0
VERTEX
  8
0
  5
1C44
 10
331.960
 20
-11.7234
 30
2.60000e-15
  70
    32
  0
VERTEX
  8
0
  5
1C45
 10
331.960
 20
-11.7238
 30
2.60000e-15
  70
    32
  0
VERTEX
  8
0
  5
1C46
 10
331.960
 20
-11.7243
 30
2.60000e-15
  70
    32
  0
VERTEX
  8
0
  5
1C47
 10
331.961
 20
-11.7248
 30
2.60000e-15
  70
    32
  0
VERTEX
  8
0
  5
1C48
 10
331.961
 20
-11.7253
 30
2.60000e-15
  70
    32
  0
VERTEX
  8
0
  5
1C49
 10
331.962
 20
-11.7258
 30
2.60000e-15
  70
    32
  0
VERTEX
  8
0
  5
1C4A
 10
331.962
 20
-11.7263
 30
2.60000e-15
  70
    32
  0
VERTEX
  8
0
  5
1C4B
 10
331.962
 20
-11.7268
 30
2.60000e-15
  70
    32
  0
VERTEX
  8
0
  5
1C4C
 10
331.963
 20
-11.7273
 30
2.60000e-15
  70
    32
  0
VERTEX
  8
0
  5
1C4D
 10
331.963
 20
-11.7279
 30
2.60000e-15
  70
    32
  0
VERTEX
  8
0
  5
1C4E
 10
331.964
 20
-11.7284
 30
2.60000e-15
  70
    32
  0
VERTEX
  8
0
  5
1C4F
 10
331.964
 20
-11.7290
 30
2.60000e-15
  70
    32
  0
VERTEX
  8
0
  5
1C50
 10
331.965
 20
-11.7295
 30
2.60000e-15
  70
    32
  0
VERTEX
  8
0
  5
1C51
 10
331.965
 20
-11.7301
 30
2.60000e-15
  70
    32
  0
VERTEX
  8
0
  5
1C52
 10
331.966
 20
-11.7307
 30
2.60000e-15
  70
    32
  0
VERTEX
  8
0
  5
1C53
 10
331.966
 20
-11.7313
 30
2.60000e-15
  70
    32
  0
VERTEX
  8
0
  5
1C54
 10
331.967
 20
-11.7319
 30
2.60000e-15
  70
    32
  0
VERTEX
  8
0
  5
1C55
 10
331.967
 20
-11.7325
 30
2.60000e-15
  70
    32
  0
VERTEX
  8
0
  5
1C56
 10
331.968
 20
-11.7332
 30
2.60000e-15
  70
    32
  0
VERTEX
  8
0
  5
1C57
 10
331.968
 20
-11.7338
 30
2.60000e-15
  70
    32
  0
VERTEX
  8
0
  5
1C58
 10
331.969
 20
-11.7345
 30
2.60000e-15
  70
    32
  0
VERTEX
  8
0
  5
1C59
 10
331.969
 20
-11.7351
 30
2.60000e-15
  70
    32
  0
VERTEX
  8
0
  5
1C5A
 10
331.970
 20
-11.7358
 30
2.60000e-15
  70
    32
  0
VERTEX
  8
0
  5
1C5B
 10
331.970
 20
-11.7365
 30
2.60000e-15
  70
    32
  0
VERTEX
  8
0
  5
1C5C
 10
331.971
 20
-11.7372
 30
2.60000e-15
  70
    32
  0
VERTEX
  8
0
  5
1C5D
 10
331.971
 20
-11.7379
 30
2.60000e-15
  70
    32
  0
VERTEX
  8
0
  5
1C5E
 10
331.972
 20
-11.7386
 30
2.60000e-15
  70
    32
  0
VERTEX
  8
0
  5
1C5F
 10
331.973
 20
-11.7393
 30
2.60000e-15
  70
    32
  0
VERTEX
  8
0
  5
1C60
 10
331.973
 20
-11.7400
 30
2.60000e-15
  70
    32
  0
VERTEX
  8
0
  5
1C61
 10
331.974
 20
-11.7408
 30
2.60000e-15
  70
    32
  0
VERTEX
  8
0
  5
1C62
 10
331.974
 20
-11.7415
 30
2.60000e-15
  70
    32
  0
VERTEX
  8
0
  5
1C63
 10
331.975
 20
-11.7423
 30
2.60000e-15
  70
    32
  0
VERTEX
  8
0
  5
1C64
 10
331.976
 20
-11.7431
 30
2.60000e-15
  70
    32
  0
VERTEX
  8
0
  5
1C65
 10
331.976
 20
-11.7438
 30
2.60000e-15
  70
    32
  0
VERTEX
  8
0
  5
1C66
 10
331.977
 20
-11.7446
 30
2.60000e-15
  70
    32
  0
VERTEX
  8
0
  5
1C67
 10
331.977
 20
-11.7454
 30
2.60000e-15
  70
    32
  0
VERTEX
  8
0
  5
1C68
 10
331.978
 20
-11.7462
 30
2.60000e-15
  70
    32
  0
VERTEX
  8
0
  5
1C69
 10
331.979
 20
-11.7471
 30
2.60000e-15
  70
    32
  0
VERTEX
  8
0
  5
1C6A
 10
331.979
 20
-11.7479
 30
2.60000e-15
  70
    32
  0
VERTEX
  8
0
  5
1C6B
 10
331.980
 20
-11.7487
 30
2.60000e-15
  70
    32
  0
VERTEX
  8
0
  5
1C6C
 10
331.981
 20
-11.7496
 30
2.60000e-15
  70
    32
  0
VERTEX
  8
0
  5
1C6D
 10
331.982
 20
-11.7505
 30
2.60000e-15
  70
    32
  0
VERTEX
  8
0
  5
1C6E
 10
331.982
 20
-11.7513
 30
2.60000e-15
  70
    32
  0
VERTEX
  8
0
  5
1C6F
 10
331.983
 20
-11.7522
 30
2.60000e-15
  70
    32
  0
VERTEX
  8
0
  5
1C70
 10
331.984
 20
-11.7531
 30
2.60000e-15
  70
    32
  0
VERTEX
  8
0
  5
1C71
 10
331.984
 20
-11.7540
 30
2.60000e-15
  70
    32
  0
VERTEX
  8
0
  5
1C72
 10
331.985
 20
-11.7549
 30
2.60000e-15
  70
    32
  0
VERTEX
  8
0
  5
1C73
 10
331.986
 20
-11.7558
 30
2.60000e-15
  70
    32
  0
VERTEX
  8
0
  5
1C74
 10
331.987
 20
-11.7568
 30
2.60000e-15
  70
    32
  0
VERTEX
  8
0
  5
1C75
 10
331.987
 20
-11.7577
 30
2.60000e-15
  70
    32
  0
VERTEX
  8
0
  5
1C76
 10
331.988
 20
-11.7587
 30
2.60000e-15
  70
    32
  0
VERTEX
  8
0
  5
1C77
 10
331.989
 20
-11.7596
 30
2.60000e-15
  70
    32
  0
VERTEX
  8
0
  5
1C78
 10
331.990
 20
-11.7606
 30
2.60000e-15
  70
    32
  0
VERTEX
  8
0
  5
1C79
 10
331.990
 20
-11.7616
 30
2.60000e-15
  70
    32
  0
VERTEX
  8
0
  5
1C7A
 10
331.991
 20
-11.7626
 30
2.60000e-15
  70
    32
  0
VERTEX
  8
0
  5
1C7B
 10
331.992
 20
-11.7636
 30
2.60000e-15
  70
    32
  0
VERTEX
  8
0
  5
1C7C
 10
331.993
 20
-11.7646
 30
2.60001e-15
  70
    32
  0
VERTEX
  8
0
  5
1C7D
 10
331.994
 20
-11.7656
 30
2.60001e-15
  70
    32
  0
VERTEX
  8
0
  5
1C7E
 10
331.994
 20
-11.7666
 30
2.60002e-15
  70
    32
  0
VERTEX
  8
0
  5
1C7F
 10
331.995
 20
-11.7677
 30
2.60002e-15
  70
    32
  0
VERTEX
  8
0
  5
1C80
 10
331.996
 20
-11.7687
 30
2.60003e-15
  70
    32
  0
VERTEX
  8
0
  5
1C81
 10
331.997
 20
-11.7698
 30
2.60005e-15
  70
    32
  0
VERTEX
  8
0
  5
1C82
 10
331.998
 20
-11.7709
 30
2.60006e-15
  70
    32
  0
VERTEX
  8
0
  5
1C83
 10
331.999
 20
-11.7719
 30
2.60008e-15
  70
    32
  0
VERTEX
  8
0
  5
1C84
 10
331.999
 20
-11.7730
 30
2.60010e-15
  70
    32
  0
VERTEX
  8
0
  5
1C85
 10
332.000
 20
-11.7741
 30
2.60013e-15
  70
    32
  0
VERTEX
  8
0
  5
1C86
 10
332.001
 20
-11.7753
 30
2.60015e-15
  70
    32
  0
VERTEX
  8
0
  5
1C87
 10
332.002
 20
-11.7764
 30
2.60019e-15
  70
    32
  0
VERTEX
  8
0
  5
1C88
 10
332.003
 20
-11.7775
 30
2.60022e-15
  70
    32
  0
VERTEX
  8
0
  5
1C89
 10
332.004
 20
-11.7787
 30
2.60026e-15
  70
    32
  0
VERTEX
  8
0
  5
1C8A
 10
332.005
 20
-11.7798
 30
2.60031e-15
  70
    32
  0
VERTEX
  8
0
  5
1C8B
 10
332.006
 20
-11.7810
 30
2.60036e-15
  70
    32
  0
VERTEX
  8
0
  5
1C8C
 10
332.007
 20
-11.7822
 30
2.60042e-15
  70
    32
  0
VERTEX
  8
0
  5
1C8D
 10
332.008
 20
-11.7834
 30
2.60048e-15
  70
    32
  0
VERTEX
  8
0
  5
1C8E
 10
332.009
 20
-11.7846
 30
2.60055e-15
  70
    32
  0
VERTEX
  8
0
  5
1C8F
 10
332.009
 20
-11.7858
 30
2.60062e-15
  70
    32
  0
VERTEX
  8
0
  5
1C90
 10
332.010
 20
-11.7870
 30
2.60070e-15
  70
    32
  0
VERTEX
  8
0
  5
1C91
 10
332.011
 20
-11.7882
 30
2.60079e-15
  70
    32
  0
VERTEX
  8
0
  5
1C92
 10
332.012
 20
-11.7895
 30
2.60088e-15
  70
    32
  0
VERTEX
  8
0
  5
1C93
 10
332.013
 20
-11.7907
 30
2.60098e-15
  70
    32
  0
VERTEX
  8
0
  5
1C94
 10
332.014
 20
-11.7920
 30
2.60109e-15
  70
    32
  0
VERTEX
  8
0
  5
1C95
 10
332.015
 20
-11.7932
 30
2.60121e-15
  70
    32
  0
VERTEX
  8
0
  5
1C96
 10
332.016
 20
-11.7945
 30
2.60133e-15
  70
    32
  0
VERTEX
  8
0
  5
1C97
 10
332.017
 20
-11.7958
 30
2.60146e-15
  70
    32
  0
VERTEX
  8
0
  5
1C98
 10
332.018
 20
-11.7971
 30
2.60160e-15
  70
    32
  0
VERTEX
  8
0
  5
1C99
 10
332.019
 20
-11.7984
 30
2.60175e-15
  70
    32
  0
VERTEX
  8
0
  5
1C9A
 10
332.020
 20
-11.7998
 30
2.60191e-15
  70
    32
  0
VERTEX
  8
0
  5
1C9B
 10
332.021
 20
-11.8011
 30
2.60208e-15
  70
    32
  0
VERTEX
  8
0
  5
1C9C
 10
332.022
 20
-11.8024
 30
2.60226e-15
  70
    32
  0
VERTEX
  8
0
  5
1C9D
 10
332.024
 20
-11.8038
 30
2.60244e-15
  70
    32
  0
VERTEX
  8
0
  5
1C9E
 10
332.025
 20
-11.8052
 30
2.60264e-15
  70
    32
  0
VERTEX
  8
0
  5
1C9F
 10
332.026
 20
-11.8066
 30
2.60285e-15
  70
    32
  0
VERTEX
  8
0
  5
1CA0
 10
332.027
 20
-11.8079
 30
2.60306e-15
  70
    32
  0
VERTEX
  8
0
  5
1CA1
 10
332.028
 20
-11.8093
 30
2.60329e-15
  70
    32
  0
VERTEX
  8
0
  5
1CA2
 10
332.029
 20
-11.8108
 30
2.60353e-15
  70
    32
  0
VERTEX
  8
0
  5
1CA3
 10
332.030
 20
-11.8122
 30
2.60378e-15
  70
    32
  0
VERTEX
  8
0
  5
1CA4
 10
332.031
 20
-11.8136
 30
2.60404e-15
  70
    32
  0
VERTEX
  8
0
  5
1CA5
 10
332.032
 20
-11.8151
 30
2.60432e-15
  70
    32
  0
VERTEX
  8
0
  5
1CA6
 10
332.033
 20
-11.8165
 30
2.60461e-15
  70
    32
  0
VERTEX
  8
0
  5
1CA7
 10
332.034
 20
-11.8180
 30
2.60490e-15
  70
    32
  0
VERTEX
  8
0
  5
1CA8
 10
332.036
 20
-11.8195
 30
2.60522e-15
  70
    32
  0
VERTEX
  8
0
  5
1CA9
 10
332.037
 20
-11.8209
 30
2.60554e-15
  70
    32
  0
VERTEX
  8
0
  5
1CAA
 10
332.038
 20
-11.8224
 30
2.60588e-15
  70
    32
  0
VERTEX
  8
0
  5
1CAB
 10
332.039
 20
-11.8239
 30
2.60623e-15
  70
    32
  0
VERTEX
  8
0
  5
1CAC
 10
332.040
 20
-11.8255
 30
2.60659e-15
  70
    32
  0
VERTEX
  8
0
  5
1CAD
 10
332.041
 20
-11.8270
 30
2.60697e-15
  70
    32
  0
VERTEX
  8
0
  5
1CAE
 10
332.042
 20
-11.8285
 30
2.60736e-15
  70
    32
  0
VERTEX
  8
0
  5
1CAF
 10
332.044
 20
-11.8301
 30
2.60777e-15
  70
    32
  0
VERTEX
  8
0
  5
1CB0
 10
332.045
 20
-11.8317
 30
2.60819e-15
  70
    32
  0
VERTEX
  8
0
  5
1CB1
 10
332.046
 20
-11.8332
 30
2.60863e-15
  70
    32
  0
VERTEX
  8
0
  5
1CB2
 10
332.047
 20
-11.8348
 30
2.60908e-15
  70
    32
  0
VERTEX
  8
0
  5
1CB3
 10
332.048
 20
-11.8364
 30
2.60955e-15
  70
    32
  0
VERTEX
  8
0
  5
1CB4
 10
332.050
 20
-11.8380
 30
2.61004e-15
  70
    32
  0
VERTEX
  8
0
  5
1CB5
 10
332.051
 20
-11.8396
 30
2.61054e-15
  70
    32
  0
VERTEX
  8
0
  5
1CB6
 10
332.052
 20
-11.8413
 30
2.61105e-15
  70
    32
  0
VERTEX
  8
0
  5
1CB7
 10
332.053
 20
-11.8429
 30
2.61158e-15
  70
    32
  0
VERTEX
  8
0
  5
1CB8
 10
332.055
 20
-11.8446
 30
2.61213e-15
  70
    32
  0
VERTEX
  8
0
  5
1CB9
 10
332.056
 20
-11.8462
 30
2.61270e-15
  70
    32
  0
VERTEX
  8
0
  5
1CBA
 10
332.057
 20
-11.8479
 30
2.61329e-15
  70
    32
  0
VERTEX
  8
0
  5
1CBB
 10
332.058
 20
-11.8496
 30
2.61389e-15
  70
    32
  0
VERTEX
  8
0
  5
1CBC
 10
332.060
 20
-11.8513
 30
2.61451e-15
  70
    32
  0
VERTEX
  8
0
  5
1CBD
 10
332.061
 20
-11.8530
 30
2.61514e-15
  70
    32
  0
VERTEX
  8
0
  5
1CBE
 10
332.062
 20
-11.8547
 30
2.61580e-15
  70
    32
  0
VERTEX
  8
0
  5
1CBF
 10
332.064
 20
-11.8564
 30
2.61648e-15
  70
    32
  0
VERTEX
  8
0
  5
1CC0
 10
332.065
 20
-11.8582
 30
2.61717e-15
  70
    32
  0
VERTEX
  8
0
  5
1CC1
 10
332.066
 20
-11.8599
 30
2.61788e-15
  70
    32
  0
VERTEX
  8
0
  5
1CC2
 10
332.067
 20
-11.8617
 30
2.61862e-15
  70
    32
  0
VERTEX
  8
0
  5
1CC3
 10
332.069
 20
-11.8635
 30
2.61937e-15
  70
    32
  0
VERTEX
  8
0
  5
1CC4
 10
332.070
 20
-11.8652
 30
2.62014e-15
  70
    32
  0
VERTEX
  8
0
  5
1CC5
 10
332.071
 20
-11.8670
 30
2.62093e-15
  70
    32
  0
VERTEX
  8
0
  5
1CC6
 10
332.073
 20
-11.8688
 30
2.62175e-15
  70
    32
  0
VERTEX
  8
0
  5
1CC7
 10
332.074
 20
-11.8707
 30
2.62258e-15
  70
    32
  0
VERTEX
  8
0
  5
1CC8
 10
332.076
 20
-11.8725
 30
2.62344e-15
  70
    32
  0
VERTEX
  8
0
  5
1CC9
 10
332.077
 20
-11.8743
 30
2.62431e-15
  70
    32
  0
VERTEX
  8
0
  5
1CCA
 10
332.078
 20
-11.8762
 30
2.62521e-15
  70
    32
  0
VERTEX
  8
0
  5
1CCB
 10
332.080
 20
-11.8781
 30
2.62613e-15
  70
    32
  0
VERTEX
  8
0
  5
1CCC
 10
332.081
 20
-11.8799
 30
2.62707e-15
  70
    32
  0
VERTEX
  8
0
  5
1CCD
 10
332.082
 20
-11.8818
 30
2.62804e-15
  70
    32
  0
VERTEX
  8
0
  5
1CCE
 10
332.084
 20
-11.8837
 30
2.62902e-15
  70
    32
  0
VERTEX
  8
0
  5
1CCF
 10
332.085
 20
-11.8856
 30
2.63003e-15
  70
    32
  0
VERTEX
  8
0
  5
1CD0
 10
332.087
 20
-11.8875
 30
2.63107e-15
  70
    32
  0
VERTEX
  8
0
  5
1CD1
 10
332.088
 20
-11.8895
 30
2.63212e-15
  70
    32
  0
VERTEX
  8
0
  5
1CD2
 10
332.089
 20
-11.8914
 30
2.63320e-15
  70
    32
  0
VERTEX
  8
0
  5
1CD3
 10
332.091
 20
-11.8934
 30
2.63431e-15
  70
    32
  0
VERTEX
  8
0
  5
1CD4
 10
332.092
 20
-11.8953
 30
2.63543e-15
  70
    32
  0
VERTEX
  8
0
  5
1CD5
 10
332.094
 20
-11.8973
 30
2.63659e-15
  70
    32
  0
VERTEX
  8
0
  5
1CD6
 10
332.095
 20
-11.8993
 30
2.63776e-15
  70
    32
  0
VERTEX
  8
0
  5
1CD7
 10
332.097
 20
-11.9013
 30
2.63897e-15
  70
    32
  0
VERTEX
  8
0
  5
1CD8
 10
332.098
 20
-11.9033
 30
2.64019e-15
  70
    32
  0
VERTEX
  8
0
  5
1CD9
 10
332.100
 20
-11.9053
 30
2.64145e-15
  70
    32
  0
VERTEX
  8
0
  5
1CDA
 10
332.101
 20
-11.9074
 30
2.64273e-15
  70
    32
  0
VERTEX
  8
0
  5
1CDB
 10
332.103
 20
-11.9094
 30
2.64403e-15
  70
    32
  0
VERTEX
  8
0
  5
1CDC
 10
332.104
 20
-11.9115
 30
2.64535e-15
  70
    32
  0
VERTEX
  8
0
  5
1CDD
 10
332.106
 20
-11.9135
 30
2.64665e-15
  70
    32
  0
VERTEX
  8
0
  5
1CDE
 10
332.107
 20
-11.9156
 30
2.64793e-15
  70
    32
  0
VERTEX
  8
0
  5
1CDF
 10
332.109
 20
-11.9177
 30
2.64919e-15
  70
    32
  0
VERTEX
  8
0
  5
1CE0
 10
332.110
 20
-11.9198
 30
2.65043e-15
  70
    32
  0
VERTEX
  8
0
  5
1CE1
 10
332.112
 20
-11.9219
 30
2.65165e-15
  70
    32
  0
VERTEX
  8
0
  5
1CE2
 10
332.113
 20
-11.9240
 30
2.65285e-15
  70
    32
  0
VERTEX
  8
0
  5
1CE3
 10
332.115
 20
-11.9262
 30
2.65403e-15
  70
    32
  0
VERTEX
  8
0
  5
1CE4
 10
332.116
 20
-11.9283
 30
2.65519e-15
  70
    32
  0
VERTEX
  8
0
  5
1CE5
 10
332.118
 20
-11.9305
 30
2.65633e-15
  70
    32
  0
VERTEX
  8
0
  5
1CE6
 10
332.119
 20
-11.9326
 30
2.65745e-15
  70
    32
  0
VERTEX
  8
0
  5
1CE7
 10
332.121
 20
-11.9348
 30
2.65855e-15
  70
    32
  0
VERTEX
  8
0
  5
1CE8
 10
332.122
 20
-11.9370
 30
2.65963e-15
  70
    32
  0
VERTEX
  8
0
  5
1CE9
 10
332.124
 20
-11.9392
 30
2.66069e-15
  70
    32
  0
VERTEX
  8
0
  5
1CEA
 10
332.126
 20
-11.9414
 30
2.66173e-15
  70
    32
  0
VERTEX
  8
0
  5
1CEB
 10
332.127
 20
-11.9436
 30
2.66276e-15
  70
    32
  0
VERTEX
  8
0
  5
1CEC
 10
332.129
 20
-11.9459
 30
2.66376e-15
  70
    32
  0
VERTEX
  8
0
  5
1CED
 10
332.130
 20
-11.9481
 30
2.66475e-15
  70
    32
  0
VERTEX
  8
0
  5
1CEE
 10
332.132
 20
-11.9504
 30
2.66572e-15
  70
    32
  0
VERTEX
  8
0
  5
1CEF
 10
332.134
 20
-11.9526
 30
2.66668e-15
  70
    32
  0
VERTEX
  8
0
  5
1CF0
 10
332.135
 20
-11.9549
 30
2.66761e-15
  70
    32
  0
VERTEX
  8
0
  5
1CF1
 10
332.137
 20
-11.9572
 30
2.66853e-15
  70
    32
  0
VERTEX
  8
0
  5
1CF2
 10
332.138
 20
-11.9595
 30
2.66943e-15
  70
    32
  0
VERTEX
  8
0
  5
1CF3
 10
332.140
 20
-11.9618
 30
2.67031e-15
  70
    32
  0
VERTEX
  8
0
  5
1CF4
 10
332.142
 20
-11.9641
 30
2.67117e-15
  70
    32
  0
VERTEX
  8
0
  5
1CF5
 10
332.143
 20
-11.9664
 30
2.67202e-15
  70
    32
  0
VERTEX
  8
0
  5
1CF6
 10
332.145
 20
-11.9688
 30
2.67285e-15
  70
    32
  0
VERTEX
  8
0
  5
1CF7
 10
332.147
 20
-11.9711
 30
2.67367e-15
  70
    32
  0
VERTEX
  8
0
  5
1CF8
 10
332.148
 20
-11.9735
 30
2.67446e-15
  70
    32
  0
VERTEX
  8
0
  5
1CF9
 10
332.150
 20
-11.9759
 30
2.67524e-15
  70
    32
  0
VERTEX
  8
0
  5
1CFA
 10
332.152
 20
-11.9783
 30
2.67601e-15
  70
    32
  0
VERTEX
  8
0
  5
1CFB
 10
332.153
 20
-11.9807
 30
2.67676e-15
  70
    32
  0
VERTEX
  8
0
  5
1CFC
 10
332.155
 20
-11.9831
 30
2.67749e-15
  70
    32
  0
VERTEX
  8
0
  5
1CFD
 10
332.157
 20
-11.9855
 30
2.67821e-15
  70
    32
  0
VERTEX
  8
0
  5
1CFE
 10
332.158
 20
-11.9879
 30
2.67891e-15
  70
    32
  0
VERTEX
  8
0
  5
1CFF
 10
332.160
 20
-11.9904
 30
2.67960e-15
  70
    32
  0
VERTEX
  8
0
  5
1D00
 10
332.162
 20
-11.9928
 30
2.68027e-15
  70
    32
  0
VERTEX
  8
0
  5
1D01
 10
332.163
 20
-11.9953
 30
2.68093e-15
  70
    32
  0
VERTEX
  8
0
  5
1D02
 10
332.165
 20
-11.9978
 30
2.68157e-15
  70
    32
  0
VERTEX
  8
0
  5
1D03
 10
332.167
 20
-12.0003
 30
2.68220e-15
  70
    32
  0
VERTEX
  8
0
  5
1D04
 10
332.168
 20
-12.0028
 30
2.68282e-15
  70
    32
  0
VERTEX
  8
0
  5
1D05
 10
332.170
 20
-12.0053
 30
2.68342e-15
  70
    32
  0
VERTEX
  8
0
  5
1D06
 10
332.172
 20
-12.0078
 30
2.68400e-15
  70
    32
  0
VERTEX
  8
0
  5
1D07
 10
332.174
 20
-12.0103
 30
2.68457e-15
  70
    32
  0
VERTEX
  8
0
  5
1D08
 10
332.175
 20
-12.0129
 30
2.68513e-15
  70
    32
  0
VERTEX
  8
0
  5
1D09
 10
332.177
 20
-12.0154
 30
2.68567e-15
  70
    32
  0
VERTEX
  8
0
  5
1D0A
 10
332.179
 20
-12.0180
 30
2.68620e-15
  70
    32
  0
VERTEX
  8
0
  5
1D0B
 10
332.181
 20
-12.0206
 30
2.68672e-15
  70
    32
  0
VERTEX
  8
0
  5
1D0C
 10
332.182
 20
-12.0232
 30
2.68723e-15
  70
    32
  0
VERTEX
  8
0
  5
1D0D
 10
332.184
 20
-12.0258
 30
2.68772e-15
  70
    32
  0
VERTEX
  8
0
  5
1D0E
 10
332.186
 20
-12.0284
 30
2.68820e-15
  70
    32
  0
VERTEX
  8
0
  5
1D0F
 10
332.188
 20
-12.0310
 30
2.68866e-15
  70
    32
  0
VERTEX
  8
0
  5
1D10
 10
332.189
 20
-12.0337
 30
2.68912e-15
  70
    32
  0
VERTEX
  8
0
  5
1D11
 10
332.191
 20
-12.0363
 30
2.68956e-15
  70
    32
  0
VERTEX
  8
0
  5
1D12
 10
332.193
 20
-12.0390
 30
2.68999e-15
  70
    32
  0
VERTEX
  8
0
  5
1D13
 10
332.195
 20
-12.0417
 30
2.69040e-15
  70
    32
  0
VERTEX
  8
0
  5
1D14
 10
332.197
 20
-12.0443
 30
2.69081e-15
  70
    32
  0
VERTEX
  8
0
  5
1D15
 10
332.198
 20
-12.0470
 30
2.69120e-15
  70
    32
  0
VERTEX
  8
0
  5
1D16
 10
332.200
 20
-12.0497
 30
2.69158e-15
  70
    32
  0
VERTEX
  8
0
  5
1D17
 10
332.202
 20
-12.0525
 30
2.69196e-15
  70
    32
  0
VERTEX
  8
0
  5
1D18
 10
332.204
 20
-12.0552
 30
2.69232e-15
  70
    32
  0
VERTEX
  8
0
  5
1D19
 10
332.206
 20
-12.0579
 30
2.69267e-15
  70
    32
  0
VERTEX
  8
0
  5
1D1A
 10
332.207
 20
-12.0607
 30
2.69300e-15
  70
    32
  0
VERTEX
  8
0
  5
1D1B
 10
332.209
 20
-12.0635
 30
2.69333e-15
  70
    32
  0
VERTEX
  8
0
  5
1D1C
 10
332.211
 20
-12.0662
 30
2.69365e-15
  70
    32
  0
VERTEX
  8
0
  5
1D1D
 10
332.213
 20
-12.0690
 30
2.69396e-15
  70
    32
  0
VERTEX
  8
0
  5
1D1E
 10
332.215
 20
-12.0718
 30
2.69425e-15
  70
    32
  0
VERTEX
  8
0
  5
1D1F
 10
332.217
 20
-12.0747
 30
2.69454e-15
  70
    32
  0
VERTEX
  8
0
  5
1D20
 10
332.218
 20
-12.0775
 30
2.69482e-15
  70
    32
  0
VERTEX
  8
0
  5
1D21
 10
332.220
 20
-12.0803
 30
2.69509e-15
  70
    32
  0
VERTEX
  8
0
  5
1D22
 10
332.222
 20
-12.0832
 30
2.69534e-15
  70
    32
  0
VERTEX
  8
0
  5
1D23
 10
332.224
 20
-12.0860
 30
2.69559e-15
  70
    32
  0
VERTEX
  8
0
  5
1D24
 10
332.226
 20
-12.0889
 30
2.69583e-15
  70
    32
  0
VERTEX
  8
0
  5
1D25
 10
332.228
 20
-12.0918
 30
2.69607e-15
  70
    32
  0
VERTEX
  8
0
  5
1D26
 10
332.230
 20
-12.0947
 30
2.69629e-15
  70
    32
  0
VERTEX
  8
0
  5
1D27
 10
332.232
 20
-12.0976
 30
2.69650e-15
  70
    32
  0
VERTEX
  8
0
  5
1D28
 10
332.233
 20
-12.1005
 30
2.69671e-15
  70
    32
  0
VERTEX
  8
0
  5
1D29
 10
332.235
 20
-12.1035
 30
2.69691e-15
  70
    32
  0
VERTEX
  8
0
  5
1D2A
 10
332.237
 20
-12.1064
 30
2.69710e-15
  70
    32
  0
VERTEX
  8
0
  5
1D2B
 10
332.239
 20
-12.1094
 30
2.69728e-15
  70
    32
  0
VERTEX
  8
0
  5
1D2C
 10
332.241
 20
-12.1123
 30
2.69745e-15
  70
    32
  0
VERTEX
  8
0
  5
1D2D
 10
332.243
 20
-12.1153
 30
2.69762e-15
  70
    32
  0
VERTEX
  8
0
  5
1D2E
 10
332.245
 20
-12.1183
 30
2.69778e-15
  70
    32
  0
VERTEX
  8
0
  5
1D2F
 10
332.247
 20
-12.1213
 30
2.69793e-15
  70
    32
  0
VERTEX
  8
0
  5
1D30
 10
332.249
 20
-12.1244
 30
2.69807e-15
  70
    32
  0
VERTEX
  8
0
  5
1D31
 10
332.251
 20
-12.1274
 30
2.69821e-15
  70
    32
  0
VERTEX
  8
0
  5
1D32
 10
332.253
 20
-12.1304
 30
2.69834e-15
  70
    32
  0
VERTEX
  8
0
  5
1D33
 10
332.254
 20
-12.1335
 30
2.69846e-15
  70
    32
  0
VERTEX
  8
0
  5
1D34
 10
332.256
 20
-12.1366
 30
2.69858e-15
  70
    32
  0
VERTEX
  8
0
  5
1D35
 10
332.258
 20
-12.1396
 30
2.69869e-15
  70
    32
  0
VERTEX
  8
0
  5
1D36
 10
332.260
 20
-12.1427
 30
2.69880e-15
  70
    32
  0
VERTEX
  8
0
  5
1D37
 10
332.262
 20
-12.1458
 30
2.69890e-15
  70
    32
  0
VERTEX
  8
0
  5
1D38
 10
332.264
 20
-12.1490
 30
2.69899e-15
  70
    32
  0
VERTEX
  8
0
  5
1D39
 10
332.266
 20
-12.1521
 30
2.69908e-15
  70
    32
  0
VERTEX
  8
0
  5
1D3A
 10
332.268
 20
-12.1552
 30
2.69917e-15
  70
    32
  0
VERTEX
  8
0
  5
1D3B
 10
332.270
 20
-12.1584
 30
2.69924e-15
  70
    32
  0
VERTEX
  8
0
  5
1D3C
 10
332.272
 20
-12.1615
 30
2.69932e-15
  70
    32
  0
VERTEX
  8
0
  5
1D3D
 10
332.274
 20
-12.1647
 30
2.69939e-15
  70
    32
  0
VERTEX
  8
0
  5
1D3E
 10
332.276
 20
-12.1679
 30
2.69945e-15
  70
    32
  0
VERTEX
  8
0
  5
1D3F
 10
332.278
 20
-12.1711
 30
2.69951e-15
  70
    32
  0
VERTEX
  8
0
  5
1D40
 10
332.280
 20
-12.1743
 30
2.69956e-15
  70
    32
  0
VERTEX
  8
0
  5
1D41
 10
332.282
 20
-12.1776
 30
2.69961e-15
  70
    32
  0
VERTEX
  8
0
  5
1D42
 10
332.284
 20
-12.1808
 30
2.69966e-15
  70
    32
  0
VERTEX
  8
0
  5
1D43
 10
332.286
 20
-12.1841
 30
2.69970e-15
  70
    32
  0
VERTEX
  8
0
  5
1D44
 10
332.288
 20
-12.1873
 30
2.69974e-15
  70
    32
  0
VERTEX
  8
0
  5
1D45
 10
332.290
 20
-12.1906
 30
2.69978e-15
  70
    32
  0
VERTEX
  8
0
  5
1D46
 10
332.292
 20
-12.1939
 30
2.69981e-15
  70
    32
  0
VERTEX
  8
0
  5
1D47
 10
332.294
 20
-12.1972
 30
2.69984e-15
  70
    32
  0
VERTEX
  8
0
  5
1D48
 10
332.296
 20
-12.2005
 30
2.69986e-15
  70
    32
  0
VERTEX
  8
0
  5
1D49
 10
332.298
 20
-12.2039
 30
2.69989e-15
  70
    32
  0
VERTEX
  8
0
  5
1D4A
 10
332.300
 20
-12.2072
 30
2.69991e-15
  70
    32
  0
VERTEX
  8
0
  5
1D4B
 10
332.302
 20
-12.2106
 30
2.69992e-15
  70
    32
  0
VERTEX
  8
0
  5
1D4C
 10
332.304
 20
-12.2139
 30
2.69994e-15
  70
    32
  0
VERTEX
  8
0
  5
1D4D
 10
332.306
 20
-12.2173
 30
2.69995e-15
  70
    32
  0
VERTEX
  8
0
  5
1D4E
 10
332.308
 20
-12.2207
 30
2.69996e-15
  70
    32
  0
VERTEX
  8
0
  5
1D4F
 10
332.310
 20
-12.2241
 30
2.69997e-15
  70
    32
  0
VERTEX
  8
0
  5
1D50
 10
332.312
 20
-12.2275
 30
2.69998e-15
  70
    32
  0
VERTEX
  8
0
  5
1D51
 10
332.314
 20
-12.2310
 30
2.69999e-15
  70
    32
  0
VERTEX
  8
0
  5
1D52
 10
332.316
 20
-12.2344
 30
2.69999e-15
  70
    32
  0
VERTEX
  8
0
  5
1D53
 10
332.318
 20
-12.2379
 30
2.69999e-15
  70
    32
  0
VERTEX
  8
0
  5
1D54
 10
332.320
 20
-12.2413
 30
2.70000e-15
  70
    32
  0
VERTEX
  8
0
  5
1D55
 10
332.322
 20
-12.2448
 30
2.70000e-15
  70
    32
  0
VERTEX
  8
0
  5
1D56
 10
332.324
 20
-12.2483
 30
2.70000e-15
  70
    32
  0
VERTEX
  8
0
  5
1D57
 10
332.326
 20
-12.2518
 30
2.70000e-15
  70
    32
  0
VERTEX
  8
0
  5
1D58
 10
332.329
 20
-12.2553
 30
2.70000e-15
  70
    32
  0
VERTEX
  8
0
  5
1D59
 10
332.331
 20
-12.2589
 30
2.70000e-15
  70
    32
  0
SEQEND
  8
0
  5
1D5A
  0
POLYLINE
  8
0
  5
1D5B
  66
     1
 10
0.000000
 20
0.000000
 30
0.000000
  70
     8
  0
VERTEX
  8
0
  5
1D5C
 10
433.952
 20
-15.0773
 30
3.30000e-15
  70
    32
  0
VERTEX
  8
0
  5
1D5D
 10
433.952
 20
-15.0773
 30
3.30000e-15
  70
    32
  0
VERTEX
  8
0
  5
1D5E
 10
433.952
 20
-15.0772
 30
3.30000e-15
  70
    32
  0
VERTEX
  8
0
  5
1D5F
 10
433.952
 20
-15.0770
 30
3.30000e-15
  70
    32
  0
VERTEX
  8
0
  5
1D60
 10
433.952
 20
-15.0767
 30
3.30000e-15
  70
    32
  0
VERTEX
  8
0
  5
1D61
 10
433.952
 20
-15.0763
 30
3.30000e-15
  70
    32
  0
VERTEX
  8
0
  5
1D62
 10
433.953
 20
-15.0758
 30
3.30000e-15
  70
    32
  0
VERTEX
  8
0
  5
1D63
 10
433.953
 20
-15.0753
 30
3.30000e-15
  70
    32
  0
VERTEX
  8
0
  5
1D64
 10
433.953
 20
-15.0747
 30
3.30000e-15
  70
    32
  0
VERTEX
  8
0
  5
1D65
 10
433.954
 20
-15.0740
 30
3.30000e-15
  70
    32
  0
VERTEX
  8
0
  5
1D66
 10
433.954
 20
-15.0732
 30
3.30000e-15
  70
    32
  0
VERTEX
  8
0
  5
1D67
 10
433.955
 20
-15.0723
 30
3.30000e-15
  70
    32
  0
VERTEX
  8
0
  5
1D68
 10
433.955
 20
-15.0714
 30
3.30000e-15
  70
    32
  0
VERTEX
  8
0
  5
1D69
 10
433.956
 20
-15.0704
 30
3.30000e-15
  70
    32
  0
VERTEX
  8
0
  5
1D6A
 10
433.956
 20
-15.0693
 30
3.30000e-15
  70
    32
  0
VERTEX
  8
0
  5
1D6B
 10
433.957
 20
-15.0681
 30
3.30000e-15
  70
    32
  0
VERTEX
  8
0
  5
1D6C
 10
433.958
 20
-15.0668
 30
3.30000e-15
  70
    32
  0
VERTEX
  8
0
  5
1D6D
 10
433.959
 20
-15.0655
 30
3.30000e-15
  70
    32
  0
VERTEX
  8
0
  5
1D6E
 10
433.959
 20
-15.0641
 30
3.30000e-15
  70
    32
  0
VERTEX
  8
0
  5
1D6F
 10
433.960
 20
-15.0626
 30
3.30000e-15
  70
    32
  0
VERTEX
  8
0
  5
1D70
 10
433.961
 20
-15.0611
 30
3.30000e-15
  70
    32
  0
VERTEX
  8
0
  5
1D71
 10
433.962
 20
-15.0595
 30
3.30000e-15
  70
    32
  0
VERTEX
  8
0
  5
1D72
 10
433.963
 20
-15.0578
 30
3.30000e-15
  70
    32
  0
VERTEX
  8
0
  5
1D73
 10
433.964
 20
-15.0560
 30
3.30000e-15
  70
    32
  0
VERTEX
  8
0
  5
1D74
 10
433.965
 20
-15.0541
 30
3.30000e-15
  70
    32
  0
VERTEX
  8
0
  5
1D75
 10
433.966
 20
-15.0522
 30
3.30000e-15
  70
    32
  0
VERTEX
  8
0
  5
1D76
 10
433.967
 20
-15.0502
 30
3.30000e-15
  70
    32
  0
VERTEX
  8
0
  5
1D77
 10
433.968
 20
-15.0482
 30
3.30000e-15
  70
    32
  0
VERTEX
  8
0
  5
1D78
 10
433.970
 20
-15.0460
 30
3.30000e-15
  70
    32
  0
VERTEX
  8
0
  5
1D79
 10
433.971
 20
-15.0438
 30
3.30000e-15
  70
    32
  0
VERTEX
  8
0
  5
1D7A
 10
433.972
 20
-15.0416
 30
3.30000e-15
  70
    32
  0
VERTEX
  8
0
  5
1D7B
 10
433.973
 20
-15.0392
 30
3.30000e-15
  70
    32
  0
VERTEX
  8
0
  5
1D7C
 10
433.975
 20
-15.0368
 30
3.30000e-15
  70
    32
  0
VERTEX
  8
0
  5
1D7D
 10
433.976
 20
-15.0344
 30
3.30000e-15
  70
    32
  0
VERTEX
  8
0
  5
1D7E
 10
433.978
 20
-15.0318
 30
3.30000e-15
  70
    32
  0
VERTEX
  8
0
  5
1D7F
 10
433.979
 20
-15.0292
 30
3.30000e-15
  70
    32
  0
VERTEX
  8
0
  5
1D80
 10
433.981
 20
-15.0265
 30
3.30000e-15
  70
    32
  0
VERTEX
  8
0
  5
1D81
 10
433.982
 20
-15.0238
 30
3.30000e-15
  70
    32
  0
VERTEX
  8
0
  5
1D82
 10
433.984
 20
-15.0210
 30
3.30000e-15
  70
    32
  0
VERTEX
  8
0
  5
1D83
 10
433.985
 20
-15.0182
 30
3.30000e-15
  70
    32
  0
VERTEX
  8
0
  5
1D84
 10
433.987
 20
-15.0153
 30
3.30000e-15
  70
    32
  0
VERTEX
  8
0
  5
1D85
 10
433.989
 20
-15.0123
 30
3.30000e-15
  70
    32
  0
VERTEX
  8
0
  5
1D86
 10
433.990
 20
-15.0093
 30
3.30000e-15
  70
    32
  0
VERTEX
  8
0
  5
1D87
 10
433.992
 20
-15.0062
 30
3.30000e-15
  70
    32
  0
VERTEX
  8
0
  5
1D88
 10
433.994
 20
-15.0030
 30
3.30000e-15
  70
    32
  0
VERTEX
  8
0
  5
1D89
 10
433.996
 20
-14.9998
 30
3.30000e-15
  70
    32
  0
VERTEX
  8
0
  5
1D8A
 10
433.998
 20
-14.9965
 30
3.30000e-15
  70
    32
  0
VERTEX
  8
0
  5
1D8B
 10
434.000
 20
-14.9932
 30
3.30000e-15
  70
    32
  0
VERTEX
  8
0
  5
1D8C
 10
434.001
 20
-14.9898
 30
3.30000e-15
  70
    32
  0
VERTEX
  8
0
  5
1D8D
 10
434.003
 20
-14.9864
 30
3.30000e-15
  70
    32
  0
VERTEX
  8
0
  5
1D8E
 10
434.005
 20
-14.9829
 30
3.30000e-15
  70
    32
  0
VERTEX
  8
0
  5
1D8F
 10
434.007
 20
-14.9794
 30
3.30000e-15
  70
    32
  0
VERTEX
  8
0
  5
1D90
 10
434.009
 20
-14.9758
 30
3.30000e-15
  70
    32
  0
VERTEX
  8
0
  5
1D91
 10
434.011
 20
-14.9722
 30
3.30000e-15
  70
    32
  0
VERTEX
  8
0
  5
1D92
 10
434.014
 20
-14.9685
 30
3.30000e-15
  70
    32
  0
VERTEX
  8
0
  5
1D93
 10
434.016
 20
-14.9648
 30
3.30000e-15
  70
    32
  0
VERTEX
  8
0
  5
1D94
 10
434.018
 20
-14.9610
 30
3.30000e-15
  70
    32
  0
VERTEX
  8
0
  5
1D95
 10
434.020
 20
-14.9571
 30
3.29999e-15
  70
    32
  0
VERTEX
  8
0
  5
1D96
 10
434.022
 20
-14.9533
 30
3.29998e-15
  70
    32
  0
VERTEX
  8
0
  5
1D97
 10
434.024
 20
-14.9493
 30
3.29997e-15
  70
    32
  0
VERTEX
  8
0
  5
1D98
 10
434.027
 20
-14.9454
 30
3.29995e-15
  70
    32
  0
VERTEX
  8
0
  5
1D99
 10
434.029
 20
-14.9413
 30
3.29992e-15
  70
    32
  0
VERTEX
  8
0
  5
1D9A
 10
434.031
 20
-14.9373
 30
3.29988e-15
  70
    32
  0
VERTEX
  8
0
  5
1D9B
 10
434.034
 20
-14.9332
 30
3.29983e-15
  70
    32
  0
VERTEX
  8
0
  5
1D9C
 10
434.036
 20
-14.9290
 30
3.29977e-15
  70
    32
  0
VERTEX
  8
0
  5
1D9D
 10
434.038
 20
-14.9249
 30
3.29970e-15
  70
    32
  0
VERTEX
  8
0
  5
1D9E
 10
434.041
 20
-14.9206
 30
3.29962e-15
  70
    32
  0
VERTEX
  8
0
  5
1D9F
 10
434.043
 20
-14.9164
 30
3.29951e-15
  70
    32
  0
VERTEX
  8
0
  5
1DA0
 10
434.046
 20
-14.9121
 30
3.29940e-15
  70
    32
  0
VERTEX
  8
0
  5
1DA1
 10
434.048
 20
-14.9077
 30
3.29926e-15
  70
    32
  0
VERTEX
  8
0
  5
1DA2
 10
434.050
 20
-14.9034
 30
3.29910e-15
  70
    32
  0
VERTEX
  8
0
  5
1DA3
 10
434.053
 20
-14.8990
 30
3.29893e-15
  70
    32
  0
VERTEX
  8
0
  5
1DA4
 10
434.055
 20
-14.8945
 30
3.29873e-15
  70
    32
  0
VERTEX
  8
0
  5
1DA5
 10
434.058
 20
-14.8901
 30
3.29851e-15
  70
    32
  0
VERTEX
  8
0
  5
1DA6
 10
434.061
 20
-14.8855
 30
3.29827e-15
  70
    32
  0
VERTEX
  8
0
  5
1DA7
 10
434.063
 20
-14.8810
 30
3.29800e-15
  70
    32
  0
VERTEX
  8
0
  5
1DA8
 10
434.066
 20
-14.8764
 30
3.29770e-15
  70
    32
  0
VERTEX
  8
0
  5
1DA9
 10
434.068
 20
-14.8719
 30
3.29738e-15
  70
    32
  0
VERTEX
  8
0
  5
1DAA
 10
434.071
 20
-14.8672
 30
3.29703e-15
  70
    32
  0
VERTEX
  8
0
  5
1DAB
 10
434.074
 20
-14.8626
 30
3.29664e-15
  70
    32
  0
VERTEX
  8
0
  5
1DAC
 10
434.076
 20
-14.8579
 30
3.29623e-15
  70
    32
  0
VERTEX
  8
0
  5
1DAD
 10
434.079
 20
-14.8532
 30
3.29578e-15
  70
    32
  0
VERTEX
  8
0
  5
1DAE
 10
434.082
 20
-14.8485
 30
3.29530e-15
  70
    32
  0
VERTEX
  8
0
  5
1DAF
 10
434.084
 20
-14.8437
 30
3.29478e-15
  70
    32
  0
VERTEX
  8
0
  5
1DB0
 10
434.087
 20
-14.8390
 30
3.29423e-15
  70
    32
  0
VERTEX
  8
0
  5
1DB1
 10
434.090
 20
-14.8342
 30
3.29364e-15
  70
    32
  0
VERTEX
  8
0
  5
1DB2
 10
434.092
 20
-14.8294
 30
3.29301e-15
  70
    32
  0
VERTEX
  8
0
  5
1DB3
 10
434.095
 20
-14.8245
 30
3.29234e-15
  70
    32
  0
VERTEX
  8
0
  5
1DB4
 10
434.098
 20
-14.8197
 30
3.29163e-15
  70
    32
  0
VERTEX
  8
0
  5
1DB5
 10
434.101
 20
-14.8148
 30
3.29088e-15
  70
    32
  0
VERTEX
  8
0
  5
1DB6
 10
434.103
 20
-14.8099
 30
3.29008e-15
  70
    32
  0
VERTEX
  8
0
  5
1DB7
 10
434.106
 20
-14.8050
 30
3.28923e-15
  70
    32
  0
VERTEX
  8
0
  5
1DB8
 10
434.109
 20
-14.8001
 30
3.28834e-15
  70
    32
  0
VERTEX
  8
0
  5
1DB9
 10
434.112
 20
-14.7952
 30
3.28741e-15
  70
    32
  0
VERTEX
  8
0
  5
1DBA
 10
434.115
 20
-14.7902
 30
3.28642e-15
  70
    32
  0
VERTEX
  8
0
  5
1DBB
 10
434.117
 20
-14.7853
 30
3.28538e-15
  70
    32
  0
VERTEX
  8
0
  5
1DBC
 10
434.120
 20
-14.7803
 30
3.28429e-15
  70
    32
  0
VERTEX
  8
0
  5
1DBD
 10
434.123
 20
-14.7754
 30
3.28315e-15
  70
    32
  0
VERTEX
  8
0
  5
1DBE
 10
434.126
 20
-14.7704
 30
3.28196e-15
  70
    32
  0
VERTEX
  8
0
  5
1DBF
 10
434.129
 20
-14.7654
 30
3.28071e-15
  70
    32
  0
VERTEX
  8
0
  5
1DC0
 10
434.132
 20
-14.7604
 30
3.27940e-15
  70
    32
  0
VERTEX
  8
0
  5
1DC1
 10
434.134
 20
-14.7554
 30
3.27804e-15
  70
    32
  0
VERTEX
  8
0
  5
1DC2
 10
434.137
 20
-14.7504
 30
3.27661e-15
  70
    32
  0
VERTEX
  8
0
  5
1DC3
 10
434.140
 20
-14.7454
 30
3.27513e-15
  70
    32
  0
VERTEX
  8
0
  5
1DC4
 10
434.143
 20
-14.7404
 30
3.27359e-15
  70
    32
  0
VERTEX
  8
0
  5
1DC5
 10
434.146
 20
-14.7354
 30
3.27198e-15
  70
    32
  0
VERTEX
  8
0
  5
1DC6
 10
434.149
 20
-14.7303
 30
3.27031e-15
  70
    32
  0
VERTEX
  8
0
  5
1DC7
 10
434.152
 20
-14.7253
 30
3.26857e-15
  70
    32
  0
VERTEX
  8
0
  5
1DC8
 10
434.154
 20
-14.7203
 30
3.26678e-15
  70
    32
  0
VERTEX
  8
0
  5
1DC9
 10
434.157
 20
-14.7153
 30
3.26501e-15
  70
    32
  0
VERTEX
  8
0
  5
1DCA
 10
434.160
 20
-14.7102
 30
3.26328e-15
  70
    32
  0
VERTEX
  8
0
  5
1DCB
 10
434.163
 20
-14.7052
 30
3.26157e-15
  70
    32
  0
VERTEX
  8
0
  5
1DCC
 10
434.166
 20
-14.7001
 30
3.25990e-15
  70
    32
  0
VERTEX
  8
0
  5
1DCD
 10
434.169
 20
-14.6950
 30
3.25825e-15
  70
    32
  0
VERTEX
  8
0
  5
1DCE
 10
434.172
 20
-14.6898
 30
3.25664e-15
  70
    32
  0
VERTEX
  8
0
  5
1DCF
 10
434.175
 20
-14.6847
 30
3.25505e-15
  70
    32
  0
VERTEX
  8
0
  5
1DD0
 10
434.178
 20
-14.6795
 30
3.25349e-15
  70
    32
  0
VERTEX
  8
0
  5
1DD1
 10
434.181
 20
-14.6744
 30
3.25196e-15
  70
    32
  0
VERTEX
  8
0
  5
1DD2
 10
434.183
 20
-14.6692
 30
3.25046e-15
  70
    32
  0
VERTEX
  8
0
  5
1DD3
 10
434.186
 20
-14.6640
 30
3.24898e-15
  70
    32
  0
VERTEX
  8
0
  5
1DD4
 10
434.189
 20
-14.6587
 30
3.24753e-15
  70
    32
  0
VERTEX
  8
0
  5
1DD5
 10
434.192
 20
-14.6535
 30
3.24610e-15
  70
    32
  0
VERTEX
  8
0
  5
1DD6
 10
434.195
 20
-14.6482
 30
3.24470e-15
  70
    32
  0
VERTEX
  8
0
  5
1DD7
 10
434.198
 20
-14.6429
 30
3.24333e-15
  70
    32
  0
VERTEX
  8
0
  5
1DD8
 10
434.201
 20
-14.6376
 30
3.24197e-15
  70
    32
  0
VERTEX
  8
0
  5
1DD9
 10
434.204
 20
-14.6323
 30
3.24065e-15
  70
    32
  0
VERTEX
  8
0
  5
1DDA
 10
434.207
 20
-14.6270
 30
3.23934e-15
  70
    32
  0
VERTEX
  8
0
  5
1DDB
 10
434.210
 20
-14.6217
 30
3.23806e-15
  70
    32
  0
VERTEX
  8
0
  5
1DDC
 10
434.214
 20
-14.6163
 30
3.23680e-15
  70
    32
  0
VERTEX
  8
0
  5
1DDD
 10
434.217
 20
-14.6109
 30
3.23556e-15
  70
    32
  0
VERTEX
  8
0
  5
1DDE
 10
434.220
 20
-14.6055
 30
3.23435e-15
  70
    32
  0
VERTEX
  8
0
  5
1DDF
 10
434.223
 20
-14.6001
 30
3.23315e-15
  70
    32
  0
VERTEX
  8
0
  5
1DE0
 10
434.226
 20
-14.5947
 30
3.23198e-15
  70
    32
  0
VERTEX
  8
0
  5
1DE1
 10
434.229
 20
-14.5893
 30
3.23082e-15
  70
    32
  0
VERTEX
  8
0
  5
1DE2
 10
434.232
 20
-14.5838
 30
3.22969e-15
  70
    32
  0
VERTEX
  8
0
  5
1DE3
 10
434.235
 20
-14.5784
 30
3.22857e-15
  70
    32
  0
VERTEX
  8
0
  5
1DE4
 10
434.238
 20
-14.5729
 30
3.22747e-15
  70
    32
  0
VERTEX
  8
0
  5
1DE5
 10
434.241
 20
-14.5674
 30
3.22639e-15
  70
    32
  0
VERTEX
  8
0
  5
1DE6
 10
434.245
 20
-14.5619
 30
3.22532e-15
  70
    32
  0
VERTEX
  8
0
  5
1DE7
 10
434.248
 20
-14.5563
 30
3.22428e-15
  70
    32
  0
VERTEX
  8
0
  5
1DE8
 10
434.251
 20
-14.5508
 30
3.22325e-15
  70
    32
  0
VERTEX
  8
0
  5
1DE9
 10
434.254
 20
-14.5452
 30
3.22223e-15
  70
    32
  0
VERTEX
  8
0
  5
1DEA
 10
434.257
 20
-14.5397
 30
3.22123e-15
  70
    32
  0
VERTEX
  8
0
  5
1DEB
 10
434.260
 20
-14.5341
 30
3.22025e-15
  70
    32
  0
VERTEX
  8
0
  5
1DEC
 10
434.264
 20
-14.5285
 30
3.21928e-15
  70
    32
  0
VERTEX
  8
0
  5
1DED
 10
434.267
 20
-14.5229
 30
3.21833e-15
  70
    32
  0
VERTEX
  8
0
  5
1DEE
 10
434.270
 20
-14.5173
 30
3.21738e-15
  70
    32
  0
VERTEX
  8
0
  5
1DEF
 10
434.273
 20
-14.5116
 30
3.21645e-15
  70
    32
  0
VERTEX
  8
0
  5
1DF0
 10
434.276
 20
-14.5060
 30
3.21554e-15
  70
    32
  0
VERTEX
  8
0
  5
1DF1
 10
434.280
 20
-14.5003
 30
3.21463e-15
  70
    32
  0
VERTEX
  8
0
  5
1DF2
 10
434.283
 20
-14.4946
 30
3.21374e-15
  70
    32
  0
VERTEX
  8
0
  5
1DF3
 10
434.286
 20
-14.4889
 30
3.21286e-15
  70
    32
  0
VERTEX
  8
0
  5
1DF4
 10
434.289
 20
-14.4832
 30
3.21199e-15
  70
    32
  0
VERTEX
  8
0
  5
1DF5
 10
434.293
 20
-14.4775
 30
3.21112e-15
  70
    32
  0
VERTEX
  8
0
  5
1DF6
 10
434.296
 20
-14.4718
 30
3.21027e-15
  70
    32
  0
VERTEX
  8
0
  5
1DF7
 10
434.299
 20
-14.4661
 30
3.20943e-15
  70
    32
  0
VERTEX
  8
0
  5
1DF8
 10
434.302
 20
-14.4603
 30
3.20859e-15
  70
    32
  0
VERTEX
  8
0
  5
1DF9
 10
434.306
 20
-14.4545
 30
3.20777e-15
  70
    32
  0
VERTEX
  8
0
  5
1DFA
 10
434.309
 20
-14.4488
 30
3.20695e-15
  70
    32
  0
VERTEX
  8
0
  5
1DFB
 10
434.312
 20
-14.4430
 30
3.20614e-15
  70
    32
  0
VERTEX
  8
0
  5
1DFC
 10
434.316
 20
-14.4372
 30
3.20533e-15
  70
    32
  0
VERTEX
  8
0
  5
1DFD
 10
434.319
 20
-14.4314
 30
3.20453e-15
  70
    32
  0
VERTEX
  8
0
  5
1DFE
 10
434.322
 20
-14.4255
 30
3.20374e-15
  70
    32
  0
VERTEX
  8
0
  5
1DFF
 10
434.326
 20
-14.4197
 30
3.20295e-15
  70
    32
  0
VERTEX
  8
0
  5
1E00
 10
434.329
 20
-14.4138
 30
3.20217e-15
  70
    32
  0
VERTEX
  8
0
  5
1E01
 10
434.332
 20
-14.4080
 30
3.20139e-15
  70
    32
  0
VERTEX
  8
0
  5
1E02
 10
434.336
 20
-14.4021
 30
3.20061e-15
  70
    32
  0
VERTEX
  8
0
  5
1E03
 10
434.339
 20
-14.3962
 30
3.19984e-15
  70
    32
  0
VERTEX
  8
0
  5
1E04
 10
434.342
 20
-14.3903
 30
3.19907e-15
  70
    32
  0
VERTEX
  8
0
  5
1E05
 10
434.346
 20
-14.3844
 30
3.19830e-15
  70
    32
  0
VERTEX
  8
0
  5
1E06
 10
434.349
 20
-14.3785
 30
3.19753e-15
  70
    32
  0
VERTEX
  8
0
  5
1E07
 10
434.352
 20
-14.3726
 30
3.19677e-15
  70
    32
  0
VERTEX
  8
0
  5
1E08
 10
434.356
 20
-14.3667
 30
3.19600e-15
  70
    32
  0
VERTEX
  8
0
  5
1E09
 10
434.359
 20
-14.3607
 30
3.19524e-15
  70
    32
  0
VERTEX
  8
0
  5
1E0A
 10
434.363
 20
-14.3548
 30
3.19448e-15
  70
    32
  0
VERTEX
  8
0
  5
1E0B
 10
434.366
 20
-14.3488
 30
3.19371e-15
  70
    32
  0
VERTEX
  8
0
  5
1E0C
 10
434.369
 20
-14.3428
 30
3.19294e-15
  70
    32
  0
VERTEX
  8
0
  5
1E0D
 10
434.373
 20
-14.3368
 30
3.19218e-15
  70
    32
  0
VERTEX
  8
0
  5
1E0E
 10
434.376
 20
-14.3308
 30
3.19141e-15
  70
    32
  0
VERTEX
  8
0
  5
1E0F
 10
434.380
 20
-14.3248
 30
3.19063e-15
  70
    32
  0
VERTEX
  8
0
  5
1E10
 10
434.383
 20
-14.3188
 30
3.18986e-15
  70
    32
  0
VERTEX
  8
0
  5
1E11
 10
434.387
 20
-14.3128
 30
3.18908e-15
  70
    32
  0
VERTEX
  8
0
  5
1E12
 10
434.390
 20
-14.3068
 30
3.18829e-15
  70
    32
  0
VERTEX
  8
0
  5
1E13
 10
434.393
 20
-14.3007
 30
3.18750e-15
  70
    32
  0
VERTEX
  8
0
  5
1E14
 10
434.397
 20
-14.2947
 30
3.18671e-15
  70
    32
  0
VERTEX
  8
0
  5
1E15
 10
434.400
 20
-14.2886
 30
3.18591e-15
  70
    32
  0
VERTEX
  8
0
  5
1E16
 10
434.404
 20
-14.2826
 30
3.18510e-15
  70
    32
  0
VERTEX
  8
0
  5
1E17
 10
434.407
 20
-14.2765
 30
3.18429e-15
  70
    32
  0
VERTEX
  8
0
  5
1E18
 10
434.411
 20
-14.2704
 30
3.18347e-15
  70
    32
  0
VERTEX
  8
0
  5
1E19
 10
434.414
 20
-14.2643
 30
3.18264e-15
  70
    32
  0
VERTEX
  8
0
  5
1E1A
 10
434.418
 20
-14.2582
 30
3.18181e-15
  70
    32
  0
VERTEX
  8
0
  5
1E1B
 10
434.421
 20
-14.2521
 30
3.18096e-15
  70
    32
  0
VERTEX
  8
0
  5
1E1C
 10
434.425
 20
-14.2460
 30
3.18011e-15
  70
    32
  0
VERTEX
  8
0
  5
1E1D
 10
434.428
 20
-14.2399
 30
3.17925e-15
  70
    32
  0
VERTEX
  8
0
  5
1E1E
 10
434.432
 20
-14.2338
 30
3.17838e-15
  70
    32
  0
VERTEX
  8
0
  5
1E1F
 10
434.435
 20
-14.2276
 30
3.17749e-15
  70
    32
  0
VERTEX
  8
0
  5
1E20
 10
434.439
 20
-14.2215
 30
3.17660e-15
  70
    32
  0
VERTEX
  8
0
  5
1E21
 10
434.442
 20
-14.2153
 30
3.17569e-15
  70
    32
  0
VERTEX
  8
0
  5
1E22
 10
434.446
 20
-14.2092
 30
3.17478e-15
  70
    32
  0
VERTEX
  8
0
  5
1E23
 10
434.449
 20
-14.2030
 30
3.17384e-15
  70
    32
  0
VERTEX
  8
0
  5
1E24
 10
434.453
 20
-14.1968
 30
3.17290e-15
  70
    32
  0
VERTEX
  8
0
  5
1E25
 10
434.456
 20
-14.1906
 30
3.17194e-15
  70
    32
  0
VERTEX
  8
0
  5
1E26
 10
434.460
 20
-14.1845
 30
3.17097e-15
  70
    32
  0
VERTEX
  8
0
  5
1E27
 10
434.463
 20
-14.1783
 30
3.16999e-15
  70
    32
  0
VERTEX
  8
0
  5
1E28
 10
434.467
 20
-14.1721
 30
3.16899e-15
  70
    32
  0
VERTEX
  8
0
  5
1E29
 10
434.471
 20
-14.1659
 30
3.16797e-15
  70
    32
  0
VERTEX
  8
0
  5
1E2A
 10
434.474
 20
-14.1597
 30
3.16694e-15
  70
    32
  0
VERTEX
  8
0
  5
1E2B
 10
434.478
 20
-14.1534
 30
3.16589e-15
  70
    32
  0
VERTEX
  8
0
  5
1E2C
 10
434.481
 20
-14.1472
 30
3.16483e-15
  70
    32
  0
VERTEX
  8
0
  5
1E2D
 10
434.485
 20
-14.1410
 30
3.16374e-15
  70
    32
  0
VERTEX
  8
0
  5
1E2E
 10
434.488
 20
-14.1348
 30
3.16264e-15
  70
    32
  0
VERTEX
  8
0
  5
1E2F
 10
434.492
 20
-14.1285
 30
3.16152e-15
  70
    32
  0
VERTEX
  8
0
  5
1E30
 10
434.495
 20
-14.1223
 30
3.16039e-15
  70
    32
  0
VERTEX
  8
0
  5
1E31
 10
434.499
 20
-14.1160
 30
3.15923e-15
  70
    32
  0
VERTEX
  8
0
  5
1E32
 10
434.503
 20
-14.1098
 30
3.15805e-15
  70
    32
  0
VERTEX
  8
0
  5
1E33
 10
434.506
 20
-14.1035
 30
3.15685e-15
  70
    32
  0
VERTEX
  8
0
  5
1E34
 10
434.510
 20
-14.0973
 30
3.15564e-15
  70
    32
  0
VERTEX
  8
0
  5
1E35
 10
434.513
 20
-14.0910
 30
3.15440e-15
  70
    32
  0
VERTEX
  8
0
  5
1E36
 10
434.517
 20
-14.0847
 30
3.15314e-15
  70
    32
  0
VERTEX
  8
0
  5
1E37
 10
434.521
 20
-14.0784
 30
3.15185e-15
  70
    32
  0
VERTEX
  8
0
  5
1E38
 10
434.524
 20
-14.0722
 30
3.15054e-15
  70
    32
  0
VERTEX
  8
0
  5
1E39
 10
434.528
 20
-14.0659
 30
3.14921e-15
  70
    32
  0
VERTEX
  8
0
  5
1E3A
 10
434.531
 20
-14.0596
 30
3.14786e-15
  70
    32
  0
VERTEX
  8
0
  5
1E3B
 10
434.535
 20
-14.0533
 30
3.14649e-15
  70
    32
  0
VERTEX
  8
0
  5
1E3C
 10
434.539
 20
-14.0470
 30
3.14509e-15
  70
    32
  0
VERTEX
  8
0
  5
1E3D
 10
434.542
 20
-14.0407
 30
3.14367e-15
  70
    32
  0
VERTEX
  8
0
  5
1E3E
 10
434.546
 20
-14.0344
 30
3.14222e-15
  70
    32
  0
VERTEX
  8
0
  5
1E3F
 10
434.549
 20
-14.0281
 30
3.14076e-15
  70
    32
  0
VERTEX
  8
0
  5
1E40
 10
434.553
 20
-14.0218
 30
3.13928e-15
  70
    32
  0
VERTEX
  8
0
  5
1E41
 10
434.557
 20
-14.0155
 30
3.13777e-15
  70
    32
  0
VERTEX
  8
0
  5
1E42
 10
434.560
 20
-14.0091
 30
3.13625e-15
  70
    32
  0
VERTEX
  8
0
  5
1E43
 10
434.564
 20
-14.0028
 30
3.13470e-15
  70
    32
  0
VERTEX
  8
0
  5
1E44
 10
434.567
 20
-13.9965
 30
3.13314e-15
  70
    32
  0
VERTEX
  8
0
  5
1E45
 10
434.571
 20
-13.9902
 30
3.13156e-15
  70
    32
  0
VERTEX
  8
0
  5
1E46
 10
434.575
 20
-13.9838
 30
3.12996e-15
  70
    32
  0
VERTEX
  8
0
  5
1E47
 10
434.578
 20
-13.9775
 30
3.12834e-15
  70
    32
  0
VERTEX
  8
0
  5
1E48
 10
434.582
 20
-13.9712
 30
3.12670e-15
  70
    32
  0
VERTEX
  8
0
  5
1E49
 10
434.586
 20
-13.9648
 30
3.12505e-15
  70
    32
  0
VERTEX
  8
0
  5
1E4A
 10
434.589
 20
-13.9585
 30
3.12338e-15
  70
    32
  0
VERTEX
  8
0
  5
1E4B
 10
434.593
 20
-13.9522
 30
3.12169e-15
  70
    32
  0
VERTEX
  8
0
  5
1E4C
 10
434.597
 20
-13.9458
 30
3.11999e-15
  70
    32
  0
VERTEX
  8
0
  5
1E4D
 10
434.600
 20
-13.9395
 30
3.11827e-15
  70
    32
  0
VERTEX
  8
0
  5
1E4E
 10
434.604
 20
-13.9331
 30
3.11653e-15
  70
    32
  0
VERTEX
  8
0
  5
1E4F
 10
434.607
 20
-13.9268
 30
3.11479e-15
  70
    32
  0
VERTEX
  8
0
  5
1E50
 10
434.611
 20
-13.9204
 30
3.11302e-15
  70
    32
  0
VERTEX
  8
0
  5
1E51
 10
434.615
 20
-13.9141
 30
3.11125e-15
  70
    32
  0
VERTEX
  8
0
  5
1E52
 10
434.618
 20
-13.9077
 30
3.10946e-15
  70
    32
  0
VERTEX
  8
0
  5
1E53
 10
434.622
 20
-13.9014
 30
3.10765e-15
  70
    32
  0
VERTEX
  8
0
  5
1E54
 10
434.626
 20
-13.8950
 30
3.10584e-15
  70
    32
  0
VERTEX
  8
0
  5
1E55
 10
434.629
 20
-13.8887
 30
3.10401e-15
  70
    32
  0
VERTEX
  8
0
  5
1E56
 10
434.633
 20
-13.8823
 30
3.10217e-15
  70
    32
  0
VERTEX
  8
0
  5
1E57
 10
434.637
 20
-13.8760
 30
3.10032e-15
  70
    32
  0
VERTEX
  8
0
  5
1E58
 10
434.640
 20
-13.8696
 30
3.09845e-15
  70
    32
  0
VERTEX
  8
0
  5
1E59
 10
434.644
 20
-13.8632
 30
3.09658e-15
  70
    32
  0
VERTEX
  8
0
  5
1E5A
 10
434.648
 20
-13.8569
 30
3.09469e-15
  70
    32
  0
VERTEX
  8
0
  5
1E5B
 10
434.651
 20
-13.8505
 30
3.09280e-15
  70
    32
  0
VERTEX
  8
0
  5
1E5C
 10
434.655
 20
-13.8442
 30
3.09090e-15
  70
    32
  0
VERTEX
  8
0
  5
1E5D
 10
434.659
 20
-13.8378
 30
3.08898e-15
  70
    32
  0
VERTEX
  8
0
  5
1E5E
 10
434.662
 20
-13.8315
 30
3.08706e-15
  70
    32
  0
VERTEX
  8
0
  5
1E5F
 10
434.666
 20
-13.8251
 30
3.08513e-15
  70
    32
  0
VERTEX
  8
0
  5
1E60
 10
434.669
 20
-13.8187
 30
3.08319e-15
  70
    32
  0
VERTEX
  8
0
  5
1E61
 10
434.673
 20
-13.8124
 30
3.08125e-15
  70
    32
  0
VERTEX
  8
0
  5
1E62
 10
434.677
 20
-13.8060
 30
3.07930e-15
  70
    32
  0
VERTEX
  8
0
  5
1E63
 10
434.680
 20
-13.7997
 30
3.07734e-15
  70
    32
  0
VERTEX
  8
0
  5
1E64
 10
434.684
 20
-13.7933
 30
3.07537e-15
  70
    32
  0
VERTEX
  8
0
  5
1E65
 10
434.688
 20
-13.7870
 30
3.07340e-15
  70
    32
  0
VERTEX
  8
0
  5
1E66
 10
434.691
 20
-13.7806
 30
3.07142e-15
  70
    32
  0
VERTEX
  8
0
  5
1E67
 10
434.695
 20
-13.7743
 30
3.06944e-15
  70
    32
  0
VERTEX
  8
0
  5
1E68
 10
434.699
 20
-13.7679
 30
3.06746e-15
  70
    32
  0
VERTEX
  8
0
  5
1E69
 10
434.702
 20
-13.7616
 30
3.06547e-15
  70
    32
  0
VERTEX
  8
0
  5
1E6A
 10
434.706
 20
-13.7552
 30
3.06347e-15
  70
    32
  0
VERTEX
  8
0
  5
1E6B
 10
434.710
 20
-13.7489
 30
3.06147e-15
  70
    32
  0
VERTEX
  8
0
  5
1E6C
 10
434.713
 20
-13.7426
 30
3.05947e-15
  70
    32
  0
VERTEX
  8
0
  5
1E6D
 10
434.717
 20
-13.7362
 30
3.05747e-15
  70
    32
  0
VERTEX
  8
0
  5
1E6E
 10
434.721
 20
-13.7299
 30
3.05546e-15
  70
    32
  0
VERTEX
  8
0
  5
1E6F
 10
434.724
 20
-13.7236
 30
3.05346e-15
  70
    32
  0
VERTEX
  8
0
  5
1E70
 10
434.728
 20
-13.7172
 30
3.05145e-15
  70
    32
  0
VERTEX
  8
0
  5
1E71
 10
434.731
 20
-13.7109
 30
3.04944e-15
  70
    32
  0
VERTEX
  8
0
  5
1E72
 10
434.735
 20
-13.7046
 30
3.04743e-15
  70
    32
  0
VERTEX
  8
0
  5
1E73
 10
434.739
 20
-13.6982
 30
3.04542e-15
  70
    32
  0
VERTEX
  8
0
  5
1E74
 10
434.742
 20
-13.6919
 30
3.04340e-15
  70
    32
  0
VERTEX
  8
0
  5
1E75
 10
434.746
 20
-13.6856
 30
3.04139e-15
  70
    32
  0
VERTEX
  8
0
  5
1E76
 10
434.750
 20
-13.6793
 30
3.03939e-15
  70
    32
  0
VERTEX
  8
0
  5
1E77
 10
434.753
 20
-13.6730
 30
3.03738e-15
  70
    32
  0
VERTEX
  8
0
  5
1E78
 10
434.757
 20
-13.6667
 30
3.03537e-15
  70
    32
  0
VERTEX
  8
0
  5
1E79
 10
434.760
 20
-13.6604
 30
3.03337e-15
  70
    32
  0
VERTEX
  8
0
  5
1E7A
 10
434.764
 20
-13.6541
 30
3.03137e-15
  70
    32
  0
VERTEX
  8
0
  5
1E7B
 10
434.768
 20
-13.6478
 30
3.02937e-15
  70
    32
  0
VERTEX
  8
0
  5
1E7C
 10
434.771
 20
-13.6415
 30
3.02738e-15
  70
    32
  0
VERTEX
  8
0
  5
1E7D
 10
434.775
 20
-13.6352
 30
3.02538e-15
  70
    32
  0
VERTEX
  8
0
  5
1E7E
 10
434.779
 20
-13.6289
 30
3.02340e-15
  70
    32
  0
VERTEX
  8
0
  5
1E7F
 10
434.782
 20
-13.6226
 30
3.02142e-15
  70
    32
  0
VERTEX
  8
0
  5
1E80
 10
434.786
 20
-13.6164
 30
3.01944e-15
  70
    32
  0
VERTEX
  8
0
  5
1E81
 10
434.789
 20
-13.6101
 30
3.01747e-15
  70
    32
  0
VERTEX
  8
0
  5
1E82
 10
434.793
 20
-13.6038
 30
3.01550e-15
  70
    32
  0
VERTEX
  8
0
  5
1E83
 10
434.797
 20
-13.5976
 30
3.01354e-15
  70
    32
  0
VERTEX
  8
0
  5
1E84
 10
434.800
 20
-13.5913
 30
3.01159e-15
  70
    32
  0
VERTEX
  8
0
  5
1E85
 10
434.804
 20
-13.5851
 30
3.00965e-15
  70
    32
  0
VERTEX
  8
0
  5
1E86
 10
434.807
 20
-13.5788
 30
3.00771e-15
  70
    32
  0
VERTEX
  8
0
  5
1E87
 10
434.811
 20
-13.5726
 30
3.00578e-15
  70
    32
  0
VERTEX
  8
0
  5
1E88
 10
434.815
 20
-13.5664
 30
3.00386e-15
  70
    32
  0
VERTEX
  8
0
  5
1E89
 10
434.818
 20
-13.5601
 30
3.00194e-15
  70
    32
  0
VERTEX
  8
0
  5
1E8A
 10
434.822
 20
-13.5539
 30
3.00004e-15
  70
    32
  0
VERTEX
  8
0
  5
1E8B
 10
434.825
 20
-13.5477
 30
2.99814e-15
  70
    32
  0
VERTEX
  8
0
  5
1E8C
 10
434.829
 20
-13.5415
 30
2.99626e-15
  70
    32
  0
VERTEX
  8
0
  5
1E8D
 10
434.833
 20
-13.5353
 30
2.99438e-15
  70
    32
  0
VERTEX
  8
0
  5
1E8E
 10
434.836
 20
-13.5291
 30
2.99252e-15
  70
    32
  0
VERTEX
  8
0
  5
1E8F
 10
434.840
 20
-13.5229
 30
2.99067e-15
  70
    32
  0
VERTEX
  8
0
  5
1E90
 10
434.843
 20
-13.5167
 30
2.98883e-15
  70
    32
  0
VERTEX
  8
0
  5
1E91
 10
434.847
 20
-13.5105
 30
2.98700e-15
  70
    32
  0
VERTEX
  8
0
  5
1E92
 10
434.850
 20
-13.5043
 30
2.98518e-15
  70
    32
  0
VERTEX
  8
0
  5
1E93
 10
434.854
 20
-13.4982
 30
2.98338e-15
  70
    32
  0
VERTEX
  8
0
  5
1E94
 10
434.857
 20
-13.4920
 30
2.98159e-15
  70
    32
  0
VERTEX
  8
0
  5
1E95
 10
434.861
 20
-13.4859
 30
2.97981e-15
  70
    32
  0
VERTEX
  8
0
  5
1E96
 10
434.865
 20
-13.4797
 30
2.97805e-15
  70
    32
  0
VERTEX
  8
0
  5
1E97
 10
434.868
 20
-13.4736
 30
2.97630e-15
  70
    32
  0
VERTEX
  8
0
  5
1E98
 10
434.872
 20
-13.4675
 30
2.97456e-15
  70
    32
  0
VERTEX
  8
0
  5
1E99
 10
434.875
 20
-13.4613
 30
2.97284e-15
  70
    32
  0
VERTEX
  8
0
  5
1E9A
 10
434.879
 20
-13.4552
 30
2.97114e-15
  70
    32
  0
VERTEX
  8
0
  5
1E9B
 10
434.882
 20
-13.4491
 30
2.96945e-15
  70
    32
  0
VERTEX
  8
0
  5
1E9C
 10
434.886
 20
-13.4430
 30
2.96778e-15
  70
    32
  0
VERTEX
  8
0
  5
1E9D
 10
434.889
 20
-13.4369
 30
2.96613e-15
  70
    32
  0
VERTEX
  8
0
  5
1E9E
 10
434.893
 20
-13.4308
 30
2.96449e-15
  70
    32
  0
VERTEX
  8
0
  5
1E9F
 10
434.896
 20
-13.4248
 30
2.96287e-15
  70
    32
  0
VERTEX
  8
0
  5
1EA0
 10
434.900
 20
-13.4187
 30
2.96127e-15
  70
    32
  0
VERTEX
  8
0
  5
1EA1
 10
434.903
 20
-13.4126
 30
2.95969e-15
  70
    32
  0
VERTEX
  8
0
  5
1EA2
 10
434.907
 20
-13.4066
 30
2.95812e-15
  70
    32
  0
VERTEX
  8
0
  5
1EA3
 10
434.910
 20
-13.4006
 30
2.95658e-15
  70
    32
  0
VERTEX
  8
0
  5
1EA4
 10
434.914
 20
-13.3945
 30
2.95505e-15
  70
    32
  0
VERTEX
  8
0
  5
1EA5
 10
434.917
 20
-13.3885
 30
2.95355e-15
  70
    32
  0
VERTEX
  8
0
  5
1EA6
 10
434.921
 20
-13.3825
 30
2.95206e-15
  70
    32
  0
VERTEX
  8
0
  5
1EA7
 10
434.924
 20
-13.3765
 30
2.95060e-15
  70
    32
  0
VERTEX
  8
0
  5
1EA8
 10
434.928
 20
-13.3705
 30
2.94915e-15
  70
    32
  0
VERTEX
  8
0
  5
1EA9
 10
434.931
 20
-13.3645
 30
2.94773e-15
  70
    32
  0
VERTEX
  8
0
  5
1EAA
 10
434.934
 20
-13.3585
 30
2.94633e-15
  70
    32
  0
VERTEX
  8
0
  5
1EAB
 10
434.938
 20
-13.3525
 30
2.94496e-15
  70
    32
  0
VERTEX
  8
0
  5
1EAC
 10
434.941
 20
-13.3465
 30
2.94362e-15
  70
    32
  0
VERTEX
  8
0
  5
1EAD
 10
434.945
 20
-13.3405
 30
2.94230e-15
  70
    32
  0
VERTEX
  8
0
  5
1EAE
 10
434.948
 20
-13.3345
 30
2.94101e-15
  70
    32
  0
VERTEX
  8
0
  5
1EAF
 10
434.952
 20
-13.3285
 30
2.93974e-15
  70
    32
  0
VERTEX
  8
0
  5
1EB0
 10
434.955
 20
-13.3224
 30
2.93850e-15
  70
    32
  0
VERTEX
  8
0
  5
1EB1
 10
434.959
 20
-13.3164
 30
2.93728e-15
  70
    32
  0
VERTEX
  8
0
  5
1EB2
 10
434.962
 20
-13.3103
 30
2.93608e-15
  70
    32
  0
VERTEX
  8
0
  5
1EB3
 10
434.966
 20
-13.3043
 30
2.93491e-15
  70
    32
  0
VERTEX
  8
0
  5
1EB4
 10
434.969
 20
-13.2982
 30
2.93375e-15
  70
    32
  0
VERTEX
  8
0
  5
1EB5
 10
434.973
 20
-13.2921
 30
2.93262e-15
  70
    32
  0
VERTEX
  8
0
  5
1EB6
 10
434.976
 20
-13.2860
 30
2.93151e-15
  70
    32
  0
VERTEX
  8
0
  5
1EB7
 10
434.980
 20
-13.2799
 30
2.93042e-15
  70
    32
  0
VERTEX
  8
0
  5
1EB8
 10
434.983
 20
-13.2738
 30
2.92935e-15
  70
    32
  0
VERTEX
  8
0
  5
1EB9
 10
434.987
 20
-13.2676
 30
2.92830e-15
  70
    32
  0
VERTEX
  8
0
  5
1EBA
 10
434.990
 20
-13.2615
 30
2.92727e-15
  70
    32
  0
VERTEX
  8
0
  5
1EBB
 10
434.994
 20
-13.2554
 30
2.92625e-15
  70
    32
  0
VERTEX
  8
0
  5
1EBC
 10
434.998
 20
-13.2492
 30
2.92525e-15
  70
    32
  0
VERTEX
  8
0
  5
1EBD
 10
435.001
 20
-13.2430
 30
2.92427e-15
  70
    32
  0
VERTEX
  8
0
  5
1EBE
 10
435.005
 20
-13.2369
 30
2.92331e-15
  70
    32
  0
VERTEX
  8
0
  5
1EBF
 10
435.008
 20
-13.2307
 30
2.92235e-15
  70
    32
  0
VERTEX
  8
0
  5
1EC0
 10
435.012
 20
-13.2245
 30
2.92142e-15
  70
    32
  0
VERTEX
  8
0
  5
1EC1
 10
435.015
 20
-13.2183
 30
2.92050e-15
  70
    32
  0
VERTEX
  8
0
  5
1EC2
 10
435.019
 20
-13.2121
 30
2.91959e-15
  70
    32
  0
VERTEX
  8
0
  5
1EC3
 10
435.023
 20
-13.2059
 30
2.91869e-15
  70
    32
  0
VERTEX
  8
0
  5
1EC4
 10
435.026
 20
-13.1997
 30
2.91781e-15
  70
    32
  0
VERTEX
  8
0
  5
1EC5
 10
435.030
 20
-13.1935
 30
2.91694e-15
  70
    32
  0
VERTEX
  8
0
  5
1EC6
 10
435.033
 20
-13.1872
 30
2.91608e-15
  70
    32
  0
VERTEX
  8
0
  5
1EC7
 10
435.037
 20
-13.1810
 30
2.91522e-15
  70
    32
  0
VERTEX
  8
0
  5
1EC8
 10
435.041
 20
-13.1747
 30
2.91438e-15
  70
    32
  0
VERTEX
  8
0
  5
1EC9
 10
435.044
 20
-13.1685
 30
2.91355e-15
  70
    32
  0
VERTEX
  8
0
  5
1ECA
 10
435.048
 20
-13.1622
 30
2.91273e-15
  70
    32
  0
VERTEX
  8
0
  5
1ECB
 10
435.052
 20
-13.1560
 30
2.91191e-15
  70
    32
  0
VERTEX
  8
0
  5
1ECC
 10
435.055
 20
-13.1497
 30
2.91111e-15
  70
    32
  0
VERTEX
  8
0
  5
1ECD
 10
435.059
 20
-13.1434
 30
2.91031e-15
  70
    32
  0
VERTEX
  8
0
  5
1ECE
 10
435.062
 20
-13.1371
 30
2.90951e-15
  70
    32
  0
VERTEX
  8
0
  5
1ECF
 10
435.066
 20
-13.1309
 30
2.90872e-15
  70
    32
  0
VERTEX
  8
0
  5
1ED0
 10
435.070
 20
-13.1246
 30
2.90794e-15
  70
    32
  0
VERTEX
  8
0
  5
1ED1
 10
435.073
 20
-13.1183
 30
2.90716e-15
  70
    32
  0
VERTEX
  8
0
  5
1ED2
 10
435.077
 20
-13.1120
 30
2.90638e-15
  70
    32
  0
VERTEX
  8
0
  5
1ED3
 10
435.081
 20
-13.1056
 30
2.90561e-15
  70
    32
  0
VERTEX
  8
0
  5
1ED4
 10
435.084
 20
-13.0993
 30
2.90484e-15
  70
    32
  0
VERTEX
  8
0
  5
1ED5
 10
435.088
 20
-13.0930
 30
2.90407e-15
  70
    32
  0
VERTEX
  8
0
  5
1ED6
 10
435.092
 20
-13.0867
 30
2.90330e-15
  70
    32
  0
VERTEX
  8
0
  5
1ED7
 10
435.095
 20
-13.0804
 30
2.90254e-15
  70
    32
  0
VERTEX
  8
0
  5
1ED8
 10
435.099
 20
-13.0740
 30
2.90177e-15
  70
    32
  0
VERTEX
  8
0
  5
1ED9
 10
435.103
 20
-13.0677
 30
2.90101e-15
  70
    32
  0
VERTEX
  8
0
  5
1EDA
 10
435.106
 20
-13.0613
 30
2.90024e-15
  70
    32
  0
VERTEX
  8
0
  5
1EDB
 10
435.110
 20
-13.0550
 30
2.89947e-15
  70
    32
  0
VERTEX
  8
0
  5
1EDC
 10
435.114
 20
-13.0486
 30
2.89870e-15
  70
    32
  0
VERTEX
  8
0
  5
1EDD
 10
435.117
 20
-13.0423
 30
2.89792e-15
  70
    32
  0
VERTEX
  8
0
  5
1EDE
 10
435.121
 20
-13.0359
 30
2.89714e-15
  70
    32
  0
VERTEX
  8
0
  5
1EDF
 10
435.125
 20
-13.0296
 30
2.89636e-15
  70
    32
  0
VERTEX
  8
0
  5
1EE0
 10
435.128
 20
-13.0232
 30
2.89557e-15
  70
    32
  0
VERTEX
  8
0
  5
1EE1
 10
435.132
 20
-13.0168
 30
2.89478e-15
  70
    32
  0
VERTEX
  8
0
  5
1EE2
 10
435.136
 20
-13.0105
 30
2.89398e-15
  70
    32
  0
VERTEX
  8
0
  5
1EE3
 10
435.139
 20
-13.0041
 30
2.89318e-15
  70
    32
  0
VERTEX
  8
0
  5
1EE4
 10
435.143
 20
-12.9977
 30
2.89237e-15
  70
    32
  0
VERTEX
  8
0
  5
1EE5
 10
435.147
 20
-12.9913
 30
2.89155e-15
  70
    32
  0
VERTEX
  8
0
  5
1EE6
 10
435.151
 20
-12.9849
 30
2.89072e-15
  70
    32
  0
VERTEX
  8
0
  5
1EE7
 10
435.154
 20
-12.9786
 30
2.88988e-15
  70
    32
  0
VERTEX
  8
0
  5
1EE8
 10
435.158
 20
-12.9722
 30
2.88903e-15
  70
    32
  0
VERTEX
  8
0
  5
1EE9
 10
435.162
 20
-12.9658
 30
2.88818e-15
  70
    32
  0
VERTEX
  8
0
  5
1EEA
 10
435.165
 20
-12.9594
 30
2.88731e-15
  70
    32
  0
VERTEX
  8
0
  5
1EEB
 10
435.169
 20
-12.9530
 30
2.88643e-15
  70
    32
  0
VERTEX
  8
0
  5
1EEC
 10
435.173
 20
-12.9466
 30
2.88554e-15
  70
    32
  0
VERTEX
  8
0
  5
1EED
 10
435.176
 20
-12.9402
 30
2.88464e-15
  70
    32
  0
VERTEX
  8
0
  5
1EEE
 10
435.180
 20
-12.9338
 30
2.88372e-15
  70
    32
  0
VERTEX
  8
0
  5
1EEF
 10
435.184
 20
-12.9274
 30
2.88279e-15
  70
    32
  0
VERTEX
  8
0
  5
1EF0
 10
435.188
 20
-12.9210
 30
2.88184e-15
  70
    32
  0
VERTEX
  8
0
  5
1EF1
 10
435.191
 20
-12.9146
 30
2.88088e-15
  70
    32
  0
VERTEX
  8
0
  5
1EF2
 10
435.195
 20
-12.9082
 30
2.87991e-15
  70
    32
  0
VERTEX
  8
0
  5
1EF3
 10
435.199
 20
-12.9018
 30
2.87891e-15
  70
    32
  0
VERTEX
  8
0
  5
1EF4
 10
435.202
 20
-12.8954
 30
2.87791e-15
  70
    32
  0
VERTEX
  8
0
  5
1EF5
 10
435.206
 20
-12.8890
 30
2.87688e-15
  70
    32
  0
VERTEX
  8
0
  5
1EF6
 10
435.210
 20
-12.8826
 30
2.87583e-15
  70
    32
  0
VERTEX
  8
0
  5
1EF7
 10
435.214
 20
-12.8762
 30
2.87477e-15
  70
    32
  0
VERTEX
  8
0
  5
1EF8
 10
435.217
 20
-12.8698
 30
2.87369e-15
  70
    32
  0
VERTEX
  8
0
  5
1EF9
 10
435.221
 20
-12.8634
 30
2.87259e-15
  70
    32
  0
VERTEX
  8
0
  5
1EFA
 10
435.225
 20
-12.8570
 30
2.87146e-15
  70
    32
  0
VERTEX
  8
0
  5
1EFB
 10
435.229
 20
-12.8505
 30
2.87032e-15
  70
    32
  0
VERTEX
  8
0
  5
1EFC
 10
435.232
 20
-12.8441
 30
2.86915e-15
  70
    32
  0
VERTEX
  8
0
  5
1EFD
 10
435.236
 20
-12.8377
 30
2.86797e-15
  70
    32
  0
VERTEX
  8
0
  5
1EFE
 10
435.240
 20
-12.8313
 30
2.86675e-15
  70
    32
  0
VERTEX
  8
0
  5
1EFF
 10
435.243
 20
-12.8249
 30
2.86552e-15
  70
    32
  0
VERTEX
  8
0
  5
1F00
 10
435.247
 20
-12.8185
 30
2.86426e-15
  70
    32
  0
VERTEX
  8
0
  5
1F01
 10
435.251
 20
-12.8121
 30
2.86298e-15
  70
    32
  0
VERTEX
  8
0
  5
1F02
 10
435.255
 20
-12.8057
 30
2.86167e-15
  70
    32
  0
VERTEX
  8
0
  5
1F03
 10
435.258
 20
-12.7993
 30
2.86034e-15
  70
    32
  0
VERTEX
  8
0
  5
1F04
 10
435.262
 20
-12.7930
 30
2.85897e-15
  70
    32
  0
VERTEX
  8
0
  5
1F05
 10
435.266
 20
-12.7866
 30
2.85759e-15
  70
    32
  0
VERTEX
  8
0
  5
1F06
 10
435.269
 20
-12.7802
 30
2.85617e-15
  70
    32
  0
VERTEX
  8
0
  5
1F07
 10
435.273
 20
-12.7738
 30
2.85473e-15
  70
    32
  0
VERTEX
  8
0
  5
1F08
 10
435.277
 20
-12.7674
 30
2.85325e-15
  70
    32
  0
VERTEX
  8
0
  5
1F09
 10
435.281
 20
-12.7610
 30
2.85175e-15
  70
    32
  0
VERTEX
  8
0
  5
1F0A
 10
435.284
 20
-12.7546
 30
2.85022e-15
  70
    32
  0
VERTEX
  8
0
  5
1F0B
 10
435.288
 20
-12.7483
 30
2.84865e-15
  70
    32
  0
VERTEX
  8
0
  5
1F0C
 10
435.292
 20
-12.7419
 30
2.84706e-15
  70
    32
  0
VERTEX
  8
0
  5
1F0D
 10
435.295
 20
-12.7355
 30
2.84543e-15
  70
    32
  0
VERTEX
  8
0
  5
1F0E
 10
435.299
 20
-12.7291
 30
2.84377e-15
  70
    32
  0
VERTEX
  8
0
  5
1F0F
 10
435.303
 20
-12.7228
 30
2.84209e-15
  70
    32
  0
VERTEX
  8
0
  5
1F10
 10
435.306
 20
-12.7164
 30
2.84045e-15
  70
    32
  0
VERTEX
  8
0
  5
1F11
 10
435.310
 20
-12.7101
 30
2.83885e-15
  70
    32
  0
VERTEX
  8
0
  5
1F12
 10
435.314
 20
-12.7037
 30
2.83729e-15
  70
    32
  0
VERTEX
  8
0
  5
1F13
 10
435.318
 20
-12.6974
 30
2.83577e-15
  70
    32
  0
VERTEX
  8
0
  5
1F14
 10
435.321
 20
-12.6910
 30
2.83428e-15
  70
    32
  0
VERTEX
  8
0
  5
1F15
 10
435.325
 20
-12.6847
 30
2.83282e-15
  70
    32
  0
VERTEX
  8
0
  5
1F16
 10
435.329
 20
-12.6783
 30
2.83140e-15
  70
    32
  0
VERTEX
  8
0
  5
1F17
 10
435.332
 20
-12.6720
 30
2.83001e-15
  70
    32
  0
VERTEX
  8
0
  5
1F18
 10
435.336
 20
-12.6657
 30
2.82864e-15
  70
    32
  0
VERTEX
  8
0
  5
1F19
 10
435.340
 20
-12.6593
 30
2.82730e-15
  70
    32
  0
VERTEX
  8
0
  5
1F1A
 10
435.343
 20
-12.6530
 30
2.82598e-15
  70
    32
  0
VERTEX
  8
0
  5
1F1B
 10
435.347
 20
-12.6467
 30
2.82469e-15
  70
    32
  0
VERTEX
  8
0
  5
1F1C
 10
435.351
 20
-12.6404
 30
2.82341e-15
  70
    32
  0
VERTEX
  8
0
  5
1F1D
 10
435.354
 20
-12.6341
 30
2.82216e-15
  70
    32
  0
VERTEX
  8
0
  5
1F1E
 10
435.358
 20
-12.6278
 30
2.82092e-15
  70
    32
  0
VERTEX
  8
0
  5
1F1F
 10
435.362
 20
-12.6215
 30
2.81969e-15
  70
    32
  0
VERTEX
  8
0
  5
1F20
 10
435.365
 20
-12.6152
 30
2.81848e-15
  70
    32
  0
VERTEX
  8
0
  5
1F21
 10
435.369
 20
-12.6089
 30
2.81727e-15
  70
    32
  0
VERTEX
  8
0
  5
1F22
 10
435.373
 20
-12.6026
 30
2.81608e-15
  70
    32
  0
VERTEX
  8
0
  5
1F23
 10
435.376
 20
-12.5964
 30
2.81489e-15
  70
    32
  0
VERTEX
  8
0
  5
1F24
 10
435.380
 20
-12.5901
 30
2.81370e-15
  70
    32
  0
VERTEX
  8
0
  5
1F25
 10
435.384
 20
-12.5838
 30
2.81252e-15
  70
    32
  0
VERTEX
  8
0
  5
1F26
 10
435.387
 20
-12.5776
 30
2.81134e-15
  70
    32
  0
VERTEX
  8
0
  5
1F27
 10
435.391
 20
-12.5713
 30
2.81016e-15
  70
    32
  0
VERTEX
  8
0
  5
1F28
 10
435.395
 20
-12.5651
 30
2.80898e-15
  70
    32
  0
VERTEX
  8
0
  5
1F29
 10
435.398
 20
-12.5589
 30
2.80779e-15
  70
    32
  0
VERTEX
  8
0
  5
1F2A
 10
435.402
 20
-12.5526
 30
2.80659e-15
  70
    32
  0
VERTEX
  8
0
  5
1F2B
 10
435.405
 20
-12.5464
 30
2.80539e-15
  70
    32
  0
VERTEX
  8
0
  5
1F2C
 10
435.409
 20
-12.5402
 30
2.80418e-15
  70
    32
  0
VERTEX
  8
0
  5
1F2D
 10
435.413
 20
-12.5340
 30
2.80295e-15
  70
    32
  0
VERTEX
  8
0
  5
1F2E
 10
435.416
 20
-12.5278
 30
2.80171e-15
  70
    32
  0
VERTEX
  8
0
  5
1F2F
 10
435.420
 20
-12.5216
 30
2.80045e-15
  70
    32
  0
VERTEX
  8
0
  5
1F30
 10
435.423
 20
-12.5154
 30
2.79917e-15
  70
    32
  0
VERTEX
  8
0
  5
1F31
 10
435.427
 20
-12.5093
 30
2.79788e-15
  70
    32
  0
VERTEX
  8
0
  5
1F32
 10
435.431
 20
-12.5031
 30
2.79656e-15
  70
    32
  0
VERTEX
  8
0
  5
1F33
 10
435.434
 20
-12.4969
 30
2.79522e-15
  70
    32
  0
VERTEX
  8
0
  5
1F34
 10
435.438
 20
-12.4908
 30
2.79385e-15
  70
    32
  0
VERTEX
  8
0
  5
1F35
 10
435.441
 20
-12.4846
 30
2.79245e-15
  70
    32
  0
VERTEX
  8
0
  5
1F36
 10
435.445
 20
-12.4785
 30
2.79103e-15
  70
    32
  0
VERTEX
  8
0
  5
1F37
 10
435.449
 20
-12.4724
 30
2.78957e-15
  70
    32
  0
VERTEX
  8
0
  5
1F38
 10
435.452
 20
-12.4663
 30
2.78808e-15
  70
    32
  0
VERTEX
  8
0
  5
1F39
 10
435.456
 20
-12.4602
 30
2.78655e-15
  70
    32
  0
VERTEX
  8
0
  5
1F3A
 10
435.459
 20
-12.4541
 30
2.78499e-15
  70
    32
  0
VERTEX
  8
0
  5
1F3B
 10
435.463
 20
-12.4480
 30
2.78339e-15
  70
    32
  0
VERTEX
  8
0
  5
1F3C
 10
435.466
 20
-12.4419
 30
2.78175e-15
  70
    32
  0
VERTEX
  8
0
  5
1F3D
 10
435.470
 20
-12.4358
 30
2.78006e-15
  70
    32
  0
VERTEX
  8
0
  5
1F3E
 10
435.473
 20
-12.4298
 30
2.77833e-15
  70
    32
  0
VERTEX
  8
0
  5
1F3F
 10
435.477
 20
-12.4237
 30
2.77655e-15
  70
    32
  0
VERTEX
  8
0
  5
1F40
 10
435.480
 20
-12.4177
 30
2.77472e-15
  70
    32
  0
VERTEX
  8
0
  5
1F41
 10
435.484
 20
-12.4117
 30
2.77285e-15
  70
    32
  0
VERTEX
  8
0
  5
1F42
 10
435.487
 20
-12.4056
 30
2.77092e-15
  70
    32
  0
VERTEX
  8
0
  5
1F43
 10
435.491
 20
-12.3996
 30
2.76893e-15
  70
    32
  0
VERTEX
  8
0
  5
1F44
 10
435.494
 20
-12.3936
 30
2.76689e-15
  70
    32
  0
VERTEX
  8
0
  5
1F45
 10
435.498
 20
-12.3876
 30
2.76479e-15
  70
    32
  0
VERTEX
  8
0
  5
1F46
 10
435.501
 20
-12.3817
 30
2.76263e-15
  70
    32
  0
VERTEX
  8
0
  5
1F47
 10
435.505
 20
-12.3757
 30
2.76041e-15
  70
    32
  0
VERTEX
  8
0
  5
1F48
 10
435.508
 20
-12.3697
 30
2.75812e-15
  70
    32
  0
VERTEX
  8
0
  5
1F49
 10
435.512
 20
-12.3638
 30
2.75577e-15
  70
    32
  0
VERTEX
  8
0
  5
1F4A
 10
435.515
 20
-12.3579
 30
2.75335e-15
  70
    32
  0
VERTEX
  8
0
  5
1F4B
 10
435.519
 20
-12.3519
 30
2.75087e-15
  70
    32
  0
VERTEX
  8
0
  5
1F4C
 10
435.522
 20
-12.3460
 30
2.74830e-15
  70
    32
  0
VERTEX
  8
0
  5
1F4D
 10
435.526
 20
-12.3401
 30
2.74567e-15
  70
    32
  0
VERTEX
  8
0
  5
1F4E
 10
435.529
 20
-12.3343
 30
2.74296e-15
  70
    32
  0
VERTEX
  8
0
  5
1F4F
 10
435.533
 20
-12.3284
 30
2.74017e-15
  70
    32
  0
VERTEX
  8
0
  5
1F50
 10
435.536
 20
-12.3225
 30
2.73731e-15
  70
    32
  0
VERTEX
  8
0
  5
1F51
 10
435.539
 20
-12.3167
 30
2.73436e-15
  70
    32
  0
VERTEX
  8
0
  5
1F52
 10
435.543
 20
-12.3108
 30
2.73133e-15
  70
    32
  0
VERTEX
  8
0
  5
1F53
 10
435.546
 20
-12.3050
 30
2.72821e-15
  70
    32
  0
VERTEX
  8
0
  5
1F54
 10
435.550
 20
-12.2992
 30
2.72501e-15
  70
    32
  0
VERTEX
  8
0
  5
1F55
 10
435.553
 20
-12.2934
 30
2.72172e-15
  70
    32
  0
VERTEX
  8
0
  5
1F56
 10
435.556
 20
-12.2876
 30
2.71834e-15
  70
    32
  0
VERTEX
  8
0
  5
1F57
 10
435.560
 20
-12.2818
 30
2.71486e-15
  70
    32
  0
VERTEX
  8
0
  5
1F58
 10
435.563
 20
-12.2761
 30
2.71129e-15
  70
    32
  0
VERTEX
  8
0
  5
1F59
 10
435.566
 20
-12.2703
 30
2.70763e-15
  70
    32
  0
VERTEX
  8
0
  5
1F5A
 10
435.570
 20
-12.2646
 30
2.70386e-15
  70
    32
  0
VERTEX
  8
0
  5
1F5B
 10
435.573
 20
-12.2589
 30
2.70000e-15
  70
    32
  0
SEQEND
  8
0
  5
1F5C
  0
POLYLINE
  8
0
  5
1F5D
  66
     1
 10
0.000000
 20
0.000000
 30
0.000000
  70
     8
  0
VERTEX
  8
0
  5
1F5E
 10
435.573
 20
-12.2589
 30
2.70000e-15
  70
    32
  0
VERTEX
  8
0
  5
1F5F
 10
435.575
 20
-12.2561
 30
2.70000e-15
  70
    32
  0
VERTEX
  8
0
  5
1F60
 10
435.576
 20
-12.2534
 30
2.70000e-15
  70
    32
  0
VERTEX
  8
0
  5
1F61
 10
435.578
 20
-12.2506
 30
2.70000e-15
  70
    32
  0
VERTEX
  8
0
  5
1F62
 10
435.580
 20
-12.2478
 30
2.70000e-15
  70
    32
  0
VERTEX
  8
0
  5
1F63
 10
435.581
 20
-12.2451
 30
2.70000e-15
  70
    32
  0
VERTEX
  8
0
  5
1F64
 10
435.583
 20
-12.2424
 30
2.70000e-15
  70
    32
  0
VERTEX
  8
0
  5
1F65
 10
435.585
 20
-12.2396
 30
2.70000e-15
  70
    32
  0
VERTEX
  8
0
  5
1F66
 10
435.586
 20
-12.2369
 30
2.70000e-15
  70
    32
  0
VERTEX
  8
0
  5
1F67
 10
435.588
 20
-12.2341
 30
2.70000e-15
  70
    32
  0
VERTEX
  8
0
  5
1F68
 10
435.589
 20
-12.2314
 30
2.70000e-15
  70
    32
  0
VERTEX
  8
0
  5
1F69
 10
435.591
 20
-12.2287
 30
2.70000e-15
  70
    32
  0
VERTEX
  8
0
  5
1F6A
 10
435.593
 20
-12.2260
 30
2.70000e-15
  70
    32
  0
VERTEX
  8
0
  5
1F6B
 10
435.594
 20
-12.2232
 30
2.70000e-15
  70
    32
  0
VERTEX
  8
0
  5
1F6C
 10
435.596
 20
-12.2205
 30
2.70000e-15
  70
    32
  0
VERTEX
  8
0
  5
1F6D
 10
435.597
 20
-12.2178
 30
2.70000e-15
  70
    32
  0
VERTEX
  8
0
  5
1F6E
 10
435.599
 20
-12.2151
 30
2.70000e-15
  70
    32
  0
VERTEX
  8
0
  5
1F6F
 10
435.601
 20
-12.2124
 30
2.70000e-15
  70
    32
  0
VERTEX
  8
0
  5
1F70
 10
435.602
 20
-12.2097
 30
2.70000e-15
  70
    32
  0
VERTEX
  8
0
  5
1F71
 10
435.604
 20
-12.2070
 30
2.70000e-15
  70
    32
  0
VERTEX
  8
0
  5
1F72
 10
435.606
 20
-12.2043
 30
2.70000e-15
  70
    32
  0
VERTEX
  8
0
  5
1F73
 10
435.607
 20
-12.2016
 30
2.70000e-15
  70
    32
  0
VERTEX
  8
0
  5
1F74
 10
435.609
 20
-12.1989
 30
2.70000e-15
  70
    32
  0
VERTEX
  8
0
  5
1F75
 10
435.611
 20
-12.1962
 30
2.70000e-15
  70
    32
  0
VERTEX
  8
0
  5
1F76
 10
435.612
 20
-12.1935
 30
2.70000e-15
  70
    32
  0
VERTEX
  8
0
  5
1F77
 10
435.614
 20
-12.1908
 30
2.70000e-15
  70
    32
  0
VERTEX
  8
0
  5
1F78
 10
435.615
 20
-12.1882
 30
2.70000e-15
  70
    32
  0
VERTEX
  8
0
  5
1F79
 10
435.617
 20
-12.1855
 30
2.70000e-15
  70
    32
  0
VERTEX
  8
0
  5
1F7A
 10
435.619
 20
-12.1828
 30
2.70000e-15
  70
    32
  0
VERTEX
  8
0
  5
1F7B
 10
435.620
 20
-12.1802
 30
2.70000e-15
  70
    32
  0
VERTEX
  8
0
  5
1F7C
 10
435.622
 20
-12.1775
 30
2.70000e-15
  70
    32
  0
VERTEX
  8
0
  5
1F7D
 10
435.624
 20
-12.1749
 30
2.70000e-15
  70
    32
  0
VERTEX
  8
0
  5
1F7E
 10
435.625
 20
-12.1722
 30
2.70000e-15
  70
    32
  0
VERTEX
  8
0
  5
1F7F
 10
435.627
 20
-12.1696
 30
2.70000e-15
  70
    32
  0
VERTEX
  8
0
  5
1F80
 10
435.629
 20
-12.1669
 30
2.70000e-15
  70
    32
  0
VERTEX
  8
0
  5
1F81
 10
435.630
 20
-12.1643
 30
2.70000e-15
  70
    32
  0
VERTEX
  8
0
  5
1F82
 10
435.632
 20
-12.1616
 30
2.70000e-15
  70
    32
  0
VERTEX
  8
0
  5
1F83
 10
435.633
 20
-12.1590
 30
2.70000e-15
  70
    32
  0
VERTEX
  8
0
  5
1F84
 10
435.635
 20
-12.1564
 30
2.70000e-15
  70
    32
  0
VERTEX
  8
0
  5
1F85
 10
435.637
 20
-12.1538
 30
2.70000e-15
  70
    32
  0
VERTEX
  8
0
  5
1F86
 10
435.638
 20
-12.1512
 30
2.70000e-15
  70
    32
  0
VERTEX
  8
0
  5
1F87
 10
435.640
 20
-12.1485
 30
2.70000e-15
  70
    32
  0
VERTEX
  8
0
  5
1F88
 10
435.642
 20
-12.1459
 30
2.70000e-15
  70
    32
  0
VERTEX
  8
0
  5
1F89
 10
435.643
 20
-12.1433
 30
2.70000e-15
  70
    32
  0
VERTEX
  8
0
  5
1F8A
 10
435.645
 20
-12.1407
 30
2.70000e-15
  70
    32
  0
VERTEX
  8
0
  5
1F8B
 10
435.646
 20
-12.1381
 30
2.70000e-15
  70
    32
  0
VERTEX
  8
0
  5
1F8C
 10
435.648
 20
-12.1355
 30
2.70000e-15
  70
    32
  0
VERTEX
  8
0
  5
1F8D
 10
435.650
 20
-12.1329
 30
2.70000e-15
  70
    32
  0
VERTEX
  8
0
  5
1F8E
 10
435.651
 20
-12.1304
 30
2.70000e-15
  70
    32
  0
VERTEX
  8
0
  5
1F8F
 10
435.653
 20
-12.1278
 30
2.70000e-15
  70
    32
  0
VERTEX
  8
0
  5
1F90
 10
435.655
 20
-12.1252
 30
2.70000e-15
  70
    32
  0
VERTEX
  8
0
  5
1F91
 10
435.656
 20
-12.1226
 30
2.70000e-15
  70
    32
  0
VERTEX
  8
0
  5
1F92
 10
435.658
 20
-12.1201
 30
2.70000e-15
  70
    32
  0
VERTEX
  8
0
  5
1F93
 10
435.660
 20
-12.1175
 30
2.70000e-15
  70
    32
  0
VERTEX
  8
0
  5
1F94
 10
435.661
 20
-12.1150
 30
2.70000e-15
  70
    32
  0
VERTEX
  8
0
  5
1F95
 10
435.663
 20
-12.1124
 30
2.70000e-15
  70
    32
  0
VERTEX
  8
0
  5
1F96
 10
435.664
 20
-12.1099
 30
2.70000e-15
  70
    32
  0
VERTEX
  8
0
  5
1F97
 10
435.666
 20
-12.1073
 30
2.70000e-15
  70
    32
  0
VERTEX
  8
0
  5
1F98
 10
435.668
 20
-12.1048
 30
2.70000e-15
  70
    32
  0
VERTEX
  8
0
  5
1F99
 10
435.669
 20
-12.1023
 30
2.70000e-15
  70
    32
  0
VERTEX
  8
0
  5
1F9A
 10
435.671
 20
-12.0997
 30
2.70000e-15
  70
    32
  0
VERTEX
  8
0
  5
1F9B
 10
435.673
 20
-12.0972
 30
2.70000e-15
  70
    32
  0
VERTEX
  8
0
  5
1F9C
 10
435.674
 20
-12.0947
 30
2.70000e-15
  70
    32
  0
VERTEX
  8
0
  5
1F9D
 10
435.676
 20
-12.0922
 30
2.70000e-15
  70
    32
  0
VERTEX
  8
0
  5
1F9E
 10
435.677
 20
-12.0897
 30
2.70000e-15
  70
    32
  0
VERTEX
  8
0
  5
1F9F
 10
435.679
 20
-12.0872
 30
2.70000e-15
  70
    32
  0
VERTEX
  8
0
  5
1FA0
 10
435.681
 20
-12.0847
 30
2.70000e-15
  70
    32
  0
VERTEX
  8
0
  5
1FA1
 10
435.682
 20
-12.0822
 30
2.70000e-15
  70
    32
  0
VERTEX
  8
0
  5
1FA2
 10
435.684
 20
-12.0797
 30
2.70000e-15
  70
    32
  0
VERTEX
  8
0
  5
1FA3
 10
435.686
 20
-12.0772
 30
2.70000e-15
  70
    32
  0
VERTEX
  8
0
  5
1FA4
 10
435.687
 20
-12.0747
 30
2.70000e-15
  70
    32
  0
VERTEX
  8
0
  5
1FA5
 10
435.689
 20
-12.0722
 30
2.70000e-15
  70
    32
  0
VERTEX
  8
0
  5
1FA6
 10
435.690
 20
-12.0698
 30
2.70000e-15
  70
    32
  0
VERTEX
  8
0
  5
1FA7
 10
435.692
 20
-12.0673
 30
2.70000e-15
  70
    32
  0
VERTEX
  8
0
  5
1FA8
 10
435.694
 20
-12.0649
 30
2.70000e-15
  70
    32
  0
VERTEX
  8
0
  5
1FA9
 10
435.695
 20
-12.0624
 30
2.70000e-15
  70
    32
  0
VERTEX
  8
0
  5
1FAA
 10
435.697
 20
-12.0600
 30
2.70000e-15
  70
    32
  0
VERTEX
  8
0
  5
1FAB
 10
435.699
 20
-12.0575
 30
2.70000e-15
  70
    32
  0
VERTEX
  8
0
  5
1FAC
 10
435.700
 20
-12.0551
 30
2.70000e-15
  70
    32
  0
VERTEX
  8
0
  5
1FAD
 10
435.702
 20
-12.0526
 30
2.70000e-15
  70
    32
  0
VERTEX
  8
0
  5
1FAE
 10
435.703
 20
-12.0502
 30
2.70000e-15
  70
    32
  0
VERTEX
  8
0
  5
1FAF
 10
435.705
 20
-12.0478
 30
2.70000e-15
  70
    32
  0
VERTEX
  8
0
  5
1FB0
 10
435.707
 20
-12.0454
 30
2.70000e-15
  70
    32
  0
VERTEX
  8
0
  5
1FB1
 10
435.708
 20
-12.0430
 30
2.70000e-15
  70
    32
  0
VERTEX
  8
0
  5
1FB2
 10
435.710
 20
-12.0406
 30
2.70000e-15
  70
    32
  0
VERTEX
  8
0
  5
1FB3
 10
435.711
 20
-12.0382
 30
2.69996e-15
  70
    32
  0
VERTEX
  8
0
  5
1FB4
 10
435.713
 20
-12.0358
 30
2.69984e-15
  70
    32
  0
VERTEX
  8
0
  5
1FB5
 10
435.715
 20
-12.0334
 30
2.69963e-15
  70
    32
  0
VERTEX
  8
0
  5
1FB6
 10
435.716
 20
-12.0310
 30
2.69934e-15
  70
    32
  0
VERTEX
  8
0
  5
1FB7
 10
435.718
 20
-12.0286
 30
2.69896e-15
  70
    32
  0
VERTEX
  8
0
  5
1FB8
 10
435.719
 20
-12.0263
 30
2.69851e-15
  70
    32
  0
VERTEX
  8
0
  5
1FB9
 10
435.721
 20
-12.0239
 30
2.69798e-15
  70
    32
  0
VERTEX
  8
0
  5
1FBA
 10
435.723
 20
-12.0215
 30
2.69737e-15
  70
    32
  0
VERTEX
  8
0
  5
1FBB
 10
435.724
 20
-12.0192
 30
2.69669e-15
  70
    32
  0
VERTEX
  8
0
  5
1FBC
 10
435.726
 20
-12.0168
 30
2.69594e-15
  70
    32
  0
VERTEX
  8
0
  5
1FBD
 10
435.727
 20
-12.0145
 30
2.69513e-15
  70
    32
  0
VERTEX
  8
0
  5
1FBE
 10
435.729
 20
-12.0121
 30
2.69424e-15
  70
    32
  0
VERTEX
  8
0
  5
1FBF
 10
435.731
 20
-12.0098
 30
2.69330e-15
  70
    32
  0
VERTEX
  8
0
  5
1FC0
 10
435.732
 20
-12.0075
 30
2.69229e-15
  70
    32
  0
VERTEX
  8
0
  5
1FC1
 10
435.734
 20
-12.0052
 30
2.69122e-15
  70
    32
  0
VERTEX
  8
0
  5
1FC2
 10
435.735
 20
-12.0029
 30
2.69009e-15
  70
    32
  0
VERTEX
  8
0
  5
1FC3
 10
435.737
 20
-12.0005
 30
2.68891e-15
  70
    32
  0
VERTEX
  8
0
  5
1FC4
 10
435.739
 20
-11.9982
 30
2.68768e-15
  70
    32
  0
VERTEX
  8
0
  5
1FC5
 10
435.740
 20
-11.9959
 30
2.68640e-15
  70
    32
  0
VERTEX
  8
0
  5
1FC6
 10
435.742
 20
-11.9937
 30
2.68507e-15
  70
    32
  0
VERTEX
  8
0
  5
1FC7
 10
435.743
 20
-11.9914
 30
2.68369e-15
  70
    32
  0
VERTEX
  8
0
  5
1FC8
 10
435.745
 20
-11.9891
 30
2.68226e-15
  70
    32
  0
VERTEX
  8
0
  5
1FC9
 10
435.746
 20
-11.9868
 30
2.68080e-15
  70
    32
  0
VERTEX
  8
0
  5
1FCA
 10
435.748
 20
-11.9846
 30
2.67930e-15
  70
    32
  0
VERTEX
  8
0
  5
1FCB
 10
435.750
 20
-11.9823
 30
2.67776e-15
  70
    32
  0
VERTEX
  8
0
  5
1FCC
 10
435.751
 20
-11.9800
 30
2.67618e-15
  70
    32
  0
VERTEX
  8
0
  5
1FCD
 10
435.753
 20
-11.9778
 30
2.67457e-15
  70
    32
  0
VERTEX
  8
0
  5
1FCE
 10
435.754
 20
-11.9756
 30
2.67293e-15
  70
    32
  0
VERTEX
  8
0
  5
1FCF
 10
435.756
 20
-11.9733
 30
2.67126e-15
  70
    32
  0
VERTEX
  8
0
  5
1FD0
 10
435.757
 20
-11.9711
 30
2.66957e-15
  70
    32
  0
VERTEX
  8
0
  5
1FD1
 10
435.759
 20
-11.9689
 30
2.66785e-15
  70
    32
  0
VERTEX
  8
0
  5
1FD2
 10
435.760
 20
-11.9667
 30
2.66611e-15
  70
    32
  0
VERTEX
  8
0
  5
1FD3
 10
435.762
 20
-11.9645
 30
2.66435e-15
  70
    32
  0
VERTEX
  8
0
  5
1FD4
 10
435.764
 20
-11.9623
 30
2.66257e-15
  70
    32
  0
VERTEX
  8
0
  5
1FD5
 10
435.765
 20
-11.9601
 30
2.66078e-15
  70
    32
  0
VERTEX
  8
0
  5
1FD6
 10
435.767
 20
-11.9579
 30
2.65897e-15
  70
    32
  0
VERTEX
  8
0
  5
1FD7
 10
435.768
 20
-11.9557
 30
2.65716e-15
  70
    32
  0
VERTEX
  8
0
  5
1FD8
 10
435.770
 20
-11.9535
 30
2.65533e-15
  70
    32
  0
VERTEX
  8
0
  5
1FD9
 10
435.771
 20
-11.9514
 30
2.65350e-15
  70
    32
  0
VERTEX
  8
0
  5
1FDA
 10
435.773
 20
-11.9492
 30
2.65167e-15
  70
    32
  0
VERTEX
  8
0
  5
1FDB
 10
435.774
 20
-11.9470
 30
2.64983e-15
  70
    32
  0
VERTEX
  8
0
  5
1FDC
 10
435.776
 20
-11.9449
 30
2.64799e-15
  70
    32
  0
VERTEX
  8
0
  5
1FDD
 10
435.777
 20
-11.9428
 30
2.64615e-15
  70
    32
  0
VERTEX
  8
0
  5
1FDE
 10
435.779
 20
-11.9406
 30
2.64432e-15
  70
    32
  0
VERTEX
  8
0
  5
1FDF
 10
435.780
 20
-11.9385
 30
2.64250e-15
  70
    32
  0
VERTEX
  8
0
  5
1FE0
 10
435.782
 20
-11.9364
 30
2.64069e-15
  70
    32
  0
VERTEX
  8
0
  5
1FE1
 10
435.783
 20
-11.9343
 30
2.63888e-15
  70
    32
  0
VERTEX
  8
0
  5
1FE2
 10
435.785
 20
-11.9322
 30
2.63709e-15
  70
    32
  0
VERTEX
  8
0
  5
1FE3
 10
435.786
 20
-11.9301
 30
2.63532e-15
  70
    32
  0
VERTEX
  8
0
  5
1FE4
 10
435.788
 20
-11.9280
 30
2.63356e-15
  70
    32
  0
VERTEX
  8
0
  5
1FE5
 10
435.789
 20
-11.9259
 30
2.63182e-15
  70
    32
  0
VERTEX
  8
0
  5
1FE6
 10
435.791
 20
-11.9238
 30
2.63011e-15
  70
    32
  0
VERTEX
  8
0
  5
1FE7
 10
435.792
 20
-11.9218
 30
2.62842e-15
  70
    32
  0
VERTEX
  8
0
  5
1FE8
 10
435.794
 20
-11.9197
 30
2.62676e-15
  70
    32
  0
VERTEX
  8
0
  5
1FE9
 10
435.795
 20
-11.9176
 30
2.62512e-15
  70
    32
  0
VERTEX
  8
0
  5
1FEA
 10
435.797
 20
-11.9156
 30
2.62352e-15
  70
    32
  0
VERTEX
  8
0
  5
1FEB
 10
435.798
 20
-11.9136
 30
2.62195e-15
  70
    32
  0
VERTEX
  8
0
  5
1FEC
 10
435.800
 20
-11.9115
 30
2.62042e-15
  70
    32
  0
VERTEX
  8
0
  5
1FED
 10
435.801
 20
-11.9095
 30
2.61892e-15
  70
    32
  0
VERTEX
  8
0
  5
1FEE
 10
435.803
 20
-11.9075
 30
2.61746e-15
  70
    32
  0
VERTEX
  8
0
  5
1FEF
 10
435.804
 20
-11.9055
 30
2.61605e-15
  70
    32
  0
VERTEX
  8
0
  5
1FF0
 10
435.806
 20
-11.9035
 30
2.61468e-15
  70
    32
  0
VERTEX
  8
0
  5
1FF1
 10
435.807
 20
-11.9015
 30
2.61336e-15
  70
    32
  0
VERTEX
  8
0
  5
1FF2
 10
435.808
 20
-11.8995
 30
2.61208e-15
  70
    32
  0
VERTEX
  8
0
  5
1FF3
 10
435.810
 20
-11.8975
 30
2.61086e-15
  70
    32
  0
VERTEX
  8
0
  5
1FF4
 10
435.811
 20
-11.8956
 30
2.60969e-15
  70
    32
  0
VERTEX
  8
0
  5
1FF5
 10
435.813
 20
-11.8936
 30
2.60857e-15
  70
    32
  0
VERTEX
  8
0
  5
1FF6
 10
435.814
 20
-11.8916
 30
2.60752e-15
  70
    32
  0
VERTEX
  8
0
  5
1FF7
 10
435.816
 20
-11.8897
 30
2.60652e-15
  70
    32
  0
VERTEX
  8
0
  5
1FF8
 10
435.817
 20
-11.8878
 30
2.60558e-15
  70
    32
  0
VERTEX
  8
0
  5
1FF9
 10
435.818
 20
-11.8858
 30
2.60471e-15
  70
    32
  0
VERTEX
  8
0
  5
1FFA
 10
435.820
 20
-11.8839
 30
2.60391e-15
  70
    32
  0
VERTEX
  8
0
  5
1FFB
 10
435.821
 20
-11.8820
 30
2.60317e-15
  70
    32
  0
VERTEX
  8
0
  5
1FFC
 10
435.823
 20
-11.8801
 30
2.60251e-15
  70
    32
  0
VERTEX
  8
0
  5
1FFD
 10
435.824
 20
-11.8782
 30
2.60192e-15
  70
    32
  0
VERTEX
  8
0
  5
1FFE
 10
435.825
 20
-11.8763
 30
2.60140e-15
  70
    32
  0
VERTEX
  8
0
  5
1FFF
 10
435.827
 20
-11.8744
 30
2.60096e-15
  70
    32
  0
VERTEX
  8
0
  5
2000
 10
435.828
 20
-11.8725
 30
2.60060e-15
  70
    32
  0
VERTEX
  8
0
  5
2001
 10
435.830
 20
-11.8707
 30
2.60032e-15
  70
    32
  0
VERTEX
  8
0
  5
2002
 10
435.831
 20
-11.8688
 30
2.60013e-15
  70
    32
  0
VERTEX
  8
0
  5
2003
 10
435.832
 20
-11.8670
 30
2.60002e-15
  70
    32
  0
VERTEX
  8
0
  5
2004
 10
435.834
 20
-11.8651
 30
2.60000e-15
  70
    32
  0
VERTEX
  8
0
  5
2005
 10
435.835
 20
-11.8633
 30
2.60000e-15
  70
    32
  0
VERTEX
  8
0
  5
2006
 10
435.836
 20
-11.8615
 30
2.60000e-15
  70
    32
  0
VERTEX
  8
0
  5
2007
 10
435.838
 20
-11.8597
 30
2.60000e-15
  70
    32
  0
VERTEX
  8
0
  5
2008
 10
435.839
 20
-11.8579
 30
2.60000e-15
  70
    32
  0
VERTEX
  8
0
  5
2009
 10
435.841
 20
-11.8561
 30
2.60000e-15
  70
    32
  0
VERTEX
  8
0
  5
200A
 10
435.842
 20
-11.8543
 30
2.60000e-15
  70
    32
  0
VERTEX
  8
0
  5
200B
 10
435.843
 20
-11.8525
 30
2.60000e-15
  70
    32
  0
VERTEX
  8
0
  5
200C
 10
435.845
 20
-11.8507
 30
2.60000e-15
  70
    32
  0
VERTEX
  8
0
  5
200D
 10
435.846
 20
-11.8490
 30
2.60000e-15
  70
    32
  0
VERTEX
  8
0
  5
200E
 10
435.847
 20
-11.8472
 30
2.60000e-15
  70
    32
  0
VERTEX
  8
0
  5
200F
 10
435.848
 20
-11.8455
 30
2.60000e-15
  70
    32
  0
VERTEX
  8
0
  5
2010
 10
435.850
 20
-11.8438
 30
2.60000e-15
  70
    32
  0
VERTEX
  8
0
  5
2011
 10
435.851
 20
-11.8421
 30
2.60000e-15
  70
    32
  0
VERTEX
  8
0
  5
2012
 10
435.852
 20
-11.8403
 30
2.60000e-15
  70
    32
  0
VERTEX
  8
0
  5
2013
 10
435.854
 20
-11.8386
 30
2.60000e-15
  70
    32
  0
VERTEX
  8
0
  5
2014
 10
435.855
 20
-11.8370
 30
2.60000e-15
  70
    32
  0
VERTEX
  8
0
  5
2015
 10
435.856
 20
-11.8353
 30
2.60000e-15
  70
    32
  0
VERTEX
  8
0
  5
2016
 10
435.857
 20
-11.8336
 30
2.60000e-15
  70
    32
  0
VERTEX
  8
0
  5
2017
 10
435.859
 20
-11.8319
 30
2.60000e-15
  70
    32
  0
VERTEX
  8
0
  5
2018
 10
435.860
 20
-11.8303
 30
2.60000e-15
  70
    32
  0
VERTEX
  8
0
  5
2019
 10
435.861
 20
-11.8287
 30
2.60000e-15
  70
    32
  0
VERTEX
  8
0
  5
201A
 10
435.862
 20
-11.8270
 30
2.60000e-15
  70
    32
  0
VERTEX
  8
0
  5
201B
 10
435.864
 20
-11.8254
 30
2.60000e-15
  70
    32
  0
VERTEX
  8
0
  5
201C
 10
435.865
 20
-11.8238
 30
2.60000e-15
  70
    32
  0
VERTEX
  8
0
  5
201D
 10
435.866
 20
-11.8222
 30
2.60000e-15
  70
    32
  0
VERTEX
  8
0
  5
201E
 10
435.867
 20
-11.8206
 30
2.60000e-15
  70
    32
  0
VERTEX
  8
0
  5
201F
 10
435.869
 20
-11.8190
 30
2.60000e-15
  70
    32
  0
VERTEX
  8
0
  5
2020
 10
435.870
 20
-11.8174
 30
2.60000e-15
  70
    32
  0
VERTEX
  8
0
  5
2021
 10
435.871
 20
-11.8159
 30
2.60000e-15
  70
    32
  0
VERTEX
  8
0
  5
2022
 10
435.872
 20
-11.8143
 30
2.60000e-15
  70
    32
  0
VERTEX
  8
0
  5
2023
 10
435.873
 20
-11.8128
 30
2.60000e-15
  70
    32
  0
VERTEX
  8
0
  5
2024
 10
435.875
 20
-11.8113
 30
2.60000e-15
  70
    32
  0
VERTEX
  8
0
  5
2025
 10
435.876
 20
-11.8097
 30
2.60000e-15
  70
    32
  0
VERTEX
  8
0
  5
2026
 10
435.877
 20
-11.8082
 30
2.60000e-15
  70
    32
  0
VERTEX
  8
0
  5
2027
 10
435.878
 20
-11.8067
 30
2.60000e-15
  70
    32
  0
VERTEX
  8
0
  5
2028
 10
435.879
 20
-11.8052
 30
2.60000e-15
  70
    32
  0
VERTEX
  8
0
  5
2029
 10
435.880
 20
-11.8038
 30
2.60000e-15
  70
    32
  0
VERTEX
  8
0
  5
202A
 10
435.881
 20
-11.8023
 30
2.60000e-15
  70
    32
  0
VERTEX
  8
0
  5
202B
 10
435.883
 20
-11.8008
 30
2.60000e-15
  70
    32
  0
VERTEX
  8
0
  5
202C
 10
435.884
 20
-11.7994
 30
2.60000e-15
  70
    32
  0
VERTEX
  8
0
  5
202D
 10
435.885
 20
-11.7979
 30
2.60000e-15
  70
    32
  0
VERTEX
  8
0
  5
202E
 10
435.886
 20
-11.7965
 30
2.60000e-15
  70
    32
  0
VERTEX
  8
0
  5
202F
 10
435.887
 20
-11.7951
 30
2.60000e-15
  70
    32
  0
VERTEX
  8
0
  5
2030
 10
435.888
 20
-11.7937
 30
2.60000e-15
  70
    32
  0
VERTEX
  8
0
  5
2031
 10
435.889
 20
-11.7923
 30
2.60000e-15
  70
    32
  0
VERTEX
  8
0
  5
2032
 10
435.890
 20
-11.7909
 30
2.60000e-15
  70
    32
  0
VERTEX
  8
0
  5
2033
 10
435.891
 20
-11.7896
 30
2.60000e-15
  70
    32
  0
VERTEX
  8
0
  5
2034
 10
435.892
 20
-11.7882
 30
2.60000e-15
  70
    32
  0
VERTEX
  8
0
  5
2035
 10
435.893
 20
-11.7868
 30
2.60000e-15
  70
    32
  0
VERTEX
  8
0
  5
2036
 10
435.895
 20
-11.7855
 30
2.60000e-15
  70
    32
  0
VERTEX
  8
0
  5
2037
 10
435.896
 20
-11.7842
 30
2.60000e-15
  70
    32
  0
VERTEX
  8
0
  5
2038
 10
435.897
 20
-11.7829
 30
2.60000e-15
  70
    32
  0
VERTEX
  8
0
  5
2039
 10
435.898
 20
-11.7815
 30
2.60000e-15
  70
    32
  0
VERTEX
  8
0
  5
203A
 10
435.899
 20
-11.7802
 30
2.60000e-15
  70
    32
  0
VERTEX
  8
0
  5
203B
 10
435.900
 20
-11.7790
 30
2.60000e-15
  70
    32
  0
VERTEX
  8
0
  5
203C
 10
435.901
 20
-11.7777
 30
2.60000e-15
  70
    32
  0
VERTEX
  8
0
  5
203D
 10
435.902
 20
-11.7764
 30
2.60000e-15
  70
    32
  0
VERTEX
  8
0
  5
203E
 10
435.903
 20
-11.7752
 30
2.60000e-15
  70
    32
  0
VERTEX
  8
0
  5
203F
 10
435.904
 20
-11.7739
 30
2.60000e-15
  70
    32
  0
VERTEX
  8
0
  5
2040
 10
435.905
 20
-11.7727
 30
2.60000e-15
  70
    32
  0
VERTEX
  8
0
  5
2041
 10
435.906
 20
-11.7715
 30
2.60000e-15
  70
    32
  0
VERTEX
  8
0
  5
2042
 10
435.907
 20
-11.7703
 30
2.60000e-15
  70
    32
  0
VERTEX
  8
0
  5
2043
 10
435.907
 20
-11.7691
 30
2.60000e-15
  70
    32
  0
VERTEX
  8
0
  5
2044
 10
435.908
 20
-11.7679
 30
2.60000e-15
  70
    32
  0
VERTEX
  8
0
  5
2045
 10
435.909
 20
-11.7667
 30
2.60000e-15
  70
    32
  0
VERTEX
  8
0
  5
2046
 10
435.910
 20
-11.7656
 30
2.60000e-15
  70
    32
  0
VERTEX
  8
0
  5
2047
 10
435.911
 20
-11.7644
 30
2.60000e-15
  70
    32
  0
VERTEX
  8
0
  5
2048
 10
435.912
 20
-11.7633
 30
2.60000e-15
  70
    32
  0
VERTEX
  8
0
  5
2049
 10
435.913
 20
-11.7622
 30
2.60000e-15
  70
    32
  0
VERTEX
  8
0
  5
204A
 10
435.914
 20
-11.7610
 30
2.60000e-15
  70
    32
  0
VERTEX
  8
0
  5
204B
 10
435.915
 20
-11.7599
 30
2.60000e-15
  70
    32
  0
VERTEX
  8
0
  5
204C
 10
435.916
 20
-11.7589
 30
2.60000e-15
  70
    32
  0
VERTEX
  8
0
  5
204D
 10
435.916
 20
-11.7578
 30
2.60000e-15
  70
    32
  0
VERTEX
  8
0
  5
204E
 10
435.917
 20
-11.7567
 30
2.60000e-15
  70
    32
  0
VERTEX
  8
0
  5
204F
 10
435.918
 20
-11.7557
 30
2.60000e-15
  70
    32
  0
VERTEX
  8
0
  5
2050
 10
435.919
 20
-11.7546
 30
2.60000e-15
  70
    32
  0
VERTEX
  8
0
  5
2051
 10
435.920
 20
-11.7536
 30
2.60000e-15
  70
    32
  0
VERTEX
  8
0
  5
2052
 10
435.921
 20
-11.7526
 30
2.60000e-15
  70
    32
  0
VERTEX
  8
0
  5
2053
 10
435.921
 20
-11.7516
 30
2.60000e-15
  70
    32
  0
VERTEX
  8
0
  5
2054
 10
435.922
 20
-11.7506
 30
2.60000e-15
  70
    32
  0
VERTEX
  8
0
  5
2055
 10
435.923
 20
-11.7496
 30
2.60000e-15
  70
    32
  0
VERTEX
  8
0
  5
2056
 10
435.924
 20
-11.7486
 30
2.60000e-15
  70
    32
  0
VERTEX
  8
0
  5
2057
 10
435.925
 20
-11.7476
 30
2.60000e-15
  70
    32
  0
VERTEX
  8
0
  5
2058
 10
435.925
 20
-11.7467
 30
2.60000e-15
  70
    32
  0
VERTEX
  8
0
  5
2059
 10
435.926
 20
-11.7458
 30
2.60000e-15
  70
    32
  0
VERTEX
  8
0
  5
205A
 10
435.927
 20
-11.7448
 30
2.60000e-15
  70
    32
  0
VERTEX
  8
0
  5
205B
 10
435.927
 20
-11.7439
 30
2.60000e-15
  70
    32
  0
VERTEX
  8
0
  5
205C
 10
435.928
 20
-11.7430
 30
2.60000e-15
  70
    32
  0
VERTEX
  8
0
  5
205D
 10
435.929
 20
-11.7422
 30
2.60000e-15
  70
    32
  0
VERTEX
  8
0
  5
205E
 10
435.930
 20
-11.7413
 30
2.60000e-15
  70
    32
  0
VERTEX
  8
0
  5
205F
 10
435.930
 20
-11.7404
 30
2.60000e-15
  70
    32
  0
VERTEX
  8
0
  5
2060
 10
435.931
 20
-11.7396
 30
2.60000e-15
  70
    32
  0
VERTEX
  8
0
  5
2061
 10
435.932
 20
-11.7388
 30
2.60000e-15
  70
    32
  0
VERTEX
  8
0
  5
2062
 10
435.932
 20
-11.7379
 30
2.60000e-15
  70
    32
  0
VERTEX
  8
0
  5
2063
 10
435.933
 20
-11.7371
 30
2.60000e-15
  70
    32
  0
VERTEX
  8
0
  5
2064
 10
435.934
 20
-11.7364
 30
2.60000e-15
  70
    32
  0
VERTEX
  8
0
  5
2065
 10
435.934
 20
-11.7356
 30
2.60000e-15
  70
    32
  0
VERTEX
  8
0
  5
2066
 10
435.935
 20
-11.7348
 30
2.60000e-15
  70
    32
  0
VERTEX
  8
0
  5
2067
 10
435.935
 20
-11.7341
 30
2.60000e-15
  70
    32
  0
VERTEX
  8
0
  5
2068
 10
435.936
 20
-11.7333
 30
2.60000e-15
  70
    32
  0
VERTEX
  8
0
  5
2069
 10
435.937
 20
-11.7326
 30
2.60000e-15
  70
    32
  0
VERTEX
  8
0
  5
206A
 10
435.937
 20
-11.7319
 30
2.60000e-15
  70
    32
  0
VERTEX
  8
0
  5
206B
 10
435.938
 20
-11.7312
 30
2.60000e-15
  70
    32
  0
VERTEX
  8
0
  5
206C
 10
435.938
 20
-11.7305
 30
2.60000e-15
  70
    32
  0
VERTEX
  8
0
  5
206D
 10
435.939
 20
-11.7299
 30
2.60000e-15
  70
    32
  0
VERTEX
  8
0
  5
206E
 10
435.939
 20
-11.7292
 30
2.60000e-15
  70
    32
  0
VERTEX
  8
0
  5
206F
 10
435.940
 20
-11.7286
 30
2.60000e-15
  70
    32
  0
VERTEX
  8
0
  5
2070
 10
435.940
 20
-11.7279
 30
2.60000e-15
  70
    32
  0
VERTEX
  8
0
  5
2071
 10
435.941
 20
-11.7273
 30
2.60000e-15
  70
    32
  0
VERTEX
  8
0
  5
2072
 10
435.941
 20
-11.7267
 30
2.60000e-15
  70
    32
  0
VERTEX
  8
0
  5
2073
 10
435.942
 20
-11.7261
 30
2.60000e-15
  70
    32
  0
VERTEX
  8
0
  5
2074
 10
435.942
 20
-11.7255
 30
2.60000e-15
  70
    32
  0
VERTEX
  8
0
  5
2075
 10
435.943
 20
-11.7250
 30
2.60000e-15
  70
    32
  0
VERTEX
  8
0
  5
2076
 10
435.943
 20
-11.7244
 30
2.60000e-15
  70
    32
  0
VERTEX
  8
0
  5
2077
 10
435.944
 20
-11.7239
 30
2.60000e-15
  70
    32
  0
VERTEX
  8
0
  5
2078
 10
435.944
 20
-11.7234
 30
2.60000e-15
  70
    32
  0
VERTEX
  8
0
  5
2079
 10
435.944
 20
-11.7229
 30
2.60000e-15
  70
    32
  0
VERTEX
  8
0
  5
207A
 10
435.945
 20
-11.7224
 30
2.60000e-15
  70
    32
  0
VERTEX
  8
0
  5
207B
 10
435.945
 20
-11.7219
 30
2.60000e-15
  70
    32
  0
VERTEX
  8
0
  5
207C
 10
435.946
 20
-11.7214
 30
2.60000e-15
  70
    32
  0
VERTEX
  8
0
  5
207D
 10
435.946
 20
-11.7210
 30
2.60000e-15
  70
    32
  0
VERTEX
  8
0
  5
207E
 10
435.946
 20
-11.7206
 30
2.60000e-15
  70
    32
  0
VERTEX
  8
0
  5
207F
 10
435.947
 20
-11.7201
 30
2.60000e-15
  70
    32
  0
VERTEX
  8
0
  5
2080
 10
435.947
 20
-11.7197
 30
2.60000e-15
  70
    32
  0
VERTEX
  8
0
  5
2081
 10
435.947
 20
-11.7193
 30
2.60000e-15
  70
    32
  0
VERTEX
  8
0
  5
2082
 10
435.948
 20
-11.7189
 30
2.60000e-15
  70
    32
  0
VERTEX
  8
0
  5
2083
 10
435.948
 20
-11.7186
 30
2.60000e-15
  70
    32
  0
VERTEX
  8
0
  5
2084
 10
435.948
 20
-11.7182
 30
2.60000e-15
  70
    32
  0
VERTEX
  8
0
  5
2085
 10
435.949
 20
-11.7179
 30
2.60000e-15
  70
    32
  0
VERTEX
  8
0
  5
2086
 10
435.949
 20
-11.7175
 30
2.60000e-15
  70
    32
  0
VERTEX
  8
0
  5
2087
 10
435.949
 20
-11.7172
 30
2.60000e-15
  70
    32
  0
VERTEX
  8
0
  5
2088
 10
435.949
 20
-11.7169
 30
2.60000e-15
  70
    32
  0
VERTEX
  8
0
  5
2089
 10
435.950
 20
-11.7166
 30
2.60000e-15
  70
    32
  0
VERTEX
  8
0
  5
208A
 10
435.950
 20
-11.7164
 30
2.60000e-15
  70
    32
  0
VERTEX
  8
0
  5
208B
 10
435.950
 20
-11.7161
 30
2.60000e-15
  70
    32
  0
VERTEX
  8
0
  5
208C
 10
435.950
 20
-11.7159
 30
2.60000e-15
  70
    32
  0
VERTEX
  8
0
  5
208D
 10
435.950
 20
-11.7156
 30
2.60000e-15
  70
    32
  0
VERTEX
  8
0
  5
208E
 10
435.951
 20
-11.7154
 30
2.60000e-15
  70
    32
  0
VERTEX
  8
0
  5
208F
 10
435.951
 20
-11.7152
 30
2.60000e-15
  70
    32
  0
VERTEX
  8
0
  5
2090
 10
435.951
 20
-11.7150
 30
2.60000e-15
  70
    32
  0
VERTEX
  8
0
  5
2091
 10
435.951
 20
-11.7148
 30
2.60000e-15
  70
    32
  0
VERTEX
  8
0
  5
2092
 10
435.951
 20
-11.7147
 30
2.60000e-15
  70
    32
  0
VERTEX
  8
0
  5
2093
 10
435.951
 20
-11.7145
 30
2.60000e-15
  70
    32
  0
VERTEX
  8
0
  5
2094
 10
435.951
 20
-11.7144
 30
2.60000e-15
  70
    32
  0
VERTEX
  8
0
  5
2095
 10
435.952
 20
-11.7143
 30
2.60000e-15
  70
    32
  0
VERTEX
  8
0
  5
2096
 10
435.952
 20
-11.7142
 30
2.60000e-15
  70
    32
  0
VERTEX
  8
0
  5
2097
 10
435.952
 20
-11.7141
 30
2.60000e-15
  70
    32
  0
VERTEX
  8
0
  5
2098
 10
435.952
 20
-11.7140
 30
2.60000e-15
  70
    32
  0
VERTEX
  8
0
  5
2099
 10
435.952
 20
-11.7139
 30
2.60000e-15
  70
    32
  0
VERTEX
  8
0
  5
209A
 10
435.952
 20
-11.7139
 30
2.60000e-15
  70
    32
  0
VERTEX
  8
0
  5
209B
 10
435.952
 20
-11.7139
 30
2.60000e-15
  70
    32
  0
VERTEX
  8
0
  5
209C
 10
435.952
 20
-11.7138
 30
2.60000e-15
  70
    32
  0
VERTEX
  8
0
  5
209D
 10
435.952
 20
-11.7138
 30
2.60000e-15
  70
    32
  0
SEQEND
  8
0
  5
209E
  0
LINE
  5
1334
  8
0
  6
CONTINUOUS
 10
335.7018841464347929
 20
-18.1084217888326613
 30
0.000000000000004
 11
432.2018841464346792
 21
-18.1084217888326613
 31
0.000000000000004
210
0.0
220
1.0
230
-0.0000000000000002
  0
LINE
  5
1335
  8
0
  6
CONTINUOUS
 10
328.9518841464346792
 20
-10.1084217888325192
 30
0.0000000000000022
 11
438.9518841464347929
 21
-10.1084217888325192
 31
0.0000000000000022
210
0.0
220
1.0
230
-0.0000000000000002
  0
LINE
  5
1336
  8
0
  6
CONTINUOUS
 10
335.7018841464347929
 20
-23.1084217888325796
 30
0.0000000000000051
 11
432.2018841464346792
 21
-23.1084217888325796
 31
0.0000000000000051
210
0.0
220
1.0
230
-0.0000000000000002
  0
LINE
  5
1337
  8
0
  6
CONTINUOUS
 10
338.8440410230292059
 20
-23.1185776483554903
 30
0.0000000000000051
 11
429.0597272698403231
 21
-23.1185776483554903
 31
0.0000000000000051
210
0.0
220
1.0
230
-0.0000000000000002
  0
LINE
  5
1338
  8
0
  6
CONTINUOUS
 10
335.7018841464347929
 20
-31.1084217888325512
 30
0.0000000000000069
 11
432.2018841464346792
 21
-31.1084217888325512
 31
0.0000000000000069
210
0.0
220
1.0
230
-0.0000000000000002
  0
LINE
  5
1339
  8
0
  6
CONTINUOUS
 10
337.7018841464347929
 20
-33.1084217888325796
 30
0.0000000000000074
 11
430.2018841464347929
 21
-33.1084217888325796
 31
0.0000000000000074
210
0.0
220
1.0
230
-0.0000000000000002
  0
LINE
  5
133A
  8
0
  6
CONTINUOUS
 10
325.9518841464347929
 20
-7.1084217888325743
 30
0.0000000000000016
 11
441.9518841464347929
 21
-7.1084217888325743
 31
0.0000000000000016
210
0.0
220
1.0
230
-0.0000000000000002
  0
LINE
  5
133B
  8
0
  6
CONTINUOUS
 10
335.7018841464347929
 20
-18.1084217888326684
 30
0.000000000000004
 11
333.9518841464347929
 21
-15.0773328755871194
 31
0.0000000000000033
210
0.0
220
1.0
230
-0.0000000000000002
  0
LINE
  5
133C
  8
0
  6
CONTINUOUS
 10
432.2018841464346792
 20
-18.1084217888326684
 30
0.000000000000004
 11
433.9518841464347929
 21
-15.0773328755870999
 31
0.0000000000000033
210
0.0
220
1.0
230
-0.0000000000000002
  0
ARC
  5
133D
  8
0
  6
CONTINUOUS
 10
-328.5708908433384181
 20
-14.4261107999507399
 30
0.0
 40
4.3344658602572173
210
0.0
220
-0.0000000000000002
230
-1.0
 50
95.0427242062596633
 51
141.2628976104928995
  0
ARC
  5
133E
  8
0
  6
CONTINUOUS
 10
-439.3328774495309972
 20
-14.4261107999506795
 30
0.0
 40
4.3344658602571444
210
0.0
220
-0.0000000000000002
230
-1.0
 50
38.7371023895080597
 51
84.9572757937410046
  0
LINE
  5
133F
  8
0
  6
CONTINUOUS
 10
432.2018841464346792
 20
-18.1084217888326613
 30
0.000000000000004
 11
432.2018841464346792
 21
-23.1084217888325796
 31
0.0000000000000051
210
0.0
220
1.0
230
-0.0000000000000002
  0
LINE
  5
1340
  8
0
  6
CONTINUOUS
 10
335.7018841464347929
 20
-18.1084217888326613
 30
0.000000000000004
 11
335.7018841464347929
 21
-23.1084217888325796
 31
0.0000000000000051
210
0.0
220
1.0
230
-0.0000000000000002
  0
LINE
  5
1341
  8
0
  6
CONTINUOUS
 10
338.8440410230292059
 20
-23.1185776483554903
 30
0.0000000000000051
 11
335.7018841464347929
 21
-23.1084217888325796
 31
0.0000000000000051
210
0.0
220
1.0
230
-0.0000000000000002
  0
LINE
  5
1342
  8
0
  6
CONTINUOUS
 10
429.0597272698403231
 20
-23.1185776483554903
 30
0.0000000000000051
 11
432.2018841464346792
 21
-23.1084217888325796
 31
0.0000000000000051
210
0.0
220
1.0
230
-0.0000000000000002
  0
ARC
  5
1343
  8
0
  6
CONTINUOUS
 10
-338.7018841464350771
 20
-24.1084217888323096
 30
0.0
 40
0.9999999999996537
210
0.0
220
-0.0000000000000002
230
-1.0
 50
98.172674680414886
 51
150.0000000000023874
  0
ARC
  5
1344
  8
0
  6
CONTINUOUS
 10
-429.201884146434395
 20
-24.1084217888323096
 30
0.0
 40
0.9999999999996255
210
0.0
220
-0.0000000000000002
230
-1.0
 50
29.9999999999975806
 51
81.827325319585114
  0
ARC
  5
1345
  8
0
  6
CONTINUOUS
 10
-338.7018841464347929
 20
-30.1084217888325512
 30
0.0
 40
1.000000000000032
210
0.0
220
-0.0000000000000002
230
-1.0
 50
209.9999999999988063
 51
270.0000000000032969
  0
ARC
  5
1346
  8
0
  6
CONTINUOUS
 10
-429.2018841464346792
 20
-30.1084217888325512
 30
0.0
 40
1.0000000000000311
210
0.0
220
-0.0000000000000002
230
-1.0
 50
269.9999999999968168
 51
330.00000000000108
  0
ARC
  5
1347
  8
0
  6
CONTINUOUS
 10
-337.7018841464347929
 20
-31.1084217888325796
 30
0.0
 40
1.999999999999996
210
0.0
220
-0.0000000000000002
230
-1.0
 50
270.0
 51
0.000000000000916
  0
ARC
  5
1348
  8
0
  6
CONTINUOUS
 10
-430.2018841464347929
 20
-31.1084217888325796
 30
0.0
 40
2.0
210
0.0
220
-0.0000000000000002
230
-1.0
 50
179.9999999999990905
 51
270.0
  0
LINE
  5
1349
  8
0
  6
CONTINUOUS
 10
328.9518841464346792
 20
-10.1084217888324996
 30
0.0000000000000022
 11
325.9518841464347929
 21
-7.10842178883256
 31
0.0000000000000016
210
0.0
220
1.0
230
-0.0000000000000002
  0
LINE
  5
134A
  8
0
  6
CONTINUOUS
 10
438.9518841464347929
 20
-10.1084217888324996
 30
0.0000000000000022
 11
441.9518841464347929
 21
-7.10842178883256
 31
0.0000000000000016
210
0.0
220
1.0
230
-0.0000000000000002
  0
ARC
  5
134B
  8
0
  6
VERDECKT
 62
     1
 10
-431.7018841464347929
 20
-27.1084217888325512
 30
0.0
 40
3.5
210
0.0
220
-0.0000000000000002
230
-1.0
 50
270.0
 51
89.9999999999999858
  0
ARC
  5
134C
  8
0
  6
VERDECKT
 62
     1
 10
-336.2018841464347929
 20
-27.1084217888325512
 30
0.0
 40
3.5
210
0.0
220
-0.0000000000000002
230
-1.0
 50
90.0
 51
270.0
  0
LINE
  5
134D
  8
0
  6
VERDECKT
 62
     1
 10
382.9518841464347929
 20
-8.1084217888325458
 30
0.0000000000000018
 11
384.9518841464347929
 21
-8.1084217888325458
 31
0.0000000000000018
210
0.0
220
1.0
230
-0.0000000000000002
  0
LINE
  5
134E
  8
0
  6
VERDECKT
 62
     1
 10
331.9518841464347929
 20
-8.1084217888325458
 30
0.0000000000000018
 11
333.9518841464347929
 21
-8.1084217888325458
 31
0.0000000000000018
210
0.0
220
1.0
230
-0.0000000000000002
  0
LINE
  5
134F
  8
0
  6
VERDECKT
 62
     1
 10
433.9518841464346792
 20
-8.1084217888325458
 30
0.0000000000000018
 11
435.9518841464347929
 21
-8.1084217888325458
 31
0.0000000000000018
210
0.0
220
1.0
230
-0.0000000000000002
  0
LINE
  5
1350
  8
0
  6
VERDECKT
 62
     1
 10
343.4518841464347929
 20
-18.7033766277417897
 30
0.0000000000000042
 11
424.4518841464347929
 21
-18.7033766277417897
 31
0.0000000000000042
210
0.0
220
1.0
230
-0.0000000000000002
  0
LINE
  5
1351
  8
0
  6
VERDECKT
 62
     1
 10
345.4518841464346792
 20
-13.2084217888325703
 30
0.0000000000000029
 11
422.4518841464347929
 21
-13.2084217888325703
 31
0.0000000000000029
210
0.0
220
1.0
230
-0.0000000000000002
  0
LINE
  5
1352
  8
0
  6
VERDECKT
 62
     1
 10
338.7018841464347929
 20
-12.2084217888325401
 30
0.0000000000000027
 11
429.2018841464346792
 21
-12.2084217888325401
 31
0.0000000000000027
210
0.0
220
1.0
230
-0.0000000000000002
  0
LINE
  5
1353
  8
0
  6
VERDECKT
 62
     1
 10
338.7018841464347929
 20
-8.4548319503462892
 30
0.0000000000000019
 11
429.2018841464346792
 21
-8.4548319503462892
 31
0.0000000000000019
210
0.0
220
1.0
230
-0.0000000000000002
  0
LINE
  5
1354
  8
0
  6
VERDECKT
 62
     1
 10
384.9518841464347929
 20
-8.1084217888325423
 30
0.0000000000000018
 11
429.0018841464346906
 21
-8.1084217888325458
 31
0.0000000000000018
210
0.0
220
1.0
230
-0.0000000000000002
  0
LINE
  5
1355
  8
0
  6
VERDECKT
 62
     1
 10
338.9018841464347815
 20
-8.1084217888325458
 30
0.0000000000000018
 11
382.9518841464347929
 21
-8.1084217888325423
 31
0.0000000000000018
210
0.0
220
1.0
230
-0.0000000000000002
  0
LINE
  5
1356
  8
0
  6
VERDECKT
 62
     1
 10
382.9518841464347929
 20
-8.1084217888325458
 30
0.0000000000000018
 11
381.9518841464347929
 21
-7.1084217888325876
 31
0.0000000000000016
210
0.0
220
1.0
230
-0.0000000000000002
  0
LINE
  5
1357
  8
0
  6
VERDECKT
 62
     1
 10
384.9518841464347929
 20
-8.1084217888325458
 30
0.0000000000000018
 11
385.9518841464347929
 21
-7.1084217888325876
 31
0.0000000000000016
210
0.0
220
1.0
230
-0.0000000000000002
  0
LINE
  5
1358
  8
0
  6
VERDECKT
 62
     1
 10
384.9518841464347929
 20
-8.1084217888325458
 30
0.0000000000000018
 11
384.9518841464347929
 21
-13.3283028095844198
 31
0.000000000000003
210
0.0
220
1.0
230
-0.0000000000000002
  0
LINE
  5
1359
  8
0
  6
VERDECKT
 62
     1
 10
382.9518841464347929
 20
-8.1084217888325458
 30
0.0000000000000018
 11
382.9518841464347929
 21
-13.3283028095844696
 31
0.000000000000003
210
0.0
220
1.0
230
-0.0000000000000002
  0
LINE
  5
135A
  8
0
  6
VERDECKT
 62
     1
 10
331.9518841464347929
 20
-8.1084217888325458
 30
0.0000000000000018
 11
330.9518841464349066
 21
-7.10842178883256
 31
0.0000000000000016
210
0.0
220
1.0
230
-0.0000000000000002
  0
LINE
  5
135B
  8
0
  6
VERDECKT
 62
     1
 10
333.9518841464347929
 20
-8.1084217888325458
 30
0.0000000000000018
 11
334.9518841464349066
 21
-7.1084217888325449
 31
0.0000000000000016
210
0.0
220
1.0
230
-0.0000000000000002
  0
LINE
  5
135C
  8
0
  6
VERDECKT
 62
     1
 10
333.9518841464347929
 20
-8.1084217888325458
 30
0.0000000000000018
 11
333.9518841464347929
 21
-15.0773328755870804
 31
0.0000000000000033
210
0.0
220
1.0
230
-0.0000000000000002
  0
LINE
  5
135D
  8
0
  6
VERDECKT
 62
     1
 10
331.9518841464347929
 20
-8.1084217888325458
 30
0.0000000000000018
 11
331.9518841464347929
 21
-11.7138278910062201
 31
0.0000000000000026
210
0.0
220
1.0
230
-0.0000000000000002
  0
LINE
  5
135E
  8
0
  6
VERDECKT
 62
     1
 10
433.9518841464346792
 20
-8.1084217888325458
 30
0.0000000000000018
 11
432.9518841464347929
 21
-7.1084217888325449
 31
0.0000000000000016
210
0.0
220
1.0
230
-0.0000000000000002
  0
LINE
  5
135F
  8
0
  6
VERDECKT
 62
     1
 10
435.9518841464347929
 20
-8.1084217888325458
 30
0.0000000000000018
 11
436.9518841464346792
 21
-7.1084217888325876
 31
0.0000000000000016
210
0.0
220
1.0
230
-0.0000000000000002
  0
LINE
  5
1360
  8
0
  6
VERDECKT
 62
     1
 10
435.9518841464347929
 20
-8.1084217888325458
 30
0.0000000000000018
 11
435.9518841464347929
 21
-11.7138278910061597
 31
0.0000000000000026
210
0.0
220
1.0
230
-0.0000000000000002
  0
LINE
  5
1361
  8
0
  6
VERDECKT
 62
     1
 10
433.9518841464346792
 20
-8.1084217888325458
 30
0.0000000000000018
 11
433.9518841464346792
 21
-15.0773328755870804
 31
0.0000000000000033
210
0.0
220
1.0
230
-0.0000000000000002
  0
ARC
  5
1362
  8
0
  6
VERDECKT
 62
     1
 10
-338.701884146435475
 20
-24.1084217888323806
 30
0.0
 40
0.9999999999992654
210
0.0
220
-0.0000000000000002
230
-1.0
 50
149.9999999999859881
 51
180.0000000000129887
  0
ARC
  5
1363
  8
0
  6
VERDECKT
 62
     1
 10
-429.2018841464339971
 20
-24.1084217888323806
 30
0.0
 40
0.999999999999261
210
0.0
220
-0.0000000000000002
230
-1.0
 50
359.9999999999869829
 51
30.0000000000139693
  0
LINE
  5
1364
  8
0
  6
VERDECKT
 62
     1
 10
428.2018841464346792
 20
-24.1084217888326116
 30
0.0000000000000054
 11
428.2018841464346792
 21
-30.1084217888325796
 31
0.0000000000000067
210
0.0
220
1.0
230
-0.0000000000000002
  0
LINE
  5
1365
  8
0
  6
VERDECKT
 62
     1
 10
339.7018841464347929
 20
-24.1084217888326116
 30
0.0000000000000054
 11
339.7018841464347929
 21
-30.1084217888325796
 31
0.0000000000000067
210
0.0
220
1.0
230
-0.0000000000000002
  0
ARC
  5
1366
  8
0
  6
VERDECKT
 62
     1
 10
-338.7018841464342813
 20
-30.10842178883237
 30
0.0
 40
1.000000000000568
210
0.0
220
-0.0000000000000002
230
-1.0
 50
180.0000000000121076
 51
209.9999999999932925
  0
ARC
  5
1367
  8
0
  6
VERDECKT
 62
     1
 10
-429.2018841464351908
 20
-30.10842178883237
 30
0.0
 40
1.000000000000566
210
0.0
220
-0.0000000000000002
230
-1.0
 50
330.0000000000068212
 51
359.9999999999877787
  0
LINE
  5
1368
  8
0
  6
VERDECKT
 62
     1
 10
424.4518841464347929
 20
-18.7033766277417897
 30
0.0000000000000042
 11
424.4518841464347929
 21
-33.108421788832608
 31
0.0000000000000074
210
0.0
220
1.0
230
-0.0000000000000002
  0
LINE
  5
1369
  8
0
  6
VERDECKT
 62
     1
 10
343.4518841464347929
 20
-18.7033766277417897
 30
0.0000000000000042
 11
343.4518841464347929
 21
-33.108421788832608
 31
0.0000000000000074
210
0.0
220
1.0
230
-0.0000000000000002
  0
LINE
  5
136A
  8
0
  6
VERDECKT
 62
     1
 10
422.4518841464347929
 20
-13.2084217888325792
 30
0.0000000000000029
 11
424.4518841464347929
 21
-18.7033766277418003
 31
0.0000000000000042
210
0.0
220
1.0
230
-0.0000000000000002
  0
LINE
  5
136B
  8
0
  6
VERDECKT
 62
     1
 10
345.4518841464346792
 20
-13.2084217888325792
 30
0.0000000000000029
 11
343.4518841464347929
 21
-18.7033766277418003
 31
0.0000000000000042
210
0.0
220
1.0
230
-0.0000000000000002
  0
LINE
  5
136C
  8
0
  6
VERDECKT
 62
     1
 10
422.4518841464347929
 20
-12.2084217888325401
 30
0.0000000000000027
 11
422.4518841464347929
 21
-13.2084217888325703
 31
0.0000000000000029
210
0.0
220
1.0
230
-0.0000000000000002
  0
LINE
  5
136D
  8
0
  6
VERDECKT
 62
     1
 10
345.4518841464346792
 20
-12.2084217888325401
 30
0.0000000000000027
 11
345.4518841464346792
 21
-13.2084217888325703
 31
0.0000000000000029
210
0.0
220
1.0
230
-0.0000000000000002
  0
LINE
  5
136E
  8
0
  6
VERDECKT
 62
     1
 10
429.2018841464346792
 20
-8.4548319503462892
 30
0.0000000000000019
 11
429.2018841464346792
 21
-12.2084217888325401
 31
0.0000000000000027
210
0.0
220
1.0
230
-0.0000000000000002
  0
LINE
  5
136F
  8
0
  6
VERDECKT
 62
     1
 10
338.7018841464347929
 20
-8.4548319503462892
 30
0.0000000000000019
 11
338.7018841464347929
 21
-12.2084217888325401
 31
0.0000000000000027
210
0.0
220
1.0
230
-0.0000000000000002
  0
LINE
  5
1370
  8
0
  6
VERDECKT
 62
     1
 10
429.0018841464346906
 20
-8.1084217888325583
 30
0.0000000000000018
 11
429.2018841464346792
 21
-8.4548319503463034
 31
0.0000000000000019
210
0.0
220
1.0
230
-0.0000000000000002
  0
LINE
  5
1371
  8
0
  6
VERDECKT
 62
     1
 10
338.9018841464347815
 20
-8.1084217888325583
 30
0.0000000000000018
 11
338.7018841464347929
 21
-8.4548319503463034
 31
0.0000000000000019
210
0.0
220
1.0
230
-0.0000000000000002
  0
LINE
  5
1372
  8
0
  6
VERDECKT
 62
     1
 10
429.0018841464346906
 20
-7.1084217888325449
 30
0.0000000000000016
 11
429.0018841464346906
 21
-8.1084217888325458
 31
0.0000000000000018
210
0.0
220
1.0
230
-0.0000000000000002
  0
LINE
  5
1373
  8
0
  6
VERDECKT
 62
     1
 10
338.9018841464347815
 20
-7.1084217888325449
 30
0.0000000000000016
 11
338.9018841464347815
 21
-8.1084217888325458
 31
0.0000000000000018
210
0.0
220
1.0
230
-0.0000000000000002
  0
ENDBLK
  5
1375
  8
0
  0
ENDSEC
  0
SECTION
  2
ENTITIES
  0
TEXT
  5
8F
  8
VOLL
 10
78.076754716981128
 20
31.025947764705851
 30
0.0
 40
1.8
  1

  7
GREEKS
  0
INSERT
  5
990
  8
ADSK_ASSOC_ENTITY_BACKUPS
  2
*S4
 10
0.0
 20
0.0
 30
0.0
  0
INSERT
  5
1326
  8
STEMPEL
  2
A$C76F4C268
 10
470.3259095539067971
 20
63.7975649519585772
 30
0.0
  0
INSERT
  5
1376
  8
STEMPEL
  2
A$CCD990472
 10
470.3259095539066834
 20
344.2404199622409919
 30
0.000000000000103
  0
VIEWPORT
  5
961
 67
     1
  8
0
 10
96.8361839946464755
 20
77.3197723147979445
 30
0.0
 40
1031.9829336053289808
 41
578.0760015783861263
 68
     1
 69
     1
1001
ACAD
1000
MVIEW
1002
{
1070
    16
1010
0.0
1020
0.0
1030
0.0
1010
0.0
1020
0.0
1030
1.0
1040
0.0
1040
578.0760015783861263
1040
96.8361839946464755
1040
77.3197723147979445
1040
50.0
1040
0.0
1040
0.0
1070
     0
1070
  1500
1070
     1
1070
     1
1070
     0
1070
     0
1070
     0
1070
     0
1040
0.0
1040
0.0
1040
0.0
1040
10.0
1040
10.0
1040
10.0
1040
10.0
1070
     0
1002
{
1002
}
1002
}
  0
ENDSEC
  0
EOF
