  0
SECTION
  2
HEADER
  9
$ACADVER
  1
AC1009
  9
$INSBASE
 10
0.0
 20
0.0
 30
0.0
  9
$EXTMIN
 10
-59.911997192202989
 20
-144.8419873275942962
 30
0.1739502537226727
  9
$EXTMAX
 10
59.0073123164304434
 20
148.0204125447195906
 30
0.1754761093476347
  9
$LIMMIN
 10
0.0
 20
0.0
  9
$LIMMAX
 10
210.0
 20
297.0
  9
$ORTHOMODE
 70
     0
  9
$REGENMODE
 70
     1
  9
$FILLMODE
 70
     1
  9
$QTEXTMODE
 70
     0
  9
$MIRRTEXT
 70
     1
  9
$DRAGMODE
 70
     2
  9
$LTSCALE
 40
10.0
  9
$OSMODE
 70
  2495
  9
$ATTMODE
 70
     1
  9
$TEXTSIZE
 40
3.5
  9
$TRACEWID
 40
0.5
  9
$TEXTSTYLE
  7
STANDARD
  9
$CLAYER
  8
STEMPEL
  9
$CELTYPE
  6
BYLAYER
  9
$CECOLOR
 62
   256
  9
$DIMSCALE
 40
1.0
  9
$DIMASZ
 40
3.5
  9
$DIMEXO
 40
1.0
  9
$DIMDLI
 40
7.0
  9
$DIMRND
 40
0.0
  9
$DIMDLE
 40
0.0
  9
$DIMEXE
 40
1.0
  9
$DIMTP
 40
0.0
  9
$DIMTM
 40
0.0
  9
$DIMTXT
 40
3.5
  9
$DIMCEN
 40
1.5
  9
$DIMTSZ
 40
0.0
  9
$DIMTOL
 70
     0
  9
$DIMLIM
 70
     0
  9
$DIMTIH
 70
     0
  9
$DIMTOH
 70
     0
  9
$DIMSE1
 70
     0
  9
$DIMSE2
 70
     0
  9
$DIMTAD
 70
     1
  9
$DIMZIN
 70
     8
  9
$DIMBLK
  1

  9
$DIMASO
 70
     1
  9
$DIMSHO
 70
     0
  9
$DIMPOST
  1

  9
$DIMAPOST
  1

  9
$DIMALT
 70
     0
  9
$DIMALTD
 70
     2
  9
$DIMALTF
 40
25.3999999999999986
  9
$DIMLFAC
 40
1.0
  9
$DIMTOFL
 70
     1
  9
$DIMTVP
 40
0.0
  9
$DIMTIX
 70
     0
  9
$DIMSOXD
 70
     0
  9
$DIMSAH
 70
     0
  9
$DIMBLK1
  1

  9
$DIMBLK2
  1

  9
$DIMSTYLE
  2
STANDARD
  9
$DIMCLRD
 70
     0
  9
$DIMCLRE
 70
     0
  9
$DIMCLRT
 70
     1
  9
$DIMTFAC
 40
0.5
  9
$DIMGAP
 40
1.5
  9
$LUNITS
 70
     2
  9
$LUPREC
 70
     2
  9
$SKETCHINC
 40
1.0
  9
$FILLETRAD
 40
0.0
  9
$AUNITS
 70
     0
  9
$AUPREC
 70
     0
  9
$MENU
  1
ACAD
  9
$ELEVATION
 40
0.0
  9
$PELEVATION
 40
0.0
  9
$THICKNESS
 40
0.0
  9
$LIMCHECK
 70
     0
  9
$BLIPMODE
 70
     0
  9
$CHAMFERA
 40
0.0
  9
$CHAMFERB
 40
0.0
  9
$SKPOLY
 70
     0
  9
$TDCREATE
 40
2455397.8646990740671754
  9
$TDUPDATE
 40
2458963.4230555561371148
  9
$TDINDWG
 40
0.1326966667
  9
$TDUSRTIMER
 40
0.1326966667
  9
$USRTIMER
 70
     1
  9
$ANGBASE
 50
0.0
  9
$ANGDIR
 70
     0
  9
$PDMODE
 70
     0
  9
$PDSIZE
 40
0.0
  9
$PLINEWID
 40
0.0
  9
$COORDS
 70
     1
  9
$SPLFRAME
 70
     0
  9
$SPLINETYPE
 70
     6
  9
$SPLINESEGS
 70
     8
  9
$ATTDIA
 70
     1
  9
$ATTREQ
 70
     1
  9
$HANDLING
 70
     1
  9
$HANDSEED
  5
FE1
  9
$SURFTAB1
 70
     6
  9
$SURFTAB2
 70
     6
  9
$SURFTYPE
 70
     6
  9
$SURFU
 70
     6
  9
$SURFV
 70
     6
  9
$UCSNAME
  2

  9
$UCSORG
 10
0.0
 20
0.0
 30
0.0
  9
$UCSXDIR
 10
1.0
 20
0.0
 30
0.0
  9
$UCSYDIR
 10
0.0
 20
1.0
 30
0.0
  9
$PUCSNAME
  2

  9
$PUCSORG
 10
0.0
 20
0.0
 30
0.0
  9
$PUCSXDIR
 10
1.0
 20
0.0
 30
0.0
  9
$PUCSYDIR
 10
0.0
 20
1.0
 30
0.0
  9
$USERI1
 70
     0
  9
$USERI2
 70
     0
  9
$USERI3
 70
     0
  9
$USERI4
 70
     0
  9
$USERI5
 70
     0
  9
$USERR1
 40
0.0
  9
$USERR2
 40
0.0
  9
$USERR3
 40
0.0
  9
$USERR4
 40
0.0
  9
$USERR5
 40
0.0
  9
$WORLDVIEW
 70
     1
  9
$SHADEDGE
 70
     3
  9
$SHADEDIF
 70
    70
  9
$TILEMODE
 70
     1
  9
$MAXACTVP
 70
    16
  9
$PLIMCHECK
 70
     0
  9
$PEXTMIN
 10
1.0000000000000000E+20
 20
1.0000000000000000E+20
 30
1.0000000000000000E+20
  9
$PEXTMAX
 10
-1.0000000000000000E+20
 20
-1.0000000000000000E+20
 30
-1.0000000000000000E+20
  9
$PLIMMIN
 10
269.0188882877735068
 20
-172.9906497855342877
  9
$PLIMMAX
 10
479.0188882877735068
 20
124.0093502144656981
  9
$UNITMODE
 70
     0
  9
$VISRETAIN
 70
     0
  9
$PLINEGEN
 70
     0
  9
$PSLTSCALE
 70
     0
  0
ENDSEC
  0
SECTION
  2
TABLES
  0
TABLE
  2
VPORT
 70
     1
  0
VPORT
  2
*ACTIVE
 70
     0
 10
0.0
 20
0.0
 11
1.0
 21
1.0
 12
-0.4523424378863013
 22
-42.9107873914373386
 13
0.0
 23
0.0
 14
1.0
 24
1.0
 15
10.0
 25
10.0
 16
-0.0000000000001316
 26
0.0
 36
592.5181042543523517
 17
0.0000000000000071
 27
44.5000000000000071
 37
0.1743114854952927
 40
294.9567674518536933
 41
1.7852028639618129
 42
50.0
 43
0.0
 44
0.0
 50
0.0
 51
0.0
 71
     0
 72
  1500
 73
     1
 74
     0
 75
     0
 76
     0
 77
     0
 78
     0
  0
ENDTAB
  0
TABLE
  2
LTYPE
 70
     4
  0
LTYPE
  2
CONTINUOUS
 70
     0
  3
Solid line
 72
    65
 73
     0
 40
0.0
  0
LTYPE
  2
VERDECKT
 70
     0
  3
Verdeckt __ __ __ __ __ __ __ __ __ __ __ __ __
 72
    65
 73
     2
 40
0.375
 49
0.25
 49
-0.125
  0
ENDTAB
  0
TABLE
  2
LAYER
 70
    11
  0
LAYER
  2
0
 70
     0
 62
     7
  6
CONTINUOUS
  0
LAYER
  2
VOLL
 70
     0
 62
     1
  6
CONTINUOUS
  0
LAYER
  2
STEMPEL
 70
     0
 62
     3
  6
CONTINUOUS
  0
LAYER
  2
DEFPOINTS
 70
     0
 62
     7
  6
CONTINUOUS
  0
LAYER
  2
ADSK_ASSOC_ENTITY_BACKUPS
 70
     1
 62
    -7
  6
CONTINUOUS
  0
ENDTAB
  0
TABLE
  2
STYLE
 70
     4
  0
STYLE
  2
STANDARD
 70
     0
 40
0.0
 41
0.8
 50
0.0
 71
     0
 42
3.5
  3
simplex.shx
  4

  0
STYLE
  2
GREEKS
 70
     0
 40
0.0
 41
0.8
 50
0.0
 71
     0
 42
2.5
  3
SIMPLEX.shx
  4

  0
ENDTAB
  0
TABLE
  2
VIEW
 70
     1
  0
ENDTAB
  0
TABLE
  2
UCS
 70
     0
  0
ENDTAB
  0
TABLE
  2
APPID
 70
    12
  0
APPID
  2
ACAD
 70
     0
  0
APPID
  2
ACAD_NAV_VCDISPLAY
 70
     0
  0
APPID
  2
ACAECLAYERSTANDARD
 70
     0
  0
APPID
  2
ACCMTRANSPARENCY
 70
     0
  0
APPID
  2
ACAD_PSEXT
 70
     0
  0
APPID
  2
ACAD_EXEMPT_FROM_CAD_STANDARDS
 70
     0
  0
APPID
  2
ACSYNERGY
 70
     0
  0
APPID
  2
SYNERGY_BODY_TBR_ID
 70
     0
  0
APPID
  2
ACAD_VIEW_EDGE_ID
 70
     0
  0
APPID
  2
ACAD_MLEADERVER
 70
     0
  0
APPID
  2
ACADANNOMONITORALERTICONDI
 70
     0
  0
APPID
  2
AcDbAttr
 70
     0
  0
ENDTAB
  0
TABLE
  2
DIMSTYLE
 70
     2
  0
DIMSTYLE
  2
STANDARD
 70
     0
  3

  4

  5

  6

  7

 40
1.0
 41
0.18
 42
0.0625
 43
0.38
 44
0.18
 45
0.0
 46
0.0
 47
0.0
 48
0.0
140
0.18
141
0.09
142
0.0
143
25.3999999999999986
144
1.0
145
0.0
146
1.0
147
0.09
 71
     0
 72
     0
 73
     1
 74
     1
 75
     0
 76
     0
 77
     0
 78
     0
170
     0
171
     2
172
     0
173
     0
174
     0
175
     0
176
     0
177
     0
178
     0
  0
ENDTAB
  0
ENDSEC
  0
SECTION
  2
BLOCKS
  0
BLOCK
  8
0
  2
$MODEL_SPACE
 70
     0
 10
0.0
 20
0.0
 30
0.0
  3
$MODEL_SPACE
  1

  0
ENDBLK
  5
36
  8
0
  0
BLOCK
 67
     1
  8
0
  2
$PAPER_SPACE
 70
     0
 10
0.0
 20
0.0
 30
0.0
  3
$PAPER_SPACE
  1

  0
ENDBLK
  5
34
 67
     1
  8
0
  0
BLOCK
  8
0
  2
*S0
 70
     1
 10
0.0
 20
0.0
 30
0.0
  3
*S0
  1

  0
ENDBLK
  5
40A
  8
0
  0
BLOCK
  8
0
  2
A$C4064EF3B
 70
     0
 10
0.0
 20
0.0
 30
0.0
  3
A$C4064EF3B
  1

  0
CIRCLE
  5
F55
  8
0
  6
CONTINUOUS
 10
0.0000000000000185
 20
0.0000000000000171
 30
0.0
 40
53.8941402638517104
  0
CIRCLE
  5
F56
  8
0
  6
CONTINUOUS
 10
0.0000000000000187
 20
0.0000000000000171
 30
0.0
 40
55.7067558379250229
  0
CIRCLE
  5
F57
  8
0
  6
CONTINUOUS
 10
0.0
 20
0.0000000000000081
 30
0.0
 40
48.1327239685573005
  0
CIRCLE
  5
F58
  8
0
  6
CONTINUOUS
 10
0.0000000000000069
 20
0.0000000000000139
 30
0.0
 40
49.0000000000000213
  0
CIRCLE
  5
F59
  8
0
  6
CONTINUOUS
 10
0.0000000000000159
 20
0.0000000000000164
 30
0.0
 40
59.0000000000000213
  0
CIRCLE
  5
F5A
  8
0
  6
VERDECKT
 62
     1
 10
0.0000000000000069
 20
0.0000000000000139
 30
0.0
 40
51.0000000000000071
  0
CIRCLE
  5
F5B
  8
0
  6
VERDECKT
 62
     1
 10
0.0
 20
0.0000000000000081
 30
0.0
 40
50.1251133647407912
  0
CIRCLE
  5
F5C
  8
0
  6
VERDECKT
 62
     1
 10
0.0000000000000159
 20
0.0000000000000164
 30
0.0
 40
56.9999999999999432
  0
ENDBLK
  5
F5E
  8
0
  0
BLOCK
  8
0
  2
A$C02FAC990
 70
     0
 10
0.0
 20
0.0
 30
0.0
  3
A$C02FAC990
  1

  0
LINE
  5
F62
  8
0
  6
CONTINUOUS
 10
-55.7067558379250301
 20
147.9999999999998863
 30
-0.0000000000000329
 11
55.7067558379250087
 21
147.9999999999998863
 31
-0.0000000000000329
210
0.0
220
1.0
230
-0.0000000000000002
  0
LINE
  5
F63
  8
0
  6
CONTINUOUS
 10
-50.1251133647407983
 20
0.0
 30
0.0
 11
50.1251133647407983
 21
0.0
 31
0.0
210
0.0
220
1.0
230
-0.0000000000000002
  0
LINE
  5
F64
  8
0
  6
CONTINUOUS
 10
55.7067558379250087
 20
147.9999999999998863
 30
-0.0000000000000329
 11
56.6576946759160478
 21
145.9607050809468092
 31
-0.0000000000000324
210
0.0
220
1.0
230
-0.0000000000000002
  0
LINE
  5
F65
  8
0
  6
CONTINUOUS
 10
-55.7067558379250372
 20
147.9999999999998863
 30
-0.0000000000000329
 11
-56.6576946759160904
 21
145.9607050809468092
 31
-0.0000000000000324
210
0.0
220
1.0
230
-0.0000000000000002
  0
ARC
  5
F66
  8
0
  6
CONTINUOUS
 10
33.999999999996831
 20
135.3952485374281878
 30
0.0
 40
25.0000000000032117
210
0.0
220
-0.0000000000000002
230
-1.0
 50
359.9994278397575158
 51
24.9999999999993996
  0
ARC
  5
F67
  8
0
  6
CONTINUOUS
 10
-33.9999999999968097
 20
135.3952485374281878
 30
0.0
 40
25.000000000003201
210
0.0
220
-0.0000000000000002
230
-1.0
 50
155.0000000000005969
 51
180.0005721602423989
  0
LINE
  5
F68
  8
0
  6
CONTINUOUS
 10
-58.9999093106997208
 20
117.2330000040982014
 30
-0.000000000000026
 11
-58.9999999987535233
 21
135.3949988854261903
 31
-0.0000000000000301
210
0.0
220
1.0
230
-0.0000000000000002
  0
LINE
  5
F69
  8
0
  6
CONTINUOUS
 10
58.9999093106996924
 20
117.2330000040982014
 30
-0.000000000000026
 11
58.9999999987534878
 21
135.3949988854261903
 31
-0.0000000000000301
210
0.0
220
1.0
230
-0.0000000000000002
  0
ARC
  5
F6A
  8
0
  6
CONTINUOUS
 10
34.0000000000003766
 20
117.2330000000000041
 30
0.0
 40
24.9999093106993406
210
0.0
220
-0.0000000000000002
230
-1.0
 50
320.4825271874983059
 51
0.0000000093925456
  0
ARC
  5
F6B
  8
0
  6
CONTINUOUS
 10
-34.0000000000003482
 20
117.2330000000000041
 30
0.0
 40
24.9999093106993406
210
0.0
220
-0.0000000000000002
230
-1.0
 50
179.9999999906073924
 51
219.5174728125016941
  0
ARC
  5
F6C
  8
0
  6
CONTINUOUS
 10
61.0000000000013216
 20
94.9620850713937159
 30
0.0
 40
10.0000000000013003
210
0.0
220
-0.0000000000000002
230
-1.0
 50
140.4825271874983912
 51
179.9999999999998863
  0
ARC
  5
F6D
  8
0
  6
CONTINUOUS
 10
-61.0000000000013003
 20
94.9620850713937159
 30
0.0
 40
10.0000000000013003
210
0.0
220
-0.0000000000000002
230
-1.0
 50
0.0000000000000891
 51
39.517472812501552
  0
LINE
  5
F6E
  8
0
  6
CONTINUOUS
 10
50.9999999999999929
 20
94.9620850713937301
 30
-0.0000000000000211
 11
51.0000000000000071
 21
10.1746437716342104
 31
-0.0000000000000023
210
0.0
220
1.0
230
-0.0000000000000002
  0
LINE
  5
F6F
  8
0
  6
CONTINUOUS
 10
-51.0000000000000426
 20
94.9620850713937301
 30
-0.0000000000000211
 11
-51.0000000000000213
 21
10.1746437716342104
 31
-0.0000000000000023
210
0.0
220
1.0
230
-0.0000000000000002
  0
ARC
  5
F70
  8
0
  6
CONTINUOUS
 10
46.9999999999976694
 20
10.1746437716341696
 30
0.0
 40
4.0000000000023439
210
0.0
220
-0.0000000000000002
230
-1.0
 50
355.0000000000036948
 51
0.0000000000005089
  0
ARC
  5
F71
  8
0
  6
CONTINUOUS
 10
-46.9999999999976694
 20
10.1746437716341802
 30
0.0
 40
4.0000000000023439
210
0.0
220
-0.0000000000000002
230
-1.0
 50
179.9999999999994884
 51
184.9999999999963052
  0
LINE
  5
F72
  8
0
  6
CONTINUOUS
 10
-50.1251133647407983
 20
-0.0000000000000009
 30
0.0
 11
-50.9847787923670168
 21
9.8260208006435921
 31
-0.0000000000000022
210
0.0
220
1.0
230
-0.0000000000000002
  0
LINE
  5
F73
  8
0
  6
CONTINUOUS
 10
50.1251133647407983
 20
0.0000000000000036
 30
0.0
 11
50.9847787923670168
 21
9.8260208006435974
 31
-0.0000000000000022
210
0.0
220
1.0
230
-0.0000000000000002
  0
LINE
  5
F74
  8
0
  6
VERDECKT
 62
     1
 10
-53.8941402638517388
 20
147.1547634765186103
 30
-0.0000000000000327
 11
53.8941402638517104
 21
147.1547634765186103
 31
-0.0000000000000327
210
0.0
220
1.0
230
-0.0000000000000002
  0
LINE
  5
F75
  8
0
  6
VERDECKT
 62
     1
 10
-48.1327239685573076
 20
0.1743114854953092
 30
0.0
 11
48.1327239685573076
 21
0.1743114854953092
 31
0.0
210
0.0
220
1.0
230
-0.0000000000000002
  0
ARC
  5
F76
  8
0
  6
VERDECKT
 62
     1
 10
33.9999999999987992
 20
117.2330000000003025
 30
0.0
 40
22.9999093107008399
210
0.0
220
-0.0000000000000002
230
-1.0
 50
320.4825271874987038
 51
359.9997139066941259
  0
ARC
  5
F77
  8
0
  6
VERDECKT
 62
     1
 10
-33.9999999999988205
 20
117.233000000000203
 30
0.0
 40
22.9999093107007795
210
0.0
220
-0.0000000000000002
230
-1.0
 50
180.0002860933057036
 51
219.5174728125012962
  0
LINE
  5
F78
  8
0
  6
VERDECKT
 62
     1
 10
-56.9999093104128889
 20
117.2328851552395008
 30
-0.000000000000026
 11
-56.9999999988532267
 21
135.3950188692759014
 31
-0.0000000000000301
210
0.0
220
1.0
230
-0.0000000000000002
  0
LINE
  5
F79
  8
0
  6
VERDECKT
 62
     1
 10
56.9999093104128605
 20
117.2328851552395008
 30
-0.000000000000026
 11
56.9999999988531982
 21
135.3950188692759014
 31
-0.0000000000000301
210
0.0
220
1.0
230
-0.0000000000000002
  0
ARC
  5
F7A
  8
0
  6
VERDECKT
 62
     1
 10
33.999999999996767
 20
135.3952485374283015
 30
0.0
 40
23.0000000000031903
210
0.0
220
-0.0000000000000002
230
-1.0
 50
359.9994278688773761
 51
24.9999999999988383
  0
ARC
  5
F7B
  8
0
  6
VERDECKT
 62
     1
 10
-33.9999999999967315
 20
135.3952485374283015
 30
0.0
 40
23.0000000000031903
210
0.0
220
-0.0000000000000002
230
-1.0
 50
155.0000000000011084
 51
180.0005721311225102
  0
LINE
  5
F7C
  8
0
  6
VERDECKT
 62
     1
 10
53.8941402638517104
 20
147.1547634765186103
 30
-0.0000000000000327
 11
54.8450791018427708
 21
145.1154685574653058
 31
-0.0000000000000322
210
0.0
220
1.0
230
-0.0000000000000002
  0
LINE
  5
F7D
  8
0
  6
VERDECKT
 62
     1
 10
-53.8941402638517388
 20
147.1547634765186103
 30
-0.0000000000000327
 11
-54.8450791018427992
 21
145.1154685574653058
 31
-0.0000000000000322
210
0.0
220
1.0
230
-0.0000000000000002
  0
LINE
  5
F7E
  8
0
  6
VERDECKT
 62
     1
 10
-53.8941402638517388
 20
147.1547634765186103
 30
-0.0000000000000327
 11
-55.7067558379250372
 21
147.9999999999998863
 31
-0.0000000000000329
210
0.0
220
1.0
230
-0.0000000000000002
  0
LINE
  5
F7F
  8
0
  6
VERDECKT
 62
     1
 10
53.8941402638517033
 20
147.1547634765186103
 30
-0.0000000000000327
 11
55.7067558379250087
 21
147.9999999999998863
 31
-0.0000000000000329
210
0.0
220
1.0
230
-0.0000000000000002
  0
LINE
  5
F80
  8
0
  6
VERDECKT
 62
     1
 10
48.1327239685573005
 20
0.1743114854953152
 30
0.0
 11
50.1251133647407912
 21
0.0000000000000064
 31
0.0
210
0.0
220
1.0
230
-0.0000000000000002
  0
LINE
  5
F81
  8
0
  6
VERDECKT
 62
     1
 10
-48.1327239685573076
 20
0.1743114854953061
 30
0.0
 11
-50.1251133647407983
 21
-0.0000000000000031
 31
0.0
210
0.0
220
1.0
230
-0.0000000000000002
  0
LINE
  5
F82
  8
0
  6
VERDECKT
 62
     1
 10
-48.1327239685573005
 20
0.174311485495311
 30
0.0
 11
-48.9923893961834906
 21
10.0003322861385904
 31
-0.0000000000000022
210
0.0
220
1.0
230
-0.0000000000000002
  0
LINE
  5
F83
  8
0
  6
VERDECKT
 62
     1
 10
48.1327239685573005
 20
0.1743114854953154
 30
0.0
 11
48.9923893961834906
 21
10.0003322861385904
 31
-0.0000000000000022
210
0.0
220
1.0
230
-0.0000000000000002
  0
ARC
  5
F84
  8
0
  6
VERDECKT
 62
     1
 10
47.0000000000062883
 20
10.1746437716337201
 30
0.0
 40
1.999999999993733
210
0.0
220
-0.0000000000000002
230
-1.0
 50
354.9999999999897113
 51
0.0000000000051907
  0
ARC
  5
F85
  8
0
  6
VERDECKT
 62
     1
 10
-47.0000000000062812
 20
10.1746437716337201
 30
0.0
 40
1.9999999999937399
210
0.0
220
-0.0000000000000002
230
-1.0
 50
179.9999999999947988
 51
185.0000000000102034
  0
LINE
  5
F86
  8
0
  6
VERDECKT
 62
     1
 10
48.9999999999999929
 20
94.9620850713940143
 30
-0.0000000000000211
 11
49.0000000000000071
 21
10.1746437716338907
 31
-0.0000000000000023
210
0.0
220
1.0
230
-0.0000000000000002
  0
LINE
  5
F87
  8
0
  6
VERDECKT
 62
     1
 10
-49.0000000000000284
 20
94.9620850713940143
 30
-0.0000000000000211
 11
-49.0000000000000213
 21
10.1746437716338907
 31
-0.0000000000000023
210
0.0
220
1.0
230
-0.0000000000000002
  0
ARC
  5
F88
  8
0
  6
VERDECKT
 62
     1
 10
61.0000000000002487
 20
94.9620850713939433
 30
0.0
 40
12.0000000000002203
210
0.0
220
-0.0000000000000002
230
-1.0
 50
140.4825271874989028
 51
179.9999999999996021
  0
ARC
  5
F89
  8
0
  6
VERDECKT
 62
     1
 10
-61.000000000000199
 20
94.9620850713939575
 30
0.0
 40
12.0000000000002007
210
0.0
220
-0.0000000000000002
230
-1.0
 50
0.0000000000002799
 51
39.5174728125009835
  0
ENDBLK
  5
F8B
  8
0
  0
ENDSEC
  0
SECTION
  2
ENTITIES
  0
TEXT
  5
8F
  8
VOLL
 10
78.076754716981128
 20
31.025947764705851
 30
0.0
 40
1.8
  1

  7
GREEKS
  0
INSERT
  5
40C
  8
ADSK_ASSOC_ENTITY_BACKUPS
  2
*S0
 10
0.0
 20
0.0
 30
0.0
  0
INSERT
  5
F5F
  8
STEMPEL
  2
A$C4064EF3B
 10
-0.9087144391298807
 20
-85.828504820377006
 30
0.1743114854953092
  0
INSERT
  5
F8C
  8
STEMPEL
  2
A$C02FAC990
 10
0.0000000000000159
 20
0.0000000000000244
 30
0.1743114854953092
  0
VIEWPORT
  5
3E9
 67
     1
  8
0
 10
374.0188882877735068
 20
-24.4906497855342913
 30
0.0
 40
533.9969448798291296
 41
299.1239570917758783
 68
     1
 69
     1
1001
ACAD
1000
MVIEW
1002
{
1070
    16
1010
0.0
1020
0.0
1030
0.0
1010
0.0
1020
0.0
1030
1.0
1040
0.0
1040
299.1239570917758783
1040
374.0188882877735068
1040
-24.4906497855342913
1040
50.0
1040
0.0
1040
0.0
1070
     0
1070
  1500
1070
     1
1070
     1
1070
     0
1070
     0
1070
     0
1070
     0
1040
0.0
1040
0.0
1040
0.0
1040
10.0
1040
10.0
1040
10.0
1040
10.0
1070
     0
1002
{
1002
}
1002
}
  0
TEXT
  5
4AC
 67
     1
  8
VOLL
 10
222.9956455298816991
 20
-54.4762217358897871
 30
0.0
 40
1.8
  1

  7
GREEKS
  0
TEXT
  5
B03
 67
     1
  8
VOLL
 10
347.0956430047546064
 20
-141.9647020208284118
 30
0.0
 40
1.8
  1

  7
GREEKS
  0
ENDSEC
  0
EOF
