  0
SECTION
  2
HEADER
  9
$ACADVER
  1
AC1009
  9
$INSBASE
 10
0.0
 20
0.0
 30
0.0
  9
$EXTMIN
 10
-115.0
 20
-280.0
 30
-0.0000000000000558
  9
$EXTMAX
 10
115.0
 20
250.0
 30
0.0000000000000284
  9
$LIMMIN
 10
0.0
 20
0.0
  9
$LIMMAX
 10
419.9999999999998863
 20
594.0000000000002274
  9
$ORTHOMODE
 70
     1
  9
$REGENMODE
 70
     1
  9
$FILLMODE
 70
     1
  9
$QTEXTMODE
 70
     0
  9
$MIRRTEXT
 70
     1
  9
$DRAGMODE
 70
     2
  9
$LTSCALE
 40
20.0
  9
$OSMODE
 70
   511
  9
$ATTMODE
 70
     1
  9
$TEXTSIZE
 40
3.5
  9
$TRACEWID
 40
0.5
  9
$TEXTSTYLE
  7
STANDARD
  9
$CLAYER
  8
STEMPEL
  9
$CELTYPE
  6
BYLAYER
  9
$CECOLOR
 62
   256
  9
$DIMSCALE
 40
1.0
  9
$DIMASZ
 40
3.5
  9
$DIMEXO
 40
1.0
  9
$DIMDLI
 40
0.38
  9
$DIMRND
 40
0.0
  9
$DIMDLE
 40
0.0
  9
$DIMEXE
 40
1.0
  9
$DIMTP
 40
0.0
  9
$DIMTM
 40
0.000000001
  9
$DIMTXT
 40
3.5
  9
$DIMCEN
 40
0.09
  9
$DIMTSZ
 40
0.0
  9
$DIMTOL
 70
     0
  9
$DIMLIM
 70
     0
  9
$DIMTIH
 70
     0
  9
$DIMTOH
 70
     0
  9
$DIMSE1
 70
     0
  9
$DIMSE2
 70
     0
  9
$DIMTAD
 70
     1
  9
$DIMZIN
 70
     8
  9
$DIMBLK
  1

  9
$DIMASO
 70
     1
  9
$DIMSHO
 70
     0
  9
$DIMPOST
  1

  9
$DIMAPOST
  1

  9
$DIMALT
 70
     0
  9
$DIMALTD
 70
     2
  9
$DIMALTF
 40
25.3999999999999986
  9
$DIMLFAC
 40
2.0
  9
$DIMTOFL
 70
     1
  9
$DIMTVP
 40
0.0
  9
$DIMTIX
 70
     0
  9
$DIMSOXD
 70
     0
  9
$DIMSAH
 70
     0
  9
$DIMBLK1
  1

  9
$DIMBLK2
  1

  9
$DIMSTYLE
  2
LORO
  9
$DIMCLRD
 70
     0
  9
$DIMCLRE
 70
     0
  9
$DIMCLRT
 70
     1
  9
$DIMTFAC
 40
0.5
  9
$DIMGAP
 40
1.5
  9
$LUNITS
 70
     2
  9
$LUPREC
 70
     2
  9
$SKETCHINC
 40
1.0
  9
$FILLETRAD
 40
0.0
  9
$AUNITS
 70
     0
  9
$AUPREC
 70
     0
  9
$MENU
  1
ACAD
  9
$ELEVATION
 40
0.0
  9
$PELEVATION
 40
0.0
  9
$THICKNESS
 40
0.0
  9
$LIMCHECK
 70
     0
  9
$BLIPMODE
 70
     0
  9
$CHAMFERA
 40
0.0
  9
$CHAMFERB
 40
0.0
  9
$SKPOLY
 70
     0
  9
$TDCREATE
 40
2455397.8646990740671754
  9
$TDUPDATE
 40
2459807.4146643518470228
  9
$TDINDWG
 40
0.0941563773
  9
$TDUSRTIMER
 40
0.0941563773
  9
$USRTIMER
 70
     1
  9
$ANGBASE
 50
0.0
  9
$ANGDIR
 70
     0
  9
$PDMODE
 70
     0
  9
$PDSIZE
 40
0.0
  9
$PLINEWID
 40
0.0
  9
$COORDS
 70
     1
  9
$SPLFRAME
 70
     0
  9
$SPLINETYPE
 70
     6
  9
$SPLINESEGS
 70
     8
  9
$ATTDIA
 70
     1
  9
$ATTREQ
 70
     1
  9
$HANDLING
 70
     1
  9
$HANDSEED
  5
1E11
  9
$SURFTAB1
 70
     6
  9
$SURFTAB2
 70
     6
  9
$SURFTYPE
 70
     6
  9
$SURFU
 70
     6
  9
$SURFV
 70
     6
  9
$UCSNAME
  2

  9
$UCSORG
 10
0.0
 20
0.0
 30
0.0
  9
$UCSXDIR
 10
1.0
 20
0.0
 30
0.0
  9
$UCSYDIR
 10
0.0
 20
1.0
 30
0.0
  9
$PUCSNAME
  2

  9
$PUCSORG
 10
0.0
 20
0.0
 30
0.0
  9
$PUCSXDIR
 10
1.0
 20
0.0
 30
0.0
  9
$PUCSYDIR
 10
0.0
 20
1.0
 30
0.0
  9
$USERI1
 70
     0
  9
$USERI2
 70
     0
  9
$USERI3
 70
     0
  9
$USERI4
 70
     0
  9
$USERI5
 70
     0
  9
$USERR1
 40
0.0
  9
$USERR2
 40
0.0
  9
$USERR3
 40
0.0
  9
$USERR4
 40
0.0
  9
$USERR5
 40
0.0
  9
$WORLDVIEW
 70
     1
  9
$SHADEDGE
 70
     3
  9
$SHADEDIF
 70
    70
  9
$TILEMODE
 70
     1
  9
$MAXACTVP
 70
    16
  9
$PLIMCHECK
 70
     0
  9
$PEXTMIN
 10
1.0000000000000000E+20
 20
1.0000000000000000E+20
 30
1.0000000000000000E+20
  9
$PEXTMAX
 10
-1.0000000000000000E+20
 20
-1.0000000000000000E+20
 30
-1.0000000000000000E+20
  9
$PLIMMIN
 10
-3.0092722762948361
 20
-4.2863910663744491
  9
$PLIMMAX
 10
293.9907277237052199
 20
415.713608933625494
  9
$UNITMODE
 70
     0
  9
$VISRETAIN
 70
     0
  9
$PLINEGEN
 70
     0
  9
$PSLTSCALE
 70
     0
  0
ENDSEC
  0
SECTION
  2
TABLES
  0
TABLE
  2
VPORT
 70
     1
  0
VPORT
  2
*ACTIVE
 70
     0
 10
0.0
 20
0.0
 11
1.0
 21
1.0
 12
-1.3743968976868921
 22
-12.9466472328657591
 13
0.0
 23
0.0
 14
1.0
 24
1.0
 15
10.0
 25
10.0
 16
-0.0000000000000153
 26
0.0
 36
69.2135075380785736
 17
1.3743968976869041
 27
-2.0533527671341818
 37
-0.0000000000000132
 40
532.7109974424553229
 41
1.8720136518771331
 42
50.0
 43
0.0
 44
0.0
 50
0.0
 51
0.0
 71
     0
 72
  1500
 73
     1
 74
     0
 75
     0
 76
     0
 77
     0
 78
     0
  0
ENDTAB
  0
TABLE
  2
LTYPE
 70
     4
  0
LTYPE
  2
CONTINUOUS
 70
     0
  3
Solid line
 72
    65
 73
     0
 40
0.0
  0
LTYPE
  2
STRICHPUNKT
 70
     0
  3
__ . __ . __ . __ . __ . __ . __ . __ . __ . __
 72
    65
 73
     4
 40
1.0
 49
0.5
 49
-0.25
 49
0.0
 49
-0.25
  0
LTYPE
  2
VERDECKT
 70
     0
  3
Verdeckt __ __ __ __ __ __ __ __ __ __ __ __ __
 72
    65
 73
     2
 40
0.375
 49
0.25
 49
-0.125
  0
ENDTAB
  0
TABLE
  2
LAYER
 70
     8
  0
LAYER
  2
0
 70
     0
 62
     7
  6
CONTINUOUS
  0
LAYER
  2
VOLL
 70
     0
 62
     1
  6
CONTINUOUS
  0
LAYER
  2
STEMPEL
 70
     0
 62
     3
  6
CONTINUOUS
  0
LAYER
  2
ADSK_ASSOC_ENTITY_BACKUPS
 70
     1
 62
    -7
  6
CONTINUOUS
  0
ENDTAB
  0
TABLE
  2
STYLE
 70
     3
  0
STYLE
  2
STANDARD
 70
     0
 40
0.0
 41
0.8
 50
0.0
 71
     0
 42
3.5
  3
simplex.shx
  4

  0
STYLE
  2
GREEKS
 70
     0
 40
0.0
 41
0.8
 50
0.0
 71
     0
 42
2.5
  3
SIMPLEX.shx
  4

  0
ENDTAB
  0
TABLE
  2
VIEW
 70
     0
  0
ENDTAB
  0
TABLE
  2
UCS
 70
     0
  0
ENDTAB
  0
TABLE
  2
APPID
 70
    19
  0
APPID
  2
ACAD
 70
     0
  0
APPID
  2
ACAD_NAV_VCDISPLAY
 70
     0
  0
APPID
  2
ACAD_PSEXT
 70
     0
  0
APPID
  2
ACAD_EXEMPT_FROM_CAD_STANDARDS
 70
     0
  0
APPID
  2
ACAD_MLEADERVER
 70
     0
  0
APPID
  2
ACAECLAYERSTANDARD
 70
     0
  0
APPID
  2
ACCMTRANSPARENCY
 70
     0
  0
APPID
  2
ACDBDYNAMICBLOCKGUID
 70
     0
  0
APPID
  2
ACAD_STEPID
 70
     0
  0
APPID
  2
ACAD_DSTYLE_DIMJAG
 70
     0
  0
APPID
  2
ACAD_DSTYLE_DIMTALN
 70
     0
  0
APPID
  2
ACAD_DSTYLE_DIMBREAK
 70
     0
  0
APPID
  2
ACSYNERGY
 70
     0
  0
APPID
  2
SYNERGY_BODY_TBR_ID
 70
     0
  0
APPID
  2
ACAD_VIEW_EDGE_ID
 70
     0
  0
APPID
  2
ACSYNERGYSKETCH
 70
     0
  0
APPID
  2
ACAD_MODELDOC_XFORM
 70
     0
  0
APPID
  2
ACADANNOMONITORALERTICONDI
 70
     0
  0
APPID
  2
ACADANNOPO
 70
     0
  0
ENDTAB
  0
TABLE
  2
DIMSTYLE
 70
     1
  0
DIMSTYLE
  2
LORO
 70
     0
  3

  4

  5

  6

  7

 40
1.0
 41
3.5
 42
1.0
 43
0.38
 44
1.0
 45
0.0
 46
0.0
 47
0.0
 48
0.000000001
140
3.5
141
0.09
142
0.0
143
25.3999999999999986
144
2.0
145
0.0
146
0.5
147
1.5
 71
     0
 72
     0
 73
     0
 74
     0
 75
     0
 76
     0
 77
     1
 78
     8
170
     0
171
     2
172
     1
173
     0
174
     0
175
     0
176
     0
177
     0
178
     1
  0
ENDTAB
  0
ENDSEC
  0
SECTION
  2
BLOCKS
  0
BLOCK
  8
0
  2
$MODEL_SPACE
 70
     0
 10
0.0
 20
0.0
 30
0.0
  3
$MODEL_SPACE
  1

  0
ENDBLK
  5
36
  8
0
  0
BLOCK
 67
     1
  8
0
  2
$PAPER_SPACE
 70
     0
 10
0.0
 20
0.0
 30
0.0
  3
$PAPER_SPACE
  1

  0
ENDBLK
  5
34
 67
     1
  8
0
  0
BLOCK
  8
0
  2
*S0
 70
     1
 10
0.0
 20
0.0
 30
0.0
  3
*S0
  1

  0
ENDBLK
  5
13C0
  8
0
  0
BLOCK
  8
0
  2
A$C5B02FABA
 70
     0
 10
0.0
 20
0.0
 30
0.0
  3
A$C5B02FABA
  1

  0
CIRCLE
  5
1CD7
  8
0
  6
CONTINUOUS
 62
     3
 10
0.0000000000000383
 20
-90.0000000000000568
 30
0.0
 40
3.0000000000000422
  0
CIRCLE
  5
1CD8
  8
0
  6
CONTINUOUS
 62
     3
 10
-89.9999999999999432
 20
-0.0000000000000442
 30
-0.0000000000000284
 40
3.0000000000000422
  0
CIRCLE
  5
1CD9
  8
0
  6
CONTINUOUS
 62
     3
 10
0.0000000000000604
 20
89.9999999999999432
 30
0.0
 40
3.0000000000000422
  0
CIRCLE
  5
1CDA
  8
0
  6
CONTINUOUS
 62
     3
 10
90.0000000000000568
 20
-0.0000000000000552
 30
0.0000000000000284
 40
3.0000000000000422
  0
CIRCLE
  5
1CDB
  8
0
  6
CONTINUOUS
 62
     3
 10
0.0000000000000492
 20
-0.0000000000000568
 30
0.0
 40
40.5
  0
CIRCLE
  5
1CDC
  8
0
  6
CONTINUOUS
 62
     3
 10
0.0000000000000547
 20
-0.0000000000000552
 30
0.0
 40
115.0
  0
CIRCLE
  5
1CDD
  8
0
  6
CONTINUOUS
 62
     3
 10
0.0000000000000531
 20
-0.0000000000000557
 30
0.0
 40
51.5
  0
CIRCLE
  5
1CDE
  8
0
  6
CONTINUOUS
 62
     3
 10
-0.0000000000004547
 20
-0.0000000000000568
 30
0.0
 40
24.5682646352329392
  0
CIRCLE
  5
1CDF
  8
0
  6
CONTINUOUS
 62
     3
 10
0.0000000000000312
 20
-0.0000000000000347
 30
0.0
 40
25.0
  0
CIRCLE
  5
1CE0
  8
0
  6
CONTINUOUS
 62
     3
 10
0.0000000000000335
 20
-0.000000000000034
 30
0.0
 40
28.4999313884541188
  0
CIRCLE
  5
1CE1
  8
0
  6
CONTINUOUS
 62
     3
 10
0.0000000000000478
 20
-0.0000000000000301
 30
0.0
 40
39.0
  0
CIRCLE
  5
1CE2
  8
0
  6
CONTINUOUS
 62
     3
 10
0.0000000000000488
 20
-0.0000000000000298
 30
0.0
 40
39.5
  0
CIRCLE
  5
1CE3
  8
0
  6
CONTINUOUS
 62
     3
 10
0.0000000000000335
 20
-0.000000000000034
 30
0.0
 40
28.5
  0
CIRCLE
  5
1CE4
  8
0
  6
VERDECKT
 62
     1
 10
0.0000000000000232
 20
-0.0000000000000568
 30
0.0
 40
42.3412676881316585
  0
CIRCLE
  5
1CE5
  8
0
  6
VERDECKT
 62
     1
 10
0.0000000000000197
 20
-0.0000000000000568
 30
0.0
 40
42.8999999999996291
  0
CIRCLE
  5
1CE6
  8
0
  6
VERDECKT
 62
     1
 10
0.000000000000478
 20
-0.0000000000000659
 30
0.0
 40
41.852941176471262
  0
CIRCLE
  5
1CE7
  8
0
  6
VERDECKT
 62
     1
 10
0.000000000000267
 20
-0.0000000000000613
 30
0.0
 40
47.5000000000002274
  0
CIRCLE
  5
1CE8
  8
0
  6
VERDECKT
 62
     1
 10
0.0000000000001666
 20
-0.0000000000000577
 30
0.0
 40
53.4999999999998792
  0
CIRCLE
  5
1CE9
  8
0
  6
VERDECKT
 62
     1
 10
0.0000000000000552
 20
-0.0000000000000571
 30
0.0
 40
64.9999999999997726
  0
CIRCLE
  5
1CEA
  8
0
  6
VERDECKT
 62
     1
 10
0.0000000000000552
 20
-0.0000000000000571
 30
0.0
 40
74.9999999999995453
  0
CIRCLE
  5
1CEB
  8
0
  6
VERDECKT
 62
     1
 10
0.0000000000000381
 20
-90.0000000000000568
 30
0.0
 40
4.0606601717798263
  0
CIRCLE
  5
1CEC
  8
0
  6
VERDECKT
 62
     1
 10
-89.9999999999999432
 20
-0.0000000000000442
 30
-0.0000000000000284
 40
4.0606601717798263
  0
CIRCLE
  5
1CED
  8
0
  6
VERDECKT
 62
     1
 10
0.0000000000000601
 20
89.9999999999999432
 30
0.0
 40
4.0606601717798263
  0
CIRCLE
  5
1CEE
  8
0
  6
VERDECKT
 62
     1
 10
90.0000000000000568
 20
-0.0000000000000553
 30
0.0000000000000284
 40
4.0606601717798263
  0
CIRCLE
  5
1CEF
  8
0
  6
VERDECKT
 62
     1
 10
0.0000000000000544
 20
-0.0000000000000553
 30
0.0
 40
114.3660726073889009
  0
CIRCLE
  5
1CF0
  8
0
  6
VERDECKT
 62
     1
 10
0.0000000000000518
 20
-0.000000000000056
 30
0.0
 40
52.0432604829181713
  0
CIRCLE
  5
1CF1
  8
0
  6
VERDECKT
 62
     1
 10
0.0000000000000531
 20
-0.0000000000000557
 30
0.0
 40
53.0
  0
CIRCLE
  5
1CF2
  8
0
  6
VERDECKT
 62
     1
 10
0.0000000000000518
 20
-0.000000000000056
 30
0.0
 40
53.5432604829181784
  0
CIRCLE
  5
1CF3
  8
0
  6
VERDECKT
 62
     1
 10
-0.0000000000004547
 20
-0.0000000000000568
 30
0.0
 40
26.0625566823705412
  0
CIRCLE
  5
1CF4
  8
0
  6
VERDECKT
 62
     1
 10
0.0000000000000335
 20
-0.000000000000034
 30
0.0
 40
30.1375513255491114
  0
CIRCLE
  5
1CF5
  8
0
  6
VERDECKT
 62
     1
 10
0.0000000000000312
 20
-0.0000000000000347
 30
0.0
 40
26.5
  0
CIRCLE
  5
1CF6
  8
0
  6
VERDECKT
 62
     1
 10
0.0000000000000488
 20
-0.0000000000000298
 30
0.0
 40
41.0
  0
CIRCLE
  5
1CF7
  8
0
  6
VERDECKT
 62
     1
 10
0.0000000000000335
 20
-0.000000000000034
 30
0.0
 40
30.2890290662815005
  0
CIRCLE
  5
1CF8
  8
0
  6
VERDECKT
 62
     1
 10
0.0000000000004744
 20
-0.0000000000000725
 30
0.0
 40
33.9641016151377997
  0
CIRCLE
  5
1CF9
  8
0
  6
VERDECKT
 62
     1
 10
0.0000000000004744
 20
-0.0000000000000725
 30
0.0
 40
38.5
  0
CIRCLE
  5
1CFA
  8
0
  6
VERDECKT
 62
     1
 10
0.0000000000004744
 20
-0.0000000000000725
 30
0.0
 40
44.5
  0
CIRCLE
  5
1CFB
  8
0
  6
VERDECKT
 62
     1
 10
0.0000000000004744
 20
-0.0000000000000725
 30
0.0
 40
42.9000000000000767
  0
CIRCLE
  5
1CFC
  8
0
  6
VERDECKT
 62
     1
 10
0.000000000000478
 20
-0.0000000000000715
 30
0.0
 40
42.3412676881321204
  0
CIRCLE
  5
1CFD
  8
0
  6
VERDECKT
 62
     1
 10
0.000000000000478
 20
-0.0000000000000715
 30
0.0
 40
37.5
  0
CIRCLE
  5
1CFE
  8
0
  6
VERDECKT
 62
     1
 10
0.000000000000478
 20
-0.0000000000000715
 30
0.0
 40
31.5
  0
CIRCLE
  5
1CFF
  8
0
  6
VERDECKT
 62
     1
 10
0.0000000000004757
 20
-0.0000000000000721
 30
0.0
 40
30.5
  0
ENDBLK
  5
1D01
  8
0
  0
BLOCK
  8
0
  2
A$C0553D977
 70
     0
 10
0.0
 20
0.0
 30
0.0
  3
A$C0553D977
  1

  0
LINE
  5
1D05
  8
0
  6
CONTINUOUS
 62
     3
 10
-62.1816463358970779
 20
88.4999999999997868
 30
-0.0000000000000197
 11
62.1816463358979874
 21
88.5000000000000142
 31
-0.0000000000000197
210
0.0
220
1.0
230
-0.0000000000000002
  0
LINE
  5
1D06
  8
0
  6
CONTINUOUS
 62
     3
 10
-65.1758040713457234
 20
91.3128651415341466
 30
-0.0000000000000203
 11
-74.7812499999995453
 21
245.0
 31
-0.0000000000000544
210
0.0
220
1.0
230
-0.0000000000000002
  0
LINE
  5
1D07
  8
0
  6
CONTINUOUS
 62
     3
 10
65.1758040713466187
 20
91.3128651415344734
 30
-0.0000000000000203
 11
74.7812499999996021
 21
245.0000000000001137
 31
-0.0000000000000544
210
0.0
220
1.0
230
-0.0000000000000002
  0
ARC
  5
1D08
  8
0
  6
CONTINUOUS
 62
     3
 10
62.1816463358970921
 20
91.49999999999973
 30
0.0
 40
3.0
210
0.0
220
-0.0000000000000002
230
-1.0
 50
270.0
 51
356.4236656250020019
  0
ARC
  5
1D09
  8
0
  6
CONTINUOUS
 62
     3
 10
-62.1816463358980016
 20
91.5000000000000711
 30
0.0
 40
2.999999999999996
210
0.0
220
-0.0000000000000002
230
-1.0
 50
183.5763343749981118
 51
270.0000000000002274
  0
LINE
  5
1D0A
  8
0
  6
CONTINUOUS
 62
     3
 10
-106.527756391641006
 20
250.0
 30
-0.0000000000000555
 11
106.527756391641006
 21
250.0
 31
-0.0000000000000555
210
0.0
220
1.0
230
-0.0000000000000002
  0
LINE
  5
1D0B
  8
0
  6
CONTINUOUS
 62
     3
 10
-115.0
 20
246.3594616805550004
 30
-0.0000000000000547
 11
115.0
 21
246.3594616805550004
 31
-0.0000000000000547
210
0.0
220
1.0
230
-0.0000000000000002
  0
LINE
  5
1D0C
  8
0
  6
CONTINUOUS
 62
     3
 10
-114.3660726073889009
 20
245.0000000000001137
 30
-0.0000000000000544
 11
114.3660726073889009
 21
245.0000000000001137
 31
-0.0000000000000544
210
0.0
220
1.0
230
-0.0000000000000002
  0
ARC
  5
1D0D
  8
0
  6
CONTINUOUS
 62
     3
 10
106.527756391641006
 20
247.0000000000001137
 30
0.0
 40
2.9999999999999432
210
0.0
220
-0.0000000000000002
230
-1.0
 50
64.9999999999994884
 51
89.99999999999973
  0
ARC
  5
1D0E
  8
0
  6
CONTINUOUS
 62
     3
 10
-106.527756391641006
 20
247.0
 30
0.0
 40
3.0000000000000271
210
0.0
220
-0.0000000000000002
230
-1.0
 50
90.0000000000005542
 51
115.0000000000002984
  0
LINE
  5
1D0F
  8
0
  6
CONTINUOUS
 62
     3
 10
107.7956111768632042
 20
249.7189233611100008
 30
-0.0000000000000554
 11
115.0
 21
246.3594616805550004
 31
-0.0000000000000547
210
0.0
220
1.0
230
-0.0000000000000002
  0
LINE
  5
1D10
  8
0
  6
CONTINUOUS
 62
     3
 10
-107.7956111768632042
 20
249.7189233611100008
 30
-0.0000000000000554
 11
-115.0
 21
246.3594616805550004
 31
-0.0000000000000547
210
0.0
220
1.0
230
-0.0000000000000002
  0
LINE
  5
1D11
  8
0
  6
CONTINUOUS
 62
     3
 10
-114.3660726073889009
 20
245.0000000000001137
 30
-0.0000000000000544
 11
-115.0
 21
246.3594616805550004
 31
-0.0000000000000547
210
0.0
220
1.0
230
-0.0000000000000002
  0
LINE
  5
1D12
  8
0
  6
CONTINUOUS
 62
     3
 10
114.3660726073889009
 20
245.0000000000001137
 30
-0.0000000000000544
 11
115.0
 21
246.3594616805550004
 31
-0.0000000000000547
210
0.0
220
1.0
230
-0.0000000000000002
  0
LINE
  5
1D13
  8
0
  6
CONTINUOUS
 62
     3
 10
26.06255668237009
 20
0.0
 30
0.0
 11
-26.0625566823709995
 21
0.0
 31
0.0
210
0.0
220
1.0
230
-0.0000000000000002
  0
ARC
  5
1D14
  8
0
  6
CONTINUOUS
 62
     3
 10
-25.5000000000013394
 20
5.0436609429058379
 30
0.0
 40
0.9999999999986606
210
0.0
220
-0.0000000000000002
230
-1.0
 50
179.999999999997101
 51
185.0000000000034106
  0
ARC
  5
1D15
  8
0
  6
CONTINUOUS
 62
     3
 10
25.5000000000000213
 20
5.0436609429058779
 30
0.0
 40
0.9999999999999857
210
0.0
220
-0.0000000000000002
230
-1.0
 50
355.0000000000022169
 51
0.0000000000005598
  0
LINE
  5
1D16
  8
0
  6
CONTINUOUS
 62
     3
 10
-26.0625566823712198
 20
-0.00000000000002
 30
0.0
 11
-26.4961946980922001
 21
4.9565052001582188
 31
-0.0000000000000011
210
0.0
220
1.0
230
-0.0000000000000002
  0
LINE
  5
1D17
  8
0
  6
CONTINUOUS
 62
     3
 10
26.0625566823703103
 20
-0.00000000000002
 30
0.0
 11
26.4961946980913012
 21
4.9565052001582757
 31
-0.0000000000000011
210
0.0
220
1.0
230
-0.0000000000000002
  0
LINE
  5
1D18
  8
0
  6
CONTINUOUS
 62
     3
 10
-26.5
 20
5.0436609429058876
 30
-0.0000000000000011
 11
-26.5
 21
86.4999999999995453
 31
-0.0000000000000192
210
0.0
220
1.0
230
-0.0000000000000002
  0
LINE
  5
1D19
  8
0
  6
CONTINUOUS
 62
     3
 10
26.5
 20
5.0436609429058876
 30
-0.0000000000000011
 11
26.5
 21
86.4999999999995453
 31
-0.0000000000000192
210
0.0
220
1.0
230
-0.0000000000000002
  0
LINE
  5
1D1A
  8
0
  6
CONTINUOUS
 62
     3
 10
44.5000000000004476
 20
86.4999999999995453
 30
-0.0000000000000192
 11
-44.4999999999995381
 21
86.4999999999995453
 31
-0.0000000000000192
210
0.0
220
1.0
230
-0.0000000000000002
  0
LINE
  5
1D1B
  8
0
  6
CONTINUOUS
 62
     3
 10
-44.4999999999995381
 20
86.4999999999995453
 30
-0.0000000000000192
 11
-44.4999999999995381
 21
88.4999999999995737
 31
-0.0000000000000197
210
0.0
220
1.0
230
-0.0000000000000002
  0
LINE
  5
1D1C
  8
0
  6
CONTINUOUS
 62
     3
 10
44.5000000000004476
 20
86.4999999999995453
 30
-0.0000000000000192
 11
44.5000000000004476
 21
88.4999999999995737
 31
-0.0000000000000197
210
0.0
220
1.0
230
-0.0000000000000002
  0
LINE
  5
1D1D
  8
0
  6
VERDECKT
 62
     1
 10
-42.3412676881316585
 20
104.4999999999995026
 30
-0.0000000000000232
 11
42.3412676881316585
 21
104.4999999999995026
 31
-0.0000000000000232
210
0.0
220
1.0
230
-0.0000000000000002
  0
LINE
  5
1D1E
  8
0
  6
VERDECKT
 62
     1
 10
-47.4999999999995381
 20
112.4999999999977973
 30
-0.000000000000025
 11
47.5000000000004476
 21
112.4999999999979963
 31
-0.000000000000025
210
0.0
220
1.0
230
-0.0000000000000002
  0
LINE
  5
1D1F
  8
0
  6
VERDECKT
 62
     1
 10
-47.5
 20
178.4999999999996874
 30
-0.0000000000000396
 11
47.5000000000004476
 21
178.4999999999998863
 31
-0.0000000000000396
210
0.0
220
1.0
230
-0.0000000000000002
  0
LINE
  5
1D20
  8
0
  6
VERDECKT
 62
     1
 10
-53.4999999999997584
 20
184.4999999999996021
 30
-0.000000000000041
 11
53.5000000000002203
 21
184.499999999999801
 31
-0.000000000000041
210
0.0
220
1.0
230
-0.0000000000000002
  0
LINE
  5
1D21
  8
0
  6
VERDECKT
 62
     1
 10
-53.4999999999997726
 20
238.499999999999801
 30
-0.000000000000053
 11
53.5
 21
238.5000000000001137
 31
-0.000000000000053
210
0.0
220
1.0
230
-0.0000000000000002
  0
LINE
  5
1D22
  8
0
  6
VERDECKT
 62
     1
 10
42.3412676881316585
 20
104.4999999999995026
 30
-0.0000000000000232
 11
42.899999999999622
 21
88.4999999999996732
 31
-0.0000000000000197
210
0.0
220
1.0
230
-0.0000000000000002
  0
LINE
  5
1D23
  8
0
  6
VERDECKT
 62
     1
 10
-42.3412676881316585
 20
104.4999999999995026
 30
-0.0000000000000232
 11
-42.8999999999996291
 21
88.4999999999995737
 31
-0.0000000000000197
210
0.0
220
1.0
230
-0.0000000000000002
  0
LINE
  5
1D24
  8
0
  6
VERDECKT
 62
     1
 10
-41.852941176470857
 20
104.4999999999996021
 30
-0.0000000000000232
 11
-47.4999999999995595
 21
112.4999999999977973
 31
-0.000000000000025
210
0.0
220
1.0
230
-0.0000000000000002
  0
LINE
  5
1D25
  8
0
  6
VERDECKT
 62
     1
 10
41.8529411764717167
 20
104.499999999999801
 30
-0.0000000000000232
 11
47.5000000000004192
 21
112.4999999999979963
 31
-0.000000000000025
210
0.0
220
1.0
230
-0.0000000000000002
  0
LINE
  5
1D26
  8
0
  6
VERDECKT
 62
     1
 10
47.5000000000003695
 20
178.4999999999998863
 30
-0.0000000000000396
 11
47.50000000000054
 21
112.4999999999979963
 31
-0.000000000000025
210
0.0
220
1.0
230
-0.0000000000000002
  0
LINE
  5
1D27
  8
0
  6
VERDECKT
 62
     1
 10
-47.4999999999998508
 20
178.4999999999996874
 30
-0.0000000000000396
 11
-47.4999999999996803
 21
112.4999999999977973
 31
-0.000000000000025
210
0.0
220
1.0
230
-0.0000000000000002
  0
LINE
  5
1D28
  8
0
  6
VERDECKT
 62
     1
 10
-47.5000000000000213
 20
178.4999999999996021
 30
-0.0000000000000396
 11
-53.499999999999801
 21
184.4999999999994884
 31
-0.000000000000041
210
0.0
220
1.0
230
-0.0000000000000002
  0
LINE
  5
1D29
  8
0
  6
VERDECKT
 62
     1
 10
47.500000000000469
 20
178.4999999999998863
 30
-0.0000000000000396
 11
53.5000000000002629
 21
184.499999999999801
 31
-0.000000000000041
210
0.0
220
1.0
230
-0.0000000000000002
  0
LINE
  5
1D2A
  8
0
  6
VERDECKT
 62
     1
 10
53.4999999999999289
 20
238.5000000000001137
 30
-0.000000000000053
 11
53.5000000000000711
 21
184.499999999999801
 31
-0.000000000000041
210
0.0
220
1.0
230
-0.0000000000000002
  0
LINE
  5
1D2B
  8
0
  6
VERDECKT
 62
     1
 10
-53.4999999999998366
 20
238.499999999999801
 30
-0.000000000000053
 11
-53.4999999999997016
 21
184.4999999999994884
 31
-0.000000000000041
210
0.0
220
1.0
230
-0.0000000000000002
  0
LINE
  5
1D2C
  8
0
  6
VERDECKT
 62
     1
 10
-53.4999999999997726
 20
238.499999999999801
 30
-0.000000000000053
 11
-64.9999999999997726
 21
248.499999999999801
 31
-0.0000000000000552
210
0.0
220
1.0
230
-0.0000000000000002
  0
LINE
  5
1D2D
  8
0
  6
VERDECKT
 62
     1
 10
53.4999999999998792
 20
238.500000000000199
 30
-0.000000000000053
 11
64.9999999999997442
 21
248.500000000000199
 31
-0.0000000000000552
210
0.0
220
1.0
230
-0.0000000000000002
  0
LINE
  5
1D2E
  8
0
  6
VERDECKT
 62
     1
 10
-74.7812499999995453
 20
245.0
 30
-0.0000000000000544
 11
-74.9999999999995453
 21
248.499999999999801
 31
-0.0000000000000552
210
0.0
220
1.0
230
-0.0000000000000002
  0
LINE
  5
1D2F
  8
0
  6
VERDECKT
 62
     1
 10
74.7812499999996021
 20
245.0000000000001137
 30
-0.0000000000000544
 11
74.9999999999995879
 21
248.500000000000199
 31
-0.0000000000000552
210
0.0
220
1.0
230
-0.0000000000000002
  0
LINE
  5
1D30
  8
0
  6
VERDECKT
 62
     1
 10
-4.0606601717798378
 20
246.0
 30
-0.0000000000000546
 11
-0.0000000000000169
 21
246.0
 31
-0.0000000000000546
210
0.0
220
1.0
230
-0.0000000000000002
  0
LINE
  5
1D31
  8
0
  6
VERDECKT
 62
     1
 10
-0.0000000000000163
 20
246.0
 30
-0.0000000000000546
 11
4.0606601717798094
 21
246.0
 31
-0.0000000000000546
210
0.0
220
1.0
230
-0.0000000000000002
  0
LINE
  5
1D32
  8
0
  6
VERDECKT
 62
     1
 10
-3.0000000000000582
 20
247.0606601717798867
 30
-0.0000000000000549
 11
-0.0000000000000169
 21
247.0606601717798867
 31
-0.0000000000000549
210
0.0
220
1.0
230
-0.0000000000000002
  0
LINE
  5
1D33
  8
0
  6
VERDECKT
 62
     1
 10
-0.000000000000016
 20
247.0606601717798867
 30
-0.0000000000000549
 11
3.0000000000000249
 21
247.0606601717798867
 31
-0.0000000000000549
210
0.0
220
1.0
230
-0.0000000000000002
  0
LINE
  5
1D34
  8
0
  6
VERDECKT
 62
     1
 10
-94.0606601717798156
 20
246.0
 30
-0.0000000000000546
 11
-85.9393398282201701
 21
246.0
 31
-0.0000000000000546
210
0.0
220
1.0
230
-0.0000000000000002
  0
LINE
  5
1D35
  8
0
  6
VERDECKT
 62
     1
 10
-93.0000000000000426
 20
247.0606601717798867
 30
-0.0000000000000549
 11
-86.9999999999999432
 21
247.0606601717798867
 31
-0.0000000000000549
210
0.0
220
1.0
230
-0.0000000000000002
  0
LINE
  5
1D36
  8
0
  6
VERDECKT
 62
     1
 10
85.9393398282201701
 20
246.0
 30
-0.0000000000000546
 11
94.0606601717798156
 21
246.0
 31
-0.0000000000000546
210
0.0
220
1.0
230
-0.0000000000000002
  0
LINE
  5
1D37
  8
0
  6
VERDECKT
 62
     1
 10
86.9999999999999432
 20
247.0606601717798867
 30
-0.0000000000000549
 11
93.0000000000000426
 21
247.0606601717798867
 31
-0.0000000000000549
210
0.0
220
1.0
230
-0.0000000000000002
  0
LINE
  5
1D38
  8
0
  6
VERDECKT
 62
     1
 10
-44.9240392719524522
 20
220.0000000000001137
 30
-0.0000000000000488
 11
44.9240392719524735
 21
220.0000000000001137
 31
-0.0000000000000488
210
0.0
220
1.0
230
-0.0000000000000002
  0
LINE
  5
1D39
  8
0
  6
VERDECKT
 62
     1
 10
-44.9240392719524522
 20
221.5000000000001137
 30
-0.0000000000000492
 11
44.9240392719524735
 21
221.5000000000001137
 31
-0.0000000000000492
210
0.0
220
1.0
230
-0.0000000000000002
  0
LINE
  5
1D3A
  8
0
  6
VERDECKT
 62
     1
 10
-106.5277563916411054
 20
248.5000000000001137
 30
-0.0000000000000552
 11
106.5277563916411054
 21
248.5000000000001137
 31
-0.0000000000000552
210
0.0
220
1.0
230
-0.0000000000000002
  0
ARC
  5
1D3B
  8
0
  6
VERDECKT
 62
     1
 10
7.1819805153394762
 20
247.0
 30
0.0
 40
1.5
210
0.0
220
-0.0000000000000002
230
-1.0
 50
89.9999999999999432
 51
134.9999999999994031
  0
ARC
  5
1D3C
  8
0
  6
VERDECKT
 62
     1
 10
-7.1819805153394398
 20
247.0000000000001137
 30
0.0
 40
1.499999999999974
210
0.0
220
-0.0000000000000002
230
-1.0
 50
44.9999999999999076
 51
90.0000000000001137
  0
LINE
  5
1D3D
  8
0
  6
VERDECKT
 62
     1
 10
-4.0606601717798396
 20
246.0
 30
-0.0000000000000546
 11
-6.1213203435596606
 21
248.0606601717798867
 31
-0.0000000000000551
210
0.0
220
1.0
230
-0.0000000000000002
  0
LINE
  5
1D3E
  8
0
  6
VERDECKT
 62
     1
 10
4.0606601717798059
 20
246.0
 30
-0.0000000000000546
 11
6.1213203435596268
 21
248.0606601717798867
 31
-0.0000000000000551
210
0.0
220
1.0
230
-0.0000000000000002
  0
LINE
  5
1D3F
  8
0
  6
VERDECKT
 62
     1
 10
3.0000000000000249
 20
247.0606601717798867
 30
-0.0000000000000549
 11
4.0606601717798192
 21
246.0
 31
-0.0000000000000546
210
0.0
220
1.0
230
-0.0000000000000002
  0
LINE
  5
1D40
  8
0
  6
VERDECKT
 62
     1
 10
-3.0000000000000582
 20
247.0606601717798867
 30
-0.0000000000000549
 11
-4.0606601717798521
 21
246.0
 31
-0.0000000000000546
210
0.0
220
1.0
230
-0.0000000000000002
  0
LINE
  5
1D41
  8
0
  6
VERDECKT
 62
     1
 10
-3.0000000000000742
 20
247.0606601717798867
 30
-0.0000000000000549
 11
-5.0606601717799231
 21
249.1213203435596881
 31
-0.0000000000000553
210
0.0
220
1.0
230
-0.0000000000000002
  0
LINE
  5
1D42
  8
0
  6
VERDECKT
 62
     1
 10
3.00000000000004
 20
247.0606601717798867
 30
-0.0000000000000549
 11
5.0606601717798902
 21
249.1213203435596881
 31
-0.0000000000000553
210
0.0
220
1.0
230
-0.0000000000000002
  0
ARC
  5
1D43
  8
0
  6
VERDECKT
 62
     1
 10
7.1819805153395473
 20
247.0000000000001137
 30
0.0
 40
3.0
210
0.0
220
-0.0000000000000002
230
-1.0
 50
89.9999999999999858
 51
134.9999999999994884
  0
ARC
  5
1D44
  8
0
  6
VERDECKT
 62
     1
 10
-7.1819805153395118
 20
247.0000000000001137
 30
0.0
 40
2.9999999999999991
210
0.0
220
-0.0000000000000002
230
-1.0
 50
45.0000000000004832
 51
90.0000000000000568
  0
ARC
  5
1D45
  8
0
  6
VERDECKT
 62
     1
 10
97.1819805153394611
 20
247.0000000000001137
 30
0.0
 40
1.4999999999999141
210
0.0
220
-0.0000000000000002
230
-1.0
 50
89.99999999999946
 51
135.0000000000011084
  0
ARC
  5
1D46
  8
0
  6
VERDECKT
 62
     1
 10
82.8180194846605531
 20
247.0000000000001137
 30
0.0
 40
1.499999999999921
210
0.0
220
-0.0000000000000002
230
-1.0
 50
44.9999999999988631
 51
90.0000000000005542
  0
LINE
  5
1D47
  8
0
  6
VERDECKT
 62
     1
 10
-94.0606601717798156
 20
246.0
 30
-0.0000000000000546
 11
-96.1213203435596455
 21
248.0606601717798867
 31
-0.0000000000000551
210
0.0
220
1.0
230
-0.0000000000000002
  0
LINE
  5
1D48
  8
0
  6
VERDECKT
 62
     1
 10
-85.9393398282201701
 20
246.0
 30
-0.0000000000000546
 11
-83.8786796564403545
 21
248.0606601717798867
 31
-0.0000000000000551
210
0.0
220
1.0
230
-0.0000000000000002
  0
LINE
  5
1D49
  8
0
  6
VERDECKT
 62
     1
 10
-86.9999999999999289
 20
247.0606601717798014
 30
-0.0000000000000549
 11
-85.9393398282201701
 21
246.0
 31
-0.0000000000000546
210
0.0
220
1.0
230
-0.0000000000000002
  0
LINE
  5
1D4A
  8
0
  6
VERDECKT
 62
     1
 10
-93.0000000000000426
 20
247.0606601717798867
 30
-0.0000000000000549
 11
-94.0606601717798156
 21
246.0
 31
-0.0000000000000546
210
0.0
220
1.0
230
-0.0000000000000002
  0
LINE
  5
1D4B
  8
0
  6
VERDECKT
 62
     1
 10
-93.0000000000000426
 20
247.0606601717798867
 30
-0.0000000000000549
 11
-95.0606601717798867
 21
249.1213203435596881
 31
-0.0000000000000553
210
0.0
220
1.0
230
-0.0000000000000002
  0
LINE
  5
1D4C
  8
0
  6
VERDECKT
 62
     1
 10
-86.9999999999999289
 20
247.0606601717798867
 30
-0.0000000000000549
 11
-84.9393398282201133
 21
249.1213203435596029
 31
-0.0000000000000553
210
0.0
220
1.0
230
-0.0000000000000002
  0
ARC
  5
1D4D
  8
0
  6
VERDECKT
 62
     1
 10
97.1819805153395038
 20
247.000000000000199
 30
0.0
 40
2.9999999999998859
210
0.0
220
-0.0000000000000002
230
-1.0
 50
89.99999999999946
 51
135.0000000000013074
  0
ARC
  5
1D4E
  8
0
  6
VERDECKT
 62
     1
 10
82.8180194846604536
 20
247.0
 30
0.0
 40
3.0000000000000839
210
0.0
220
-0.0000000000000002
230
-1.0
 50
45.0000000000011511
 51
89.9999999999994458
  0
ARC
  5
1D4F
  8
0
  6
VERDECKT
 62
     1
 10
-82.8180194846605531
 20
247.0000000000001137
 30
0.0
 40
1.4999999999999141
210
0.0
220
-0.0000000000000002
230
-1.0
 50
89.99999999999946
 51
135.0000000000011084
  0
ARC
  5
1D50
  8
0
  6
VERDECKT
 62
     1
 10
-97.1819805153394611
 20
247.0000000000001137
 30
0.0
 40
1.499999999999921
210
0.0
220
-0.0000000000000002
230
-1.0
 50
44.9999999999988631
 51
90.0000000000005542
  0
LINE
  5
1D51
  8
0
  6
VERDECKT
 62
     1
 10
85.9393398282201701
 20
246.0
 30
-0.0000000000000546
 11
83.8786796564403545
 21
248.0606601717798867
 31
-0.0000000000000551
210
0.0
220
1.0
230
-0.0000000000000002
  0
LINE
  5
1D52
  8
0
  6
VERDECKT
 62
     1
 10
94.0606601717798156
 20
246.0
 30
-0.0000000000000546
 11
96.1213203435596455
 21
248.0606601717798867
 31
-0.0000000000000551
210
0.0
220
1.0
230
-0.0000000000000002
  0
LINE
  5
1D53
  8
0
  6
VERDECKT
 62
     1
 10
93.0000000000000426
 20
247.0606601717798867
 30
-0.0000000000000549
 11
94.0606601717798156
 21
246.0
 31
-0.0000000000000546
210
0.0
220
1.0
230
-0.0000000000000002
  0
LINE
  5
1D54
  8
0
  6
VERDECKT
 62
     1
 10
86.9999999999999289
 20
247.0606601717798014
 30
-0.0000000000000549
 11
85.9393398282201701
 21
246.0
 31
-0.0000000000000546
210
0.0
220
1.0
230
-0.0000000000000002
  0
LINE
  5
1D55
  8
0
  6
VERDECKT
 62
     1
 10
86.9999999999999289
 20
247.0606601717798867
 30
-0.0000000000000549
 11
84.9393398282201133
 21
249.1213203435596029
 31
-0.0000000000000553
210
0.0
220
1.0
230
-0.0000000000000002
  0
LINE
  5
1D56
  8
0
  6
VERDECKT
 62
     1
 10
93.0000000000000426
 20
247.0606601717798867
 30
-0.0000000000000549
 11
95.0606601717798867
 21
249.1213203435596881
 31
-0.0000000000000553
210
0.0
220
1.0
230
-0.0000000000000002
  0
ARC
  5
1D57
  8
0
  6
VERDECKT
 62
     1
 10
-82.8180194846604536
 20
247.0
 30
0.0
 40
3.0000000000000848
210
0.0
220
-0.0000000000000002
230
-1.0
 50
90.0000000000005542
 51
134.9999999999988063
  0
ARC
  5
1D58
  8
0
  6
VERDECKT
 62
     1
 10
-97.1819805153395038
 20
247.000000000000199
 30
0.0
 40
2.999999999999893
210
0.0
220
-0.0000000000000002
230
-1.0
 50
44.9999999999986429
 51
90.0000000000005542
  0
LINE
  5
1D59
  8
0
  6
VERDECKT
 62
     1
 10
40.5
 20
221.5000000000001137
 30
-0.0000000000000492
 11
40.5
 21
220.0000000000001137
 31
-0.0000000000000488
210
0.0
220
1.0
230
-0.0000000000000002
  0
LINE
  5
1D5A
  8
0
  6
VERDECKT
 62
     1
 10
-40.5
 20
221.5000000000001137
 30
-0.0000000000000492
 11
-40.5
 21
220.0000000000001137
 31
-0.0000000000000488
210
0.0
220
1.0
230
-0.0000000000000002
  0
ARC
  5
1D5B
  8
0
  6
VERDECKT
 62
     1
 10
44.9240392719524806
 20
227.5
 30
0.0
 40
5.9999999999999707
210
0.0
220
-0.0000000000000002
230
-1.0
 50
270.0
 51
338.442403688189188
  0
ARC
  5
1D5C
  8
0
  6
VERDECKT
 62
     1
 10
-44.9240392719524735
 20
227.5000000000001137
 30
0.0
 40
5.9999999999999956
210
0.0
220
-0.0000000000000002
230
-1.0
 50
201.5575963118114089
 51
270.0
  0
ARC
  5
1D5D
  8
0
  6
VERDECKT
 62
     1
 10
30.0432604829184413
 20
233.3789814280899861
 30
0.0
 40
21.9999999999997407
210
0.0
220
-0.0000000000000002
230
-1.0
 50
338.4424036881882785
 51
11.2049919799216209
  0
ARC
  5
1D5E
  8
0
  6
VERDECKT
 62
     1
 10
-30.0432604829183383
 20
233.3789814280899861
 30
0.0
 40
21.9999999999998401
210
0.0
220
-0.0000000000000002
230
-1.0
 50
168.7950080200785123
 51
201.5575963118116078
  0
ARC
  5
1D5F
  8
0
  6
VERDECKT
 62
     1
 10
57.9999999999999929
 20
238.9170962313453117
 30
0.0
 40
6.499999999999992
210
0.0
220
-0.0000000000000002
230
-1.0
 50
120.0
 51
191.2049919799214024
  0
ARC
  5
1D60
  8
0
  6
VERDECKT
 62
     1
 10
-57.9999999999999929
 20
238.9170962313453117
 30
0.0
 40
6.4999999999999867
210
0.0
220
-0.0000000000000002
230
-1.0
 50
348.795008020078626
 51
59.9999999999999929
  0
LINE
  5
1D61
  8
0
  6
VERDECKT
 62
     1
 10
-54.7499999999999929
 20
244.5462613559440967
 30
-0.0000000000000543
 11
-63.4999999999999929
 21
249.5980762113534013
 31
-0.0000000000000554
210
0.0
220
1.0
230
-0.0000000000000002
  0
LINE
  5
1D62
  8
0
  6
VERDECKT
 62
     1
 10
54.7499999999999929
 20
244.5462613559440967
 30
-0.0000000000000543
 11
63.4999999999999929
 21
249.5980762113534013
 31
-0.0000000000000554
210
0.0
220
1.0
230
-0.0000000000000002
  0
ARC
  5
1D63
  8
0
  6
VERDECKT
 62
     1
 10
65.0000000000000426
 20
246.9999999999998863
 30
0.0
 40
3.0000000000001421
210
0.0
220
-0.0000000000000002
230
-1.0
 50
90.00000000000081
 51
119.9999999999993037
  0
ARC
  5
1D64
  8
0
  6
VERDECKT
 62
     1
 10
-65.0000000000000426
 20
246.9999999999998863
 30
0.0
 40
3.000000000000143
210
0.0
220
-0.0000000000000002
230
-1.0
 50
60.0000000000006466
 51
89.9999999999992042
  0
LINE
  5
1D65
  8
0
  6
VERDECKT
 62
     1
 10
107.1616837842521051
 20
248.3594616805550004
 30
-0.0000000000000551
 11
114.3660726073889009
 21
245.0000000000001137
 31
-0.0000000000000544
210
0.0
220
1.0
230
-0.0000000000000002
  0
LINE
  5
1D66
  8
0
  6
VERDECKT
 62
     1
 10
-107.1616837842521051
 20
248.3594616805550004
 30
-0.0000000000000551
 11
-114.3660726073889009
 21
245.0000000000001137
 31
-0.0000000000000544
210
0.0
220
1.0
230
-0.0000000000000002
  0
ARC
  5
1D67
  8
0
  6
VERDECKT
 62
     1
 10
106.5277563916411054
 20
247.0000000000001137
 30
0.0
 40
1.499999999999942
210
0.0
220
-0.0000000000000002
230
-1.0
 50
64.9999999999992752
 51
89.9999999999994742
  0
ARC
  5
1D68
  8
0
  6
VERDECKT
 62
     1
 10
-106.5277563916411054
 20
247.0000000000001137
 30
0.0
 40
1.4999999999999709
210
0.0
220
-0.0000000000000002
230
-1.0
 50
90.0000000000005542
 51
115.0000000000006963
  0
ARC
  5
1D69
  8
0
  6
VERDECKT
 62
     1
 10
64.9999999999999432
 20
247.0000000000001137
 30
0.0
 40
1.4999999999999709
210
0.0
220
-0.0000000000000002
230
-1.0
 50
89.9999999999989342
 51
119.9999999999980957
  0
ARC
  5
1D6A
  8
0
  6
VERDECKT
 62
     1
 10
-64.9999999999999005
 20
247.0000000000003979
 30
0.0
 40
1.4999999999996301
210
0.0
220
-0.0000000000000002
230
-1.0
 50
59.9999999999962412
 51
90.0000000000027285
  0
LINE
  5
1D6B
  8
0
  6
VERDECKT
 62
     1
 10
-55.4999999999999929
 20
243.2472232502674956
 30
-0.000000000000054
 11
-64.25
 21
248.2990381056766864
 31
-0.0000000000000551
210
0.0
220
1.0
230
-0.0000000000000002
  0
LINE
  5
1D6C
  8
0
  6
VERDECKT
 62
     1
 10
55.4999999999999929
 20
243.2472232502674956
 30
-0.000000000000054
 11
64.25
 21
248.2990381056766864
 31
-0.0000000000000551
210
0.0
220
1.0
230
-0.0000000000000002
  0
ARC
  5
1D6D
  8
0
  6
VERDECKT
 62
     1
 10
58.0000000000000071
 20
238.9170962313453117
 30
0.0
 40
5.0000000000000018
210
0.0
220
-0.0000000000000002
230
-1.0
 50
120.000000000000199
 51
191.2049919799212034
  0
ARC
  5
1D6E
  8
0
  6
VERDECKT
 62
     1
 10
-58.0000000000000071
 20
238.9170962313453117
 30
0.0
 40
5.0000000000000124
210
0.0
220
-0.0000000000000002
230
-1.0
 50
348.7950080200786829
 51
59.9999999999997513
  0
ARC
  5
1D6F
  8
0
  6
VERDECKT
 62
     1
 10
30.0432604829181713
 20
233.3789814280900998
 30
0.0
 40
23.5000000000000213
210
0.0
220
-0.0000000000000002
230
-1.0
 50
338.4424036881883922
 51
11.2049919799213598
  0
ARC
  5
1D70
  8
0
  6
VERDECKT
 62
     1
 10
-30.0432604829181713
 20
233.3789814280900998
 30
0.0
 40
23.5
210
0.0
220
-0.0000000000000002
230
-1.0
 50
168.7950080200785976
 51
201.5575963118116078
  0
ARC
  5
1D71
  8
0
  6
VERDECKT
 62
     1
 10
44.9240392719524735
 20
227.5000000000001137
 30
0.0
 40
7.5
210
0.0
220
-0.0000000000000002
230
-1.0
 50
270.0
 51
338.4424036881883922
  0
ARC
  5
1D72
  8
0
  6
VERDECKT
 62
     1
 10
-44.9240392719524735
 20
227.5000000000001137
 30
0.0
 40
7.5000000000000044
210
0.0
220
-0.0000000000000002
230
-1.0
 50
201.5575963118116078
 51
270.0
  0
LINE
  5
1D73
  8
0
  6
VERDECKT
 62
     1
 10
26.5000000000004583
 20
130.0
 30
-0.0000000000000289
 11
-26.4999999999995488
 21
130.0
 31
-0.0000000000000289
210
0.0
220
1.0
230
-0.0000000000000002
  0
LINE
  5
1D74
  8
0
  6
VERDECKT
 62
     1
 10
24.5682646352324809
 20
0.1307336141214535
 30
0.0
 11
-24.5682646352333904
 21
0.1307336141214535
 31
0.0
210
0.0
220
1.0
230
-0.0000000000000002
  0
LINE
  5
1D75
  8
0
  6
VERDECKT
 62
     1
 10
-26.5
 20
86.4999999999995453
 30
-0.0000000000000192
 11
-26.5
 21
130.0
 31
-0.0000000000000289
210
0.0
220
1.0
230
-0.0000000000000002
  0
LINE
  5
1D76
  8
0
  6
VERDECKT
 62
     1
 10
26.5
 20
86.4999999999995453
 30
-0.0000000000000192
 11
26.5
 21
130.0
 31
-0.0000000000000289
210
0.0
220
1.0
230
-0.0000000000000002
  0
ARC
  5
1D77
  8
0
  6
VERDECKT
 62
     1
 10
-24.0000000000013394
 20
5.1091523572708368
 30
0.0
 40
0.9999999999986606
210
0.0
220
-0.0000000000000002
230
-1.0
 50
179.999999999997101
 51
185.0000000000034106
  0
ARC
  5
1D78
  8
0
  6
VERDECKT
 62
     1
 10
24.0000000000000213
 20
5.1091523572708768
 30
0.0
 40
0.9999999999999857
210
0.0
220
-0.0000000000000002
230
-1.0
 50
355.0000000000022169
 51
0.0000000000005598
  0
LINE
  5
1D79
  8
0
  6
VERDECKT
 62
     1
 10
-24.5682646352333904
 20
0.1307336141214535
 30
0.0
 11
-24.9961946980922001
 21
5.0219966145232178
 31
-0.0000000000000011
210
0.0
220
1.0
230
-0.0000000000000002
  0
LINE
  5
1D7A
  8
0
  6
VERDECKT
 62
     1
 10
24.5682646352324809
 20
0.1307336141214535
 30
0.0
 11
24.9961946980912906
 21
5.0219966145232746
 31
-0.0000000000000011
210
0.0
220
1.0
230
-0.0000000000000002
  0
LINE
  5
1D7B
  8
0
  6
VERDECKT
 62
     1
 10
-25.0
 20
5.1091523572708866
 30
-0.0000000000000011
 11
-25.0
 21
130.0
 31
-0.0000000000000289
210
0.0
220
1.0
230
-0.0000000000000002
  0
LINE
  5
1D7C
  8
0
  6
VERDECKT
 62
     1
 10
25.0
 20
5.1091523572708866
 30
-0.0000000000000011
 11
25.0
 21
130.0
 31
-0.0000000000000289
210
0.0
220
1.0
230
-0.0000000000000002
  0
LINE
  5
1D7D
  8
0
  6
VERDECKT
 62
     1
 10
24.5682646352324809
 20
0.1307336141214676
 30
0.0
 11
26.06255668237009
 21
0.0000000000000141
 31
0.0
210
0.0
220
1.0
230
-0.0000000000000002
  0
LINE
  5
1D7E
  8
0
  6
VERDECKT
 62
     1
 10
-24.5682646352333904
 20
0.1307336141214676
 30
0.0
 11
-26.0625566823709995
 21
0.0000000000000141
 31
0.0
210
0.0
220
1.0
230
-0.0000000000000002
  0
LINE
  5
1D7F
  8
0
  6
VERDECKT
 62
     1
 10
-30.1375513255491114
 20
151.0008377447614123
 30
-0.0000000000000335
 11
30.1375513255491114
 21
151.0008377447614123
 31
-0.0000000000000335
210
0.0
220
1.0
230
-0.0000000000000002
  0
LINE
  5
1D80
  8
0
  6
VERDECKT
 62
     1
 10
-26.5000000000001101
 20
130.0
 30
-0.0000000000000289
 11
26.5000000000001101
 21
130.0
 31
-0.0000000000000289
210
0.0
220
1.0
230
-0.0000000000000002
  0
LINE
  5
1D81
  8
0
  6
VERDECKT
 62
     1
 10
25.0
 20
140.3998947914703024
 30
-0.0000000000000312
 11
25.0
 21
130.0
 31
-0.0000000000000289
210
0.0
220
1.0
230
-0.0000000000000002
  0
LINE
  5
1D82
  8
0
  6
VERDECKT
 62
     1
 10
-25.0
 20
140.3998947914703024
 30
-0.0000000000000312
 11
-25.0
 21
130.0
 31
-0.0000000000000289
210
0.0
220
1.0
230
-0.0000000000000002
  0
ARC
  5
1D83
  8
0
  6
VERDECKT
 62
     1
 10
38.5292614036995715
 20
140.1646133743363123
 30
0.0
 40
13.5313070867113101
210
0.0
220
-0.0000000000000002
230
-1.0
 50
156.3722149488552873
 51
179.0036948023600019
  0
ARC
  5
1D84
  8
0
  6
VERDECKT
 62
     1
 10
-38.5292614036996568
 20
140.1646133743363123
 30
0.0
 40
13.5313070867114007
210
0.0
220
-0.0000000000000002
230
-1.0
 50
0.9963051976400844
 51
23.6277850511446808
  0
LINE
  5
1D85
  8
0
  6
VERDECKT
 62
     1
 10
-26.132304407580019
 20
145.5878715012601958
 30
-0.0000000000000323
 11
-28.4999313884541188
 21
151.0
 31
-0.0000000000000335
210
0.0
220
1.0
230
-0.0000000000000002
  0
LINE
  5
1D86
  8
0
  6
VERDECKT
 62
     1
 10
26.132304407580019
 20
145.5878715012601958
 30
-0.0000000000000323
 11
28.4999313884541188
 21
151.0
 31
-0.0000000000000335
210
0.0
220
1.0
230
-0.0000000000000002
  0
LINE
  5
1D87
  8
0
  6
VERDECKT
 62
     1
 10
-28.4999313884541188
 20
151.0
 30
-0.0000000000000335
 11
-30.1375513255491114
 21
151.0008377447614123
 31
-0.0000000000000335
210
0.0
220
1.0
230
-0.0000000000000002
  0
LINE
  5
1D88
  8
0
  6
VERDECKT
 62
     1
 10
28.4999313884541188
 20
151.0
 30
-0.0000000000000335
 11
30.1375513255491114
 21
151.0008377447614123
 31
-0.0000000000000335
210
0.0
220
1.0
230
-0.0000000000000002
  0
LINE
  5
1D89
  8
0
  6
VERDECKT
 62
     1
 10
-27.5065571220454714
 20
144.986681450790087
 30
-0.0000000000000322
 11
-30.1375513255491008
 21
151.0008377447614123
 31
-0.0000000000000335
210
0.0
220
1.0
230
-0.0000000000000002
  0
LINE
  5
1D8A
  8
0
  6
VERDECKT
 62
     1
 10
27.5065571220454714
 20
144.986681450790087
 30
-0.0000000000000322
 11
30.1375513255491008
 21
151.0008377447614123
 31
-0.0000000000000335
210
0.0
220
1.0
230
-0.0000000000000002
  0
ARC
  5
1D8B
  8
0
  6
VERDECKT
 62
     1
 10
37.4540574573835627
 20
140.3998947914708992
 30
0.0
 40
10.9540574573835503
210
0.0
220
-0.0000000000000002
230
-1.0
 50
155.2456005037886086
 51
180.000000000002899
  0
ARC
  5
1D8C
  8
0
  6
VERDECKT
 62
     1
 10
-37.4540574573834135
 20
140.3998947914708992
 30
0.0
 40
10.9540574573833993
210
0.0
220
-0.0000000000000002
230
-1.0
 50
359.9999999999968736
 51
24.7543994962115796
  0
LINE
  5
1D8D
  8
0
  6
VERDECKT
 62
     1
 10
26.5000000000001101
 20
140.3998947914703024
 30
-0.0000000000000312
 11
26.5000000000001101
 21
130.0
 31
-0.0000000000000289
210
0.0
220
1.0
230
-0.0000000000000002
  0
LINE
  5
1D8E
  8
0
  6
VERDECKT
 62
     1
 10
-26.5000000000001101
 20
140.3998947914703024
 30
-0.0000000000000312
 11
-26.5000000000001101
 21
130.0
 31
-0.0000000000000289
210
0.0
220
1.0
230
-0.0000000000000002
  0
LINE
  5
1D8F
  8
0
  6
VERDECKT
 62
     1
 10
-30.2890290662815005
 20
151.0
 30
-0.0000000000000335
 11
30.2890290662815005
 21
151.0
 31
-0.0000000000000335
210
0.0
220
1.0
230
-0.0000000000000002
  0
ARC
  5
1D90
  8
0
  6
VERDECKT
 62
     1
 10
47.5999999999997385
 20
215.4645833646326025
 30
0.0
 40
8.5999999999997385
210
0.0
220
-0.0000000000000002
230
-1.0
 50
172.8749836510980913
 51
179.999999999999801
  0
ARC
  5
1D91
  8
0
  6
VERDECKT
 62
     1
 10
-47.5999999999997314
 20
215.4645833646326025
 30
0.0
 40
8.5999999999997314
210
0.0
220
-0.0000000000000002
230
-1.0
 50
0.0000000000001908
 51
7.1250163489019149
  0
LINE
  5
1D92
  8
0
  6
VERDECKT
 62
     1
 10
39.0
 20
215.4645833646326025
 30
-0.0000000000000478
 11
39.0
 21
175.8044115262063087
 31
-0.000000000000039
210
0.0
220
1.0
230
-0.0000000000000002
  0
LINE
  5
1D93
  8
0
  6
VERDECKT
 62
     1
 10
-39.0
 20
215.4645833646326025
 30
-0.0000000000000478
 11
-39.0
 21
175.8044115262063087
 31
-0.000000000000039
210
0.0
220
1.0
230
-0.0000000000000002
  0
LINE
  5
1D94
  8
0
  6
VERDECKT
 62
     1
 10
-39.0664102602624581
 20
216.5312820820996933
 30
-0.0000000000000481
 11
-39.5
 21
220.000000000000199
 31
-0.0000000000000488
210
0.0
220
1.0
230
-0.0000000000000002
  0
LINE
  5
1D95
  8
0
  6
VERDECKT
 62
     1
 10
39.0664102602624581
 20
216.5312820820996933
 30
-0.0000000000000481
 11
39.5
 21
220.000000000000199
 31
-0.0000000000000488
210
0.0
220
1.0
230
-0.0000000000000002
  0
ARC
  5
1D96
  8
0
  6
VERDECKT
 62
     1
 10
47.5000000000013216
 20
215.5641957619100992
 30
0.0
 40
7.0000000000013198
210
0.0
220
-0.0000000000000002
230
-1.0
 50
172.8749836510990008
 51
179.9999999999994884
  0
ARC
  5
1D97
  8
0
  6
VERDECKT
 62
     1
 10
-47.5000000000013216
 20
215.5641957619100992
 30
0.0
 40
7.0000000000013207
210
0.0
220
-0.0000000000000002
230
-1.0
 50
0.0000000000004707
 51
7.1250163489010108
  0
LINE
  5
1D98
  8
0
  6
VERDECKT
 62
     1
 10
-40.5540548630043176
 20
216.4324389040347114
 30
-0.0000000000000481
 11
-41.0
 21
220.0000000000001137
 31
-0.0000000000000488
210
0.0
220
1.0
230
-0.0000000000000002
  0
LINE
  5
1D99
  8
0
  6
VERDECKT
 62
     1
 10
40.5540548630043176
 20
216.4324389040347114
 30
-0.0000000000000481
 11
41.0
 21
220.0000000000001137
 31
-0.0000000000000488
210
0.0
220
1.0
230
-0.0000000000000002
  0
LINE
  5
1D9A
  8
0
  6
VERDECKT
 62
     1
 10
40.4999999999999929
 20
215.5641957619102129
 30
-0.0000000000000479
 11
40.4999999999999929
 21
175.8044115262063087
 31
-0.000000000000039
210
0.0
220
1.0
230
-0.0000000000000002
  0
LINE
  5
1D9B
  8
0
  6
VERDECKT
 62
     1
 10
-40.4999999999999929
 20
215.5641957619102129
 30
-0.0000000000000479
 11
-40.4999999999999929
 21
175.8044115262063087
 31
-0.000000000000039
210
0.0
220
1.0
230
-0.0000000000000002
  0
LINE
  5
1D9C
  8
0
  6
VERDECKT
 62
     1
 10
-28.4999999999999893
 20
151.0
 30
-0.0000000000000335
 11
-34.0854717445674709
 21
159.5930334531807944
 31
-0.0000000000000354
210
0.0
220
1.0
230
-0.0000000000000002
  0
LINE
  5
1D9D
  8
0
  6
VERDECKT
 62
     1
 10
28.4999999999999893
 20
151.0
 30
-0.0000000000000335
 11
34.0854717445674709
 21
159.5930334531807944
 31
-0.0000000000000354
210
0.0
220
1.0
230
-0.0000000000000002
  0
ARC
  5
1D9E
  8
0
  6
VERDECKT
 62
     1
 10
24.0241483489627683
 20
166.1328936603241004
 30
0.0
 40
11.9999999999966604
210
0.0
220
-0.0000000000000002
230
-1.0
 50
326.9761324442022783
 51
342.8972710309503782
  0
ARC
  5
1D9F
  8
0
  6
VERDECKT
 62
     1
 10
-24.0241483489627612
 20
166.1328936603241004
 30
0.0
 40
11.9999999999966693
210
0.0
220
-0.0000000000000002
230
-1.0
 50
197.1027289690495934
 51
213.0238675557976933
  0
LINE
  5
1DA0
  8
0
  6
VERDECKT
 62
     1
 10
-35.4934964536231092
 20
162.6038634742754141
 30
-0.0000000000000361
 11
-38.4693481046633181
 21
172.2753813401560876
 31
-0.0000000000000383
210
0.0
220
1.0
230
-0.0000000000000002
  0
LINE
  5
1DA1
  8
0
  6
VERDECKT
 62
     1
 10
35.4934964536231092
 20
162.6038634742754141
 30
-0.0000000000000361
 11
38.4693481046633181
 21
172.2753813401560876
 31
-0.0000000000000383
210
0.0
220
1.0
230
-0.0000000000000002
  0
ARC
  5
1DA2
  8
0
  6
VERDECKT
 62
     1
 10
26.9999999999982414
 20
175.8044115262067066
 30
0.0
 40
12.0000000000017604
210
0.0
220
-0.0000000000000002
230
-1.0
 50
342.8972710309483887
 51
359.9999999999981242
  0
ARC
  5
1DA3
  8
0
  6
VERDECKT
 62
     1
 10
-26.9999999999982414
 20
175.8044115262067066
 30
0.0
 40
12.0000000000017604
210
0.0
220
-0.0000000000000002
230
-1.0
 50
180.0000000000017906
 51
197.1027289690516113
  0
ARC
  5
1DA4
  8
0
  6
VERDECKT
 62
     1
 10
26.9999999999983089
 20
175.8044115262069056
 30
0.0
 40
13.5000000000016893
210
0.0
220
-0.0000000000000002
230
-1.0
 50
342.8972710309466265
 51
359.9999999999973284
  0
ARC
  5
1DA5
  8
0
  6
VERDECKT
 62
     1
 10
-26.9999999999983089
 20
175.8044115262069056
 30
0.0
 40
13.5000000000016893
210
0.0
220
-0.0000000000000002
230
-1.0
 50
180.0000000000025011
 51
197.1027289690534019
  0
LINE
  5
1DA6
  8
0
  6
VERDECKT
 62
     1
 10
-36.9271649667058384
 20
162.1627347010191045
 30
-0.000000000000036
 11
-39.9030166177461822
 21
171.8342525668996075
 31
-0.0000000000000382
210
0.0
220
1.0
230
-0.0000000000000002
  0
LINE
  5
1DA7
  8
0
  6
VERDECKT
 62
     1
 10
36.9271649667058384
 20
162.1627347010191045
 30
-0.000000000000036
 11
39.9030166177461822
 21
171.8342525668996075
 31
-0.0000000000000382
210
0.0
220
1.0
230
-0.0000000000000002
  0
ARC
  5
1DA8
  8
0
  6
VERDECKT
 62
     1
 10
24.0241483489690317
 20
166.1328936603204909
 30
0.0
 40
13.49999999998942
210
0.0
220
-0.0000000000000002
230
-1.0
 50
326.9761324442005161
 51
342.8972710309564036
  0
ARC
  5
1DA9
  8
0
  6
VERDECKT
 62
     1
 10
-24.0241483489693515
 20
166.1328936603204056
 30
0.0
 40
13.4999999999890701
210
0.0
220
-0.0000000000000002
230
-1.0
 50
197.1027289690431985
 51
213.0238675557995975
  0
LINE
  5
1DAA
  8
0
  6
VERDECKT
 62
     1
 10
-30.2890290662815396
 20
151.0
 30
-0.0000000000000335
 11
-35.3431371690184477
 21
158.7755509272876111
 31
-0.0000000000000353
210
0.0
220
1.0
230
-0.0000000000000002
  0
LINE
  5
1DAB
  8
0
  6
VERDECKT
 62
     1
 10
30.2890290662815396
 20
151.0
 30
-0.0000000000000335
 11
35.3431371690184477
 21
158.7755509272876111
 31
-0.0000000000000353
210
0.0
220
1.0
230
-0.0000000000000002
  0
LINE
  5
1DAC
  8
0
  6
VERDECKT
 62
     1
 10
42.341267688132568
 20
104.4999999999995026
 30
-0.0000000000000232
 11
-42.3412676881316585
 21
104.4999999999995026
 31
-0.0000000000000232
210
0.0
220
1.0
230
-0.0000000000000002
  0
LINE
  5
1DAD
  8
0
  6
VERDECKT
 62
     1
 10
30.5000000000004583
 20
94.4999999999995595
 30
-0.000000000000021
 11
-30.4999999999995417
 21
94.4999999999995595
 31
-0.000000000000021
210
0.0
220
1.0
230
-0.0000000000000002
  0
LINE
  5
1DAE
  8
0
  6
VERDECKT
 62
     1
 10
-38.4999999999995524
 20
86.4999999999995453
 30
-0.0000000000000192
 11
-38.4999999999995524
 21
88.4999999999995737
 31
-0.0000000000000197
210
0.0
220
1.0
230
-0.0000000000000002
  0
LINE
  5
1DAF
  8
0
  6
VERDECKT
 62
     1
 10
38.5000000000004619
 20
86.4999999999995453
 30
-0.0000000000000192
 11
38.5000000000004619
 21
88.4999999999995737
 31
-0.0000000000000197
210
0.0
220
1.0
230
-0.0000000000000002
  0
LINE
  5
1DB0
  8
0
  6
VERDECKT
 62
     1
 10
42.341267688132568
 20
104.4999999999995026
 30
-0.0000000000000232
 11
42.9000000000005528
 21
88.4999999999995737
 31
-0.0000000000000197
210
0.0
220
1.0
230
-0.0000000000000002
  0
LINE
  5
1DB1
  8
0
  6
VERDECKT
 62
     1
 10
-42.3412676881316585
 20
104.4999999999995026
 30
-0.0000000000000232
 11
-42.8999999999996291
 21
88.4999999999995737
 31
-0.0000000000000197
210
0.0
220
1.0
230
-0.0000000000000002
  0
LINE
  5
1DB2
  8
0
  6
VERDECKT
 62
     1
 10
-37.4999999999995524
 20
100.4999999999995026
 30
-0.0000000000000223
 11
-37.4999999999995524
 21
104.4999999999995026
 31
-0.0000000000000232
210
0.0
220
1.0
230
-0.0000000000000002
  0
LINE
  5
1DB3
  8
0
  6
VERDECKT
 62
     1
 10
37.5000000000004619
 20
100.4999999999995026
 30
-0.0000000000000223
 11
37.5000000000004619
 21
104.4999999999995026
 31
-0.0000000000000232
210
0.0
220
1.0
230
-0.0000000000000002
  0
ARC
  5
1DB4
  8
0
  6
VERDECKT
 62
     1
 10
-34.5000000000004619
 20
100.4999999999995026
 30
0.0
 40
2.999999999999992
210
0.0
220
-0.0000000000000002
230
-1.0
 50
179.9999999999996874
 51
270.0000000000001137
  0
ARC
  5
1DB5
  8
0
  6
VERDECKT
 62
     1
 10
-34.5000000000004476
 20
100.4999999999995026
 30
0.0
 40
2.9999999999999849
210
0.0
220
-0.0000000000000002
230
-1.0
 50
270.0
 51
0.0000000000004071
  0
ARC
  5
1DB6
  8
0
  6
VERDECKT
 62
     1
 10
34.4999999999995381
 20
100.4999999999995026
 30
0.0
 40
2.999999999999992
210
0.0
220
-0.0000000000000002
230
-1.0
 50
179.9999999999996874
 51
270.0000000000001137
  0
ARC
  5
1DB7
  8
0
  6
VERDECKT
 62
     1
 10
34.4999999999995524
 20
100.4999999999995026
 30
0.0
 40
2.9999999999999849
210
0.0
220
-0.0000000000000002
230
-1.0
 50
270.0
 51
0.0000000000004071
  0
LINE
  5
1DB8
  8
0
  6
VERDECKT
 62
     1
 10
-34.4999999999995524
 20
97.4999999999995737
 30
-0.0000000000000216
 11
34.5000000000004476
 21
97.4999999999995737
 31
-0.0000000000000216
210
0.0
220
1.0
230
-0.0000000000000002
  0
LINE
  5
1DB9
  8
0
  6
VERDECKT
 62
     1
 10
-31.4999999999995488
 20
100.4999999999995026
 30
-0.0000000000000223
 11
-31.4999999999995488
 21
104.4999999999995026
 31
-0.0000000000000232
210
0.0
220
1.0
230
-0.0000000000000002
  0
LINE
  5
1DBA
  8
0
  6
VERDECKT
 62
     1
 10
31.5000000000004583
 20
100.4999999999995026
 30
-0.0000000000000223
 11
31.5000000000004583
 21
104.4999999999995026
 31
-0.0000000000000232
210
0.0
220
1.0
230
-0.0000000000000002
  0
LINE
  5
1DBB
  8
0
  6
VERDECKT
 62
     1
 10
-26.4999999999993783
 20
94.4999999999995595
 30
-0.000000000000021
 11
-26.4999999999993783
 21
104.4999999999995026
 31
-0.0000000000000232
210
0.0
220
1.0
230
-0.0000000000000002
  0
LINE
  5
1DBC
  8
0
  6
VERDECKT
 62
     1
 10
26.5000000000002913
 20
94.4999999999995595
 30
-0.000000000000021
 11
26.5000000000002913
 21
104.4999999999995026
 31
-0.0000000000000232
210
0.0
220
1.0
230
-0.0000000000000002
  0
LINE
  5
1DBD
  8
0
  6
VERDECKT
 62
     1
 10
30.5000000000004583
 20
94.4999999999995595
 30
-0.000000000000021
 11
33.9641016151382473
 21
88.4999999999995737
 31
-0.0000000000000197
210
0.0
220
1.0
230
-0.0000000000000002
  0
LINE
  5
1DBE
  8
0
  6
VERDECKT
 62
     1
 10
-30.4999999999995417
 20
94.4999999999995595
 30
-0.000000000000021
 11
-33.9641016151373378
 21
88.4999999999995737
 31
-0.0000000000000197
210
0.0
220
1.0
230
-0.0000000000000002
  0
ENDBLK
  5
1DC0
  8
0
  0
ENDSEC
  0
SECTION
  2
ENTITIES
  0
TEXT
  5
8F
  8
VOLL
 10
78.076754716981128
 20
31.025947764705851
 30
0.0
 40
1.8
  1

  7
GREEKS
  0
INSERT
  5
13C2
  8
ADSK_ASSOC_ENTITY_BACKUPS
  2
*S0
 10
0.0
 20
0.0
 30
0.0
  0
INSERT
  5
1D02
  8
STEMPEL
  2
A$C5B02FABA
 10
0.0
 20
-164.9999999999998863
 30
0.0
  0
INSERT
  5
1DC1
  8
STEMPEL
  2
A$C0553D977
 10
0.0
 20
0.0
 30
0.0
  0
VIEWPORT
  5
EBD
 67
     1
  8
0
 10
145.4907277237051062
 20
205.7136089336256077
 30
0.0
 40
790.2674510967764263
 41
422.1483375959078899
 68
     1
 69
     1
1001
ACAD
1000
MVIEW
1002
{
1070
    16
1010
0.0
1020
0.0
1030
0.0
1010
0.0
1020
0.0
1030
1.0
1040
0.0
1040
422.1483375959078899
1040
145.4907277237051062
1040
205.7136089336256077
1040
50.0
1040
0.0
1040
0.0
1070
     0
1070
  1500
1070
     1
1070
     1
1070
     0
1070
     0
1070
     0
1070
     0
1040
0.0
1040
0.0
1040
0.0
1040
10.0
1040
10.0
1040
10.0
1040
10.0
1070
     0
1002
{
1002
}
1002
}
  0
ENDSEC
  0
EOF
