  0
SECTION
  2
HEADER
  9
$ACADVER
  1
AC1009
  9
$INSBASE
 10
0.0
 20
0.0
 30
0.0
  9
$EXTMIN
 10
-115.0
 20
-280.0
 30
-0.0000000000000558
  9
$EXTMAX
 10
228.2413093173373113
 20
496.7317853925953841
 30
0.0000000000000284
  9
$LIMMIN
 10
0.0
 20
0.0
  9
$LIMMAX
 10
419.9999999999998863
 20
594.0
  9
$ORTHOMODE
 70
     1
  9
$REGENMODE
 70
     1
  9
$FILLMODE
 70
     1
  9
$QTEXTMODE
 70
     0
  9
$MIRRTEXT
 70
     1
  9
$DRAGMODE
 70
     2
  9
$LTSCALE
 40
10.0
  9
$OSMODE
 70
   511
  9
$ATTMODE
 70
     1
  9
$TEXTSIZE
 40
3.5
  9
$TRACEWID
 40
0.5
  9
$TEXTSTYLE
  7
STANDARD
  9
$CLAYER
  8
STEMPEL
  9
$CELTYPE
  6
BYLAYER
  9
$CECOLOR
 62
   256
  9
$DIMSCALE
 40
1.0
  9
$DIMASZ
 40
3.5
  9
$DIMEXO
 40
1.0
  9
$DIMDLI
 40
0.38
  9
$DIMRND
 40
0.0
  9
$DIMDLE
 40
0.0
  9
$DIMEXE
 40
1.0
  9
$DIMTP
 40
0.0
  9
$DIMTM
 40
0.000000001
  9
$DIMTXT
 40
3.5
  9
$DIMCEN
 40
0.09
  9
$DIMTSZ
 40
0.0
  9
$DIMTOL
 70
     0
  9
$DIMLIM
 70
     0
  9
$DIMTIH
 70
     0
  9
$DIMTOH
 70
     0
  9
$DIMSE1
 70
     0
  9
$DIMSE2
 70
     0
  9
$DIMTAD
 70
     1
  9
$DIMZIN
 70
     8
  9
$DIMBLK
  1

  9
$DIMASO
 70
     1
  9
$DIMSHO
 70
     0
  9
$DIMPOST
  1

  9
$DIMAPOST
  1

  9
$DIMALT
 70
     0
  9
$DIMALTD
 70
     2
  9
$DIMALTF
 40
25.3999999999999986
  9
$DIMLFAC
 40
2.0
  9
$DIMTOFL
 70
     1
  9
$DIMTVP
 40
0.0
  9
$DIMTIX
 70
     0
  9
$DIMSOXD
 70
     0
  9
$DIMSAH
 70
     0
  9
$DIMBLK1
  1

  9
$DIMBLK2
  1

  9
$DIMSTYLE
  2
LORO
  9
$DIMCLRD
 70
     0
  9
$DIMCLRE
 70
     0
  9
$DIMCLRT
 70
     1
  9
$DIMTFAC
 40
0.5
  9
$DIMGAP
 40
1.5
  9
$LUNITS
 70
     2
  9
$LUPREC
 70
     2
  9
$SKETCHINC
 40
1.0
  9
$FILLETRAD
 40
8.0
  9
$AUNITS
 70
     0
  9
$AUPREC
 70
     0
  9
$MENU
  1
ACAD
  9
$ELEVATION
 40
0.0
  9
$PELEVATION
 40
0.0
  9
$THICKNESS
 40
0.0
  9
$LIMCHECK
 70
     0
  9
$BLIPMODE
 70
     0
  9
$CHAMFERA
 40
0.0
  9
$CHAMFERB
 40
0.0
  9
$SKPOLY
 70
     0
  9
$TDCREATE
 40
2455397.8646990740671754
  9
$TDUPDATE
 40
2459807.4098148150369525
  9
$TDINDWG
 40
0.4969643403
  9
$TDUSRTIMER
 40
0.4969643403
  9
$USRTIMER
 70
     1
  9
$ANGBASE
 50
0.0
  9
$ANGDIR
 70
     0
  9
$PDMODE
 70
     0
  9
$PDSIZE
 40
0.0
  9
$PLINEWID
 40
0.0
  9
$COORDS
 70
     1
  9
$SPLFRAME
 70
     0
  9
$SPLINETYPE
 70
     6
  9
$SPLINESEGS
 70
     8
  9
$ATTDIA
 70
     1
  9
$ATTREQ
 70
     1
  9
$HANDLING
 70
     1
  9
$HANDSEED
  5
55A8
  9
$SURFTAB1
 70
     6
  9
$SURFTAB2
 70
     6
  9
$SURFTYPE
 70
     6
  9
$SURFU
 70
     6
  9
$SURFV
 70
     6
  9
$UCSNAME
  2

  9
$UCSORG
 10
0.0
 20
0.0
 30
0.0
  9
$UCSXDIR
 10
1.0
 20
0.0
 30
0.0
  9
$UCSYDIR
 10
0.0
 20
1.0
 30
0.0
  9
$PUCSNAME
  2

  9
$PUCSORG
 10
0.0
 20
0.0
 30
0.0
  9
$PUCSXDIR
 10
1.0
 20
0.0
 30
0.0
  9
$PUCSYDIR
 10
0.0
 20
1.0
 30
0.0
  9
$USERI1
 70
     0
  9
$USERI2
 70
     0
  9
$USERI3
 70
     0
  9
$USERI4
 70
     0
  9
$USERI5
 70
     0
  9
$USERR1
 40
0.0
  9
$USERR2
 40
0.0
  9
$USERR3
 40
0.0
  9
$USERR4
 40
0.0
  9
$USERR5
 40
0.0
  9
$WORLDVIEW
 70
     1
  9
$SHADEDGE
 70
     3
  9
$SHADEDIF
 70
    70
  9
$TILEMODE
 70
     1
  9
$MAXACTVP
 70
    16
  9
$PLIMCHECK
 70
     0
  9
$PEXTMIN
 10
1.0000000000000000E+20
 20
1.0000000000000000E+20
 30
1.0000000000000000E+20
  9
$PEXTMAX
 10
-1.0000000000000000E+20
 20
-1.0000000000000000E+20
 30
-1.0000000000000000E+20
  9
$PLIMMIN
 10
-3.0087152204179111
 20
-4.2773141392800653
  9
$PLIMMAX
 10
293.991284779582088
 20
415.7226858607198778
  9
$UNITMODE
 70
     0
  9
$VISRETAIN
 70
     0
  9
$PLINEGEN
 70
     0
  9
$PSLTSCALE
 70
     1
  0
ENDSEC
  0
SECTION
  2
TABLES
  0
TABLE
  2
VPORT
 70
     1
  0
VPORT
  2
*ACTIVE
 70
     0
 10
0.0
 20
0.0
 11
1.0
 21
1.0
 12
106.0054173180623991
 22
98.2322845510644811
 13
0.0
 23
0.0
 14
1.0
 24
1.0
 15
10.0
 25
10.0
 16
-0.0000000000004405
 26
0.0
 36
1857.935945734356892
 17
-49.384762659393779
 27
10.1336081452332198
 37
-0.0000000000000246
 40
780.7048380032990735
 41
1.8720136518771331
 42
50.0
 43
0.0
 44
0.0
 50
0.0
 51
0.0
 71
     0
 72
  1500
 73
     1
 74
     0
 75
     0
 76
     0
 77
     0
 78
     0
  0
ENDTAB
  0
TABLE
  2
LTYPE
 70
     4
  0
LTYPE
  2
CONTINUOUS
 70
     0
  3
Solid line
 72
    65
 73
     0
 40
0.0
  0
LTYPE
  2
STRICHPUNKT
 70
     0
  3
__ . __ . __ . __ . __ . __ . __ . __ . __ . __
 72
    65
 73
     4
 40
1.0
 49
0.5
 49
-0.25
 49
0.0
 49
-0.25
  0
LTYPE
  2
RAND
 70
     0
  3
__ __ . __ __ . __ __ . __ __ . __ __ . __ __
 72
    65
 73
     6
 40
1.75
 49
0.5
 49
-0.25
 49
0.5
 49
-0.25
 49
0.0
 49
-0.25
  0
LTYPE
  2
VERDECKT
 70
     0
  3
Verdeckt __ __ __ __ __ __ __ __ __ __ __ __ __
 72
    65
 73
     2
 40
0.375
 49
0.25
 49
-0.125
  0
ENDTAB
  0
TABLE
  2
LAYER
 70
     6
  0
LAYER
  2
0
 70
     0
 62
     7
  6
CONTINUOUS
  0
LAYER
  2
VOLL
 70
     0
 62
     1
  6
CONTINUOUS
  0
LAYER
  2
STEMPEL
 70
     0
 62
     3
  6
CONTINUOUS
  0
LAYER
  2
ADSK_ASSOC_ENTITY_BACKUPS
 70
     1
 62
    -7
  6
CONTINUOUS
  0
ENDTAB
  0
TABLE
  2
STYLE
 70
     3
  0
STYLE
  2
STANDARD
 70
     0
 40
0.0
 41
0.8
 50
0.0
 71
     0
 42
3.5
  3
simplex.shx
  4

  0
STYLE
  2
GREEKS
 70
     0
 40
0.0
 41
0.8
 50
0.0
 71
     0
 42
2.5
  3
SIMPLEX.shx
  4

  0
ENDTAB
  0
TABLE
  2
VIEW
 70
     0
  0
ENDTAB
  0
TABLE
  2
UCS
 70
     0
  0
ENDTAB
  0
TABLE
  2
APPID
 70
    26
  0
APPID
  2
ACAD
 70
     0
  0
APPID
  2
ACAD_NAV_VCDISPLAY
 70
     0
  0
APPID
  2
ACAD_PSEXT
 70
     0
  0
APPID
  2
ACAECLAYERSTANDARD
 70
     0
  0
APPID
  2
ACCMTRANSPARENCY
 70
     0
  0
APPID
  2
ACADANNOMONITORALERTICONDI
 70
     0
  0
APPID
  2
ACAD_EXEMPT_FROM_CAD_STANDARDS
 70
     0
  0
APPID
  2
ACAD_MLEADERVER
 70
     0
  0
APPID
  2
ACAD_OBJECT_CHANGE_GUID
 70
     0
  0
APPID
  2
ACAD_STEPID
 70
     0
  0
APPID
  2
ACSYNERGY
 70
     0
  0
APPID
  2
SYNERGY_BODY_TBR_ID
 70
     0
  0
APPID
  2
ACAD_VIEW_EDGE_ID
 70
     0
  0
APPID
  2
ACSYNERGYSKETCH
 70
     0
  0
APPID
  2
ACAD_MODELDOC_XFORM
 70
     0
  0
APPID
  2
GRADIENTCOLOR1ACI
 70
     0
  0
APPID
  2
GRADIENTCOLOR2ACI
 70
     0
  0
APPID
  2
ACAD_DSTYLE_DIMJAG
 70
     0
  0
APPID
  2
ACAD_DSTYLE_DIMTALN
 70
     0
  0
APPID
  2
ACAD_DSTYLE_DIMRADIAL_EXTENSION
 70
     0
  0
APPID
  2
ACDBDYNAMICBLOCKGUID
 70
     0
  0
APPID
  2
ACADANNOPO
 70
     0
  0
APPID
  2
ACAD_DSTYLE_DIMBREAK
 70
     0
  0
APPID
  2
ACAD_DIMASSOC_CALC_DIMLFAC
 70
     0
  0
APPID
  2
ACAD_DIMASSOC_DIMLFAC
 70
     0
  0
APPID
  2
ACAD_DIMASSOC_OVERRIDDEN_D
 70
     0
  0
ENDTAB
  0
TABLE
  2
DIMSTYLE
 70
     1
  0
DIMSTYLE
  2
LORO
 70
     0
  3

  4

  5

  6

  7

 40
1.0
 41
3.5
 42
1.0
 43
0.38
 44
1.0
 45
0.0
 46
0.0
 47
0.0
 48
0.000000001
140
3.5
141
0.09
142
0.0
143
25.3999999999999986
144
2.0
145
0.0
146
0.5
147
1.5
 71
     0
 72
     0
 73
     0
 74
     0
 75
     0
 76
     0
 77
     1
 78
     8
170
     0
171
     2
172
     1
173
     0
174
     0
175
     0
176
     0
177
     0
178
     1
  0
ENDTAB
  0
ENDSEC
  0
SECTION
  2
BLOCKS
  0
BLOCK
  8
0
  2
$MODEL_SPACE
 70
     0
 10
0.0
 20
0.0
 30
0.0
  3
$MODEL_SPACE
  1

  0
ENDBLK
  5
36
  8
0
  0
BLOCK
 67
     1
  8
0
  2
$PAPER_SPACE
 70
     0
 10
0.0
 20
0.0
 30
0.0
  3
$PAPER_SPACE
  1

  0
ENDBLK
  5
2438
 67
     1
  8
0
  0
BLOCK
  8
0
  2
*S0
 70
     1
 10
0.0
 20
0.0
 30
0.0
  3
*S0
  1

  0
ENDBLK
  5
1AA8
  8
0
  0
BLOCK
  8
0
  2
A$C252CD967
 70
     0
 10
0.0
 20
0.0
 30
0.0
  3
A$C252CD967
  1

  0
CIRCLE
  5
54C0
  8
0
  6
CONTINUOUS
 62
     3
 10
0.0000000000000473
 20
0.0000000000000253
 30
0.0
 40
38.1500000000000909
  0
CIRCLE
  5
54C1
  8
0
  6
CONTINUOUS
 62
     3
 10
0.0000000000000388
 20
0.0000000000000229
 30
0.0
 40
34.9000000000000909
  0
CIRCLE
  5
54C2
  8
0
  6
CONTINUOUS
 62
     3
 10
0.0000000000000383
 20
-90.0
 30
0.0
 40
3.0000000000000422
  0
CIRCLE
  5
54C3
  8
0
  6
CONTINUOUS
 62
     3
 10
-89.9999999999999432
 20
0.0000000000000127
 30
-0.0000000000000284
 40
3.0000000000000422
  0
CIRCLE
  5
54C4
  8
0
  6
CONTINUOUS
 62
     3
 10
0.0000000000000604
 20
90.0
 30
0.0
 40
3.0000000000000422
  0
CIRCLE
  5
54C5
  8
0
  6
CONTINUOUS
 62
     3
 10
90.0000000000000568
 20
0.0000000000000017
 30
0.0000000000000284
 40
3.0000000000000422
  0
CIRCLE
  5
54C6
  8
0
  6
CONTINUOUS
 62
     3
 10
0.0000000000000492
 20
0.0000000000000001
 30
0.0
 40
40.5
  0
CIRCLE
  5
54C7
  8
0
  6
CONTINUOUS
 62
     3
 10
0.0000000000000547
 20
0.0000000000000016
 30
0.0
 40
115.0
  0
CIRCLE
  5
54C8
  8
0
  6
CONTINUOUS
 62
     3
 10
0.0000000000000531
 20
0.0000000000000012
 30
0.0
 40
51.5
  0
CIRCLE
  5
54C9
  8
0
  6
CONTINUOUS
 62
     3
 10
0.0
 20
0.0000000000000024
 30
0.0
 40
34.2936678383716682
  0
CIRCLE
  5
54CA
  8
0
  6
VERDECKT
 62
     1
 10
0.0000000000000489
 20
0.0000000000000541
 30
0.0
 40
40.605033514166962
  0
CIRCLE
  5
54CB
  8
0
  6
VERDECKT
 62
     1
 10
0.0000000000000473
 20
0.0000000000000253
 30
0.0
 40
39.75
  0
CIRCLE
  5
54CC
  8
0
  6
VERDECKT
 62
     1
 10
0.0000000000000487
 20
0.0000000000000541
 30
0.0
 40
42.0
  0
CIRCLE
  5
54CD
  8
0
  6
VERDECKT
 62
     1
 10
0.0000000000000388
 20
0.0000000000000229
 30
0.0
 40
36.5
  0
CIRCLE
  5
54CE
  8
0
  6
VERDECKT
 62
     1
 10
0.0000000000000381
 20
-90.0
 30
0.0
 40
4.0606601717798263
  0
CIRCLE
  5
54CF
  8
0
  6
VERDECKT
 62
     1
 10
-89.9999999999999432
 20
0.0000000000000126
 30
-0.0000000000000284
 40
4.0606601717798263
  0
CIRCLE
  5
54D0
  8
0
  6
VERDECKT
 62
     1
 10
0.0000000000000601
 20
90.0
 30
0.0
 40
4.0606601717798263
  0
CIRCLE
  5
54D1
  8
0
  6
VERDECKT
 62
     1
 10
90.0000000000000568
 20
0.0000000000000016
 30
0.0000000000000284
 40
4.0606601717798263
  0
CIRCLE
  5
54D2
  8
0
  6
VERDECKT
 62
     1
 10
0.0000000000000544
 20
0.0000000000000015
 30
0.0
 40
114.3660726073889009
  0
CIRCLE
  5
54D3
  8
0
  6
VERDECKT
 62
     1
 10
0.0000000000000518
 20
0.0000000000000008
 30
0.0
 40
52.0432604829181713
  0
CIRCLE
  5
54D4
  8
0
  6
VERDECKT
 62
     1
 10
0.0000000000000531
 20
0.0000000000000012
 30
0.0
 40
53.0
  0
CIRCLE
  5
54D5
  8
0
  6
VERDECKT
 62
     1
 10
0.0000000000000518
 20
0.0000000000000008
 30
0.0
 40
53.5432604829181784
  0
CIRCLE
  5
54D6
  8
0
  6
VERDECKT
 62
     1
 10
0.0
 20
0.0000000000000024
 30
0.0
 40
35.8875793553185076
  0
ENDBLK
  5
54D8
  8
0
  0
BLOCK
  8
0
  2
A$C29877DD4
 70
     0
 10
0.0
 20
0.0
 30
0.0
  3
A$C29877DD4
  1

  0
LINE
  5
54DC
  8
0
  6
CONTINUOUS
 62
     3
 10
-42.0
 20
219.2076751295844872
 30
-0.0000000000000487
 11
42.0
 21
219.2076751295844872
 31
-0.0000000000000487
210
0.0
220
1.0
230
-0.0000000000000002
  0
LINE
  5
54DD
  8
0
  6
CONTINUOUS
 62
     3
 10
-36.5
 20
129.999999999999801
 30
-0.0000000000000289
 11
36.5
 21
129.999999999999801
 31
-0.0000000000000289
210
0.0
220
1.0
230
-0.0000000000000002
  0
ARC
  5
54DE
  8
0
  6
CONTINUOUS
 62
     3
 10
47.7499999999999929
 20
213.1404048800654891
 30
0.0
 40
7.999999999999992
210
0.0
220
-0.0000000000000002
230
-1.0
 50
150.3168598208715139
 51
180.0
  0
ARC
  5
54DF
  8
0
  6
CONTINUOUS
 62
     3
 10
-47.7499999999999929
 20
213.1404048800654891
 30
0.0
 40
7.999999999999992
210
0.0
220
-0.0000000000000002
230
-1.0
 50
0.0
 51
29.6831401791284613
  0
LINE
  5
54E0
  8
0
  6
CONTINUOUS
 62
     3
 10
-40.7997818384590474
 20
217.1020292321445879
 30
-0.0000000000000482
 11
-42.0
 21
219.2076751295844872
 31
-0.0000000000000487
210
0.0
220
1.0
230
-0.0000000000000002
  0
LINE
  5
54E1
  8
0
  6
CONTINUOUS
 62
     3
 10
40.7997818384590474
 20
217.1020292321445879
 30
-0.0000000000000482
 11
42.0
 21
219.2076751295844872
 31
-0.0000000000000487
210
0.0
220
1.0
230
-0.0000000000000002
  0
LINE
  5
54E2
  8
0
  6
CONTINUOUS
 62
     3
 10
39.75
 20
213.1404048800654891
 30
-0.0000000000000473
 11
39.75
 21
185.6221468326286868
 31
-0.0000000000000412
210
0.0
220
1.0
230
-0.0000000000000002
  0
LINE
  5
54E3
  8
0
  6
CONTINUOUS
 62
     3
 10
-39.75
 20
213.1404048800654891
 30
-0.0000000000000473
 11
-39.75
 21
185.6221468326286868
 31
-0.0000000000000412
210
0.0
220
1.0
230
-0.0000000000000002
  0
LINE
  5
54E4
  8
0
  6
CONTINUOUS
 62
     3
 10
40.6099563676921278
 20
220.0000000000001137
 30
-0.0000000000000488
 11
42.0
 21
219.2076751295844872
 31
-0.0000000000000487
210
0.0
220
1.0
230
-0.0000000000000002
  0
LINE
  5
54E5
  8
0
  6
CONTINUOUS
 62
     3
 10
-40.6099563676921278
 20
220.0000000000001137
 30
-0.0000000000000488
 11
-42.0
 21
219.2076751295844872
 31
-0.0000000000000487
210
0.0
220
1.0
230
-0.0000000000000002
  0
ARC
  5
54E6
  8
0
  6
CONTINUOUS
 62
     3
 10
27.7499999999986002
 20
185.6221468326289141
 30
0.0
 40
12.0000000000013998
210
0.0
220
-0.0000000000000002
230
-1.0
 50
326.8770597922617185
 51
359.9999999999992042
  0
ARC
  5
54E7
  8
0
  6
CONTINUOUS
 62
     3
 10
-27.7499999999986002
 20
185.6221468326289141
 30
0.0
 40
12.0000000000013998
210
0.0
220
-0.0000000000000002
230
-1.0
 50
180.0000000000007105
 51
213.1229402077381962
  0
ARC
  5
54E8
  8
0
  6
CONTINUOUS
 62
     3
 10
44.5000000000008669
 20
174.6934003354309937
 30
0.0
 40
8.0000000000008722
210
0.0
220
-0.0000000000000002
230
-1.0
 50
146.8770597922527941
 51
179.9999999999967031
  0
ARC
  5
54E9
  8
0
  6
CONTINUOUS
 62
     3
 10
-44.5000000000009379
 20
174.6934003354309937
 30
0.0
 40
8.0000000000009361
210
0.0
220
-0.0000000000000002
230
-1.0
 50
0.0
 51
33.1229402077436319
  0
LINE
  5
54EA
  8
0
  6
CONTINUOUS
 62
     3
 10
36.5
 20
174.6934003354315053
 30
-0.0000000000000388
 11
36.5
 21
129.999999999999801
 31
-0.0000000000000289
210
0.0
220
1.0
230
-0.0000000000000002
  0
LINE
  5
54EB
  8
0
  6
CONTINUOUS
 62
     3
 10
-36.5
 20
174.6934003354315053
 30
-0.0000000000000388
 11
-36.5
 21
129.999999999999801
 31
-0.0000000000000289
210
0.0
220
1.0
230
-0.0000000000000002
  0
LINE
  5
54EC
  8
0
  6
CONTINUOUS
 62
     3
 10
-44.9240392719524522
 20
220.0000000000001137
 30
-0.0000000000000488
 11
44.9240392719524735
 21
220.0000000000001137
 31
-0.0000000000000488
210
0.0
220
1.0
230
-0.0000000000000002
  0
LINE
  5
54ED
  8
0
  6
CONTINUOUS
 62
     3
 10
-106.527756391641006
 20
250.0000000000001137
 30
-0.0000000000000555
 11
106.527756391641006
 21
250.0000000000001137
 31
-0.0000000000000555
210
0.0
220
1.0
230
-0.0000000000000002
  0
LINE
  5
54EE
  8
0
  6
CONTINUOUS
 62
     3
 10
-115.0
 20
246.3594616805551141
 30
-0.0000000000000547
 11
115.0
 21
246.3594616805551141
 31
-0.0000000000000547
210
0.0
220
1.0
230
-0.0000000000000002
  0
LINE
  5
54EF
  8
0
  6
CONTINUOUS
 62
     3
 10
-114.3660726073889009
 20
245.0000000000001137
 30
-0.0000000000000544
 11
114.3660726073889009
 21
245.0000000000001137
 31
-0.0000000000000544
210
0.0
220
1.0
230
-0.0000000000000002
  0
ARC
  5
54F0
  8
0
  6
CONTINUOUS
 62
     3
 10
106.527756391641006
 20
247.000000000000199
 30
0.0
 40
2.9999999999999432
210
0.0
220
-0.0000000000000002
230
-1.0
 50
64.9999999999994884
 51
89.99999999999973
  0
ARC
  5
54F1
  8
0
  6
CONTINUOUS
 62
     3
 10
-106.527756391641006
 20
247.0000000000001137
 30
0.0
 40
3.0000000000000271
210
0.0
220
-0.0000000000000002
230
-1.0
 50
90.0000000000005542
 51
115.0000000000002984
  0
LINE
  5
54F2
  8
0
  6
CONTINUOUS
 62
     3
 10
107.7956111768632042
 20
249.718923361110086
 30
-0.0000000000000554
 11
115.0
 21
246.3594616805551141
 31
-0.0000000000000547
210
0.0
220
1.0
230
-0.0000000000000002
  0
LINE
  5
54F3
  8
0
  6
CONTINUOUS
 62
     3
 10
-107.7956111768632042
 20
249.718923361110086
 30
-0.0000000000000554
 11
-115.0
 21
246.3594616805551141
 31
-0.0000000000000547
210
0.0
220
1.0
230
-0.0000000000000002
  0
LINE
  5
54F4
  8
0
  6
CONTINUOUS
 62
     3
 10
-114.3660726073889009
 20
245.0000000000001137
 30
-0.0000000000000544
 11
-115.0
 21
246.3594616805551141
 31
-0.0000000000000547
210
0.0
220
1.0
230
-0.0000000000000002
  0
LINE
  5
54F5
  8
0
  6
CONTINUOUS
 62
     3
 10
114.3660726073889009
 20
245.0000000000001137
 30
-0.0000000000000544
 11
115.0
 21
246.3594616805551141
 31
-0.0000000000000547
210
0.0
220
1.0
230
-0.0000000000000002
  0
LINE
  5
54F6
  8
0
  6
CONTINUOUS
 62
     3
 10
-55.4999999999999929
 20
243.2472232502674956
 30
-0.000000000000054
 11
-58.5358983848622216
 21
245.0000000000001137
 31
-0.0000000000000544
210
0.0
220
1.0
230
-0.0000000000000002
  0
LINE
  5
54F7
  8
0
  6
CONTINUOUS
 62
     3
 10
55.4999999999999929
 20
243.2472232502674956
 30
-0.000000000000054
 11
58.5358983848622216
 21
245.0000000000001137
 31
-0.0000000000000544
210
0.0
220
1.0
230
-0.0000000000000002
  0
ARC
  5
54F8
  8
0
  6
CONTINUOUS
 62
     3
 10
58.0000000000000071
 20
238.917096231345397
 30
0.0
 40
5.0000000000000018
210
0.0
220
-0.0000000000000002
230
-1.0
 50
120.000000000000199
 51
191.2049919799212034
  0
ARC
  5
54F9
  8
0
  6
CONTINUOUS
 62
     3
 10
-58.0000000000000071
 20
238.917096231345397
 30
0.0
 40
5.0000000000000124
210
0.0
220
-0.0000000000000002
230
-1.0
 50
348.7950080200786829
 51
59.9999999999997513
  0
ARC
  5
54FA
  8
0
  6
CONTINUOUS
 62
     3
 10
30.0432604829181713
 20
233.3789814280900998
 30
0.0
 40
23.5000000000000213
210
0.0
220
-0.0000000000000002
230
-1.0
 50
338.4424036881883922
 51
11.2049919799213598
  0
ARC
  5
54FB
  8
0
  6
CONTINUOUS
 62
     3
 10
-30.0432604829181713
 20
233.3789814280900998
 30
0.0
 40
23.5
210
0.0
220
-0.0000000000000002
230
-1.0
 50
168.7950080200785976
 51
201.5575963118116078
  0
ARC
  5
54FC
  8
0
  6
CONTINUOUS
 62
     3
 10
44.9240392719524735
 20
227.5000000000001137
 30
0.0
 40
7.5
210
0.0
220
-0.0000000000000002
230
-1.0
 50
270.0
 51
338.4424036881883922
  0
ARC
  5
54FD
  8
0
  6
CONTINUOUS
 62
     3
 10
-44.9240392719524735
 20
227.5000000000001137
 30
0.0
 40
7.5000000000000044
210
0.0
220
-0.0000000000000002
230
-1.0
 50
201.5575963118116078
 51
270.0
  0
LINE
  5
54FE
  8
0
  6
CONTINUOUS
 62
     3
 10
-36.5
 20
129.999999999999801
 30
-0.0000000000000289
 11
36.5
 21
129.999999999999801
 31
-0.0000000000000289
210
0.0
220
1.0
230
-0.0000000000000002
  0
LINE
  5
54FF
  8
0
  6
CONTINUOUS
 62
     3
 10
35.8875793553185076
 20
0.0
 30
0.0
 11
-35.8875793553185076
 21
0.0
 31
0.0
210
0.0
220
1.0
230
-0.0000000000000002
  0
LINE
  5
5500
  8
0
  6
CONTINUOUS
 62
     3
 10
-35.8875793553184792
 20
0.0000000000000031
 30
0.0
 11
-36.5000000000001492
 21
7.0000000000030731
 31
-0.0000000000000016
210
0.0
220
1.0
230
-0.0000000000000002
  0
LINE
  5
5501
  8
0
  6
CONTINUOUS
 62
     3
 10
35.8875793553184792
 20
0.0000000000000031
 30
0.0
 11
36.5000000000001492
 21
7.0000000000030731
 31
-0.0000000000000016
210
0.0
220
1.0
230
-0.0000000000000002
  0
LINE
  5
5502
  8
0
  6
CONTINUOUS
 62
     3
 10
-36.5000000000001066
 20
7.0000000000030713
 30
-0.0000000000000016
 11
-36.5000000000001066
 21
129.999999999999801
 31
-0.0000000000000289
210
0.0
220
1.0
230
-0.0000000000000002
  0
LINE
  5
5503
  8
0
  6
CONTINUOUS
 62
     3
 10
36.5000000000001066
 20
7.0000000000030713
 30
-0.0000000000000016
 11
36.5000000000001066
 21
129.999999999999801
 31
-0.0000000000000289
210
0.0
220
1.0
230
-0.0000000000000002
  0
LINE
  5
5504
  8
0
  6
VERDECKT
 62
     1
 10
-40.605033514166962
 20
220.0028060265094894
 30
-0.0000000000000489
 11
40.605033514166962
 21
220.0028060265094894
 31
-0.0000000000000489
210
0.0
220
1.0
230
-0.0000000000000002
  0
ARC
  5
5505
  8
0
  6
VERDECKT
 62
     1
 10
47.7500000000001066
 20
213.1518474917062917
 30
0.0
 40
9.6000000000000245
210
0.0
220
-0.0000000000000002
230
-1.0
 50
150.3168598208710023
 51
179.9999999999998863
  0
ARC
  5
5506
  8
0
  6
VERDECKT
 62
     1
 10
-47.7499999999999218
 20
213.1518474917064054
 30
0.0
 40
9.5999999999998291
210
0.0
220
-0.0000000000000002
230
-1.0
 50
0.0
 51
29.6831401791295306
  0
LINE
  5
5507
  8
0
  6
VERDECKT
 62
     1
 10
-39.4097382061510402
 20
217.9057967142013013
 30
-0.0000000000000484
 11
-40.605033514166962
 21
220.0028060265094894
 31
-0.0000000000000489
210
0.0
220
1.0
230
-0.0000000000000002
  0
LINE
  5
5508
  8
0
  6
VERDECKT
 62
     1
 10
39.4097382061510402
 20
217.9057967142013013
 30
-0.0000000000000484
 11
40.605033514166962
 21
220.0028060265094894
 31
-0.0000000000000489
210
0.0
220
1.0
230
-0.0000000000000002
  0
LINE
  5
5509
  8
0
  6
VERDECKT
 62
     1
 10
38.1500000000000909
 20
213.1518474917062917
 30
-0.0000000000000473
 11
38.1500000000000909
 21
185.6221468326286868
 31
-0.0000000000000412
210
0.0
220
1.0
230
-0.0000000000000002
  0
LINE
  5
550A
  8
0
  6
VERDECKT
 62
     1
 10
-38.1500000000000909
 20
213.1518474917062917
 30
-0.0000000000000473
 11
-38.1500000000000909
 21
185.6221468326286868
 31
-0.0000000000000412
210
0.0
220
1.0
230
-0.0000000000000002
  0
LINE
  5
550B
  8
0
  6
VERDECKT
 62
     1
 10
40.605033514166962
 20
220.0028060265094894
 30
-0.0000000000000489
 11
40.6099563676921278
 21
220.0000000000001137
 31
-0.0000000000000488
210
0.0
220
1.0
230
-0.0000000000000002
  0
LINE
  5
550C
  8
0
  6
VERDECKT
 62
     1
 10
-40.605033514166962
 20
220.0028060265094894
 30
-0.0000000000000489
 11
-40.6099563676921278
 21
220.0000000000001137
 31
-0.0000000000000488
210
0.0
220
1.0
230
-0.0000000000000002
  0
LINE
  5
550D
  8
0
  6
VERDECKT
 62
     1
 10
34.9000000000000909
 20
174.6934003354313916
 30
-0.0000000000000388
 11
34.9000000000000909
 21
129.999999999999801
 31
-0.0000000000000289
210
0.0
220
1.0
230
-0.0000000000000002
  0
LINE
  5
550E
  8
0
  6
VERDECKT
 62
     1
 10
-34.9000000000000909
 20
174.6934003354313916
 30
-0.0000000000000388
 11
-34.9000000000000909
 21
129.999999999999801
 31
-0.0000000000000289
210
0.0
220
1.0
230
-0.0000000000000002
  0
ARC
  5
550F
  8
0
  6
VERDECKT
 62
     1
 10
44.4999999999984794
 20
174.6934003354319884
 30
0.0
 40
9.5999999999983956
210
0.0
220
-0.0000000000000002
230
-1.0
 50
146.8770597922562899
 51
180.000000000003098
  0
ARC
  5
5510
  8
0
  6
VERDECKT
 62
     1
 10
-44.4999999999984794
 20
174.6934003354319884
 30
0.0
 40
9.5999999999983885
210
0.0
220
-0.0000000000000002
230
-1.0
 50
359.9999999999968168
 51
33.1229402077436319
  0
ARC
  5
5511
  8
0
  6
VERDECKT
 62
     1
 10
27.7500000000008704
 20
185.6221468326284878
 30
0.0
 40
10.3999999999992205
210
0.0
220
-0.0000000000000002
230
-1.0
 50
326.8770597922521119
 51
0.0000000000012073
  0
ARC
  5
5512
  8
0
  6
VERDECKT
 62
     1
 10
-27.7500000000008704
 20
185.6221468326284878
 30
0.0
 40
10.3999999999992294
210
0.0
220
-0.0000000000000002
230
-1.0
 50
179.9999999999986926
 51
213.1229402077478881
  0
LINE
  5
5513
  8
0
  6
VERDECKT
 62
     1
 10
-4.0606601717798378
 20
246.0000000000001137
 30
-0.0000000000000546
 11
-0.0000000000000169
 21
246.0000000000001137
 31
-0.0000000000000546
210
0.0
220
1.0
230
-0.0000000000000002
  0
LINE
  5
5514
  8
0
  6
VERDECKT
 62
     1
 10
-0.0000000000000163
 20
246.0000000000001137
 30
-0.0000000000000546
 11
4.0606601717798094
 21
246.0000000000001137
 31
-0.0000000000000546
210
0.0
220
1.0
230
-0.0000000000000002
  0
LINE
  5
5515
  8
0
  6
VERDECKT
 62
     1
 10
-3.0000000000000582
 20
247.0606601717800004
 30
-0.0000000000000549
 11
-0.0000000000000169
 21
247.0606601717800004
 31
-0.0000000000000549
210
0.0
220
1.0
230
-0.0000000000000002
  0
LINE
  5
5516
  8
0
  6
VERDECKT
 62
     1
 10
-0.000000000000016
 20
247.0606601717800004
 30
-0.0000000000000549
 11
3.0000000000000249
 21
247.0606601717800004
 31
-0.0000000000000549
210
0.0
220
1.0
230
-0.0000000000000002
  0
LINE
  5
5517
  8
0
  6
VERDECKT
 62
     1
 10
-94.0606601717798156
 20
246.0000000000001137
 30
-0.0000000000000546
 11
-85.9393398282201701
 21
246.0000000000001137
 31
-0.0000000000000546
210
0.0
220
1.0
230
-0.0000000000000002
  0
LINE
  5
5518
  8
0
  6
VERDECKT
 62
     1
 10
-93.0000000000000426
 20
247.0606601717798867
 30
-0.0000000000000549
 11
-86.9999999999999432
 21
247.0606601717798867
 31
-0.0000000000000549
210
0.0
220
1.0
230
-0.0000000000000002
  0
LINE
  5
5519
  8
0
  6
VERDECKT
 62
     1
 10
85.9393398282201701
 20
246.0000000000001137
 30
-0.0000000000000546
 11
94.0606601717798156
 21
246.0000000000001137
 31
-0.0000000000000546
210
0.0
220
1.0
230
-0.0000000000000002
  0
LINE
  5
551A
  8
0
  6
VERDECKT
 62
     1
 10
86.9999999999999432
 20
247.0606601717798867
 30
-0.0000000000000549
 11
93.0000000000000426
 21
247.0606601717798867
 31
-0.0000000000000549
210
0.0
220
1.0
230
-0.0000000000000002
  0
LINE
  5
551B
  8
0
  6
VERDECKT
 62
     1
 10
-44.9240392719524522
 20
221.5000000000001137
 30
-0.0000000000000492
 11
44.9240392719524735
 21
221.5000000000001137
 31
-0.0000000000000492
210
0.0
220
1.0
230
-0.0000000000000002
  0
LINE
  5
551C
  8
0
  6
VERDECKT
 62
     1
 10
-106.5277563916411054
 20
248.5000000000001137
 30
-0.0000000000000552
 11
106.5277563916411054
 21
248.5000000000001137
 31
-0.0000000000000552
210
0.0
220
1.0
230
-0.0000000000000002
  0
ARC
  5
551D
  8
0
  6
VERDECKT
 62
     1
 10
7.1819805153394762
 20
247.0000000000001137
 30
0.0
 40
1.5
210
0.0
220
-0.0000000000000002
230
-1.0
 50
89.9999999999999432
 51
134.9999999999994031
  0
ARC
  5
551E
  8
0
  6
VERDECKT
 62
     1
 10
-7.1819805153394398
 20
247.0000000000001137
 30
0.0
 40
1.499999999999974
210
0.0
220
-0.0000000000000002
230
-1.0
 50
44.9999999999999076
 51
90.0000000000001137
  0
LINE
  5
551F
  8
0
  6
VERDECKT
 62
     1
 10
-4.0606601717798396
 20
246.0000000000001137
 30
-0.0000000000000546
 11
-6.1213203435596606
 21
248.0606601717798867
 31
-0.0000000000000551
210
0.0
220
1.0
230
-0.0000000000000002
  0
LINE
  5
5520
  8
0
  6
VERDECKT
 62
     1
 10
4.0606601717798059
 20
246.0000000000001137
 30
-0.0000000000000546
 11
6.1213203435596268
 21
248.0606601717798867
 31
-0.0000000000000551
210
0.0
220
1.0
230
-0.0000000000000002
  0
LINE
  5
5521
  8
0
  6
VERDECKT
 62
     1
 10
3.0000000000000249
 20
247.0606601717800004
 30
-0.0000000000000549
 11
4.0606601717798192
 21
246.0000000000001137
 31
-0.0000000000000546
210
0.0
220
1.0
230
-0.0000000000000002
  0
LINE
  5
5522
  8
0
  6
VERDECKT
 62
     1
 10
-3.0000000000000582
 20
247.0606601717800004
 30
-0.0000000000000549
 11
-4.0606601717798521
 21
246.0000000000001137
 31
-0.0000000000000546
210
0.0
220
1.0
230
-0.0000000000000002
  0
LINE
  5
5523
  8
0
  6
VERDECKT
 62
     1
 10
-3.0000000000000742
 20
247.0606601717798867
 30
-0.0000000000000549
 11
-5.0606601717799231
 21
249.1213203435598018
 31
-0.0000000000000553
210
0.0
220
1.0
230
-0.0000000000000002
  0
LINE
  5
5524
  8
0
  6
VERDECKT
 62
     1
 10
3.00000000000004
 20
247.0606601717798867
 30
-0.0000000000000549
 11
5.0606601717798902
 21
249.1213203435598018
 31
-0.0000000000000553
210
0.0
220
1.0
230
-0.0000000000000002
  0
ARC
  5
5525
  8
0
  6
VERDECKT
 62
     1
 10
7.1819805153395473
 20
247.0000000000001137
 30
0.0
 40
3.0
210
0.0
220
-0.0000000000000002
230
-1.0
 50
89.9999999999999858
 51
134.9999999999994884
  0
ARC
  5
5526
  8
0
  6
VERDECKT
 62
     1
 10
-7.1819805153395118
 20
247.0000000000001137
 30
0.0
 40
2.9999999999999991
210
0.0
220
-0.0000000000000002
230
-1.0
 50
45.0000000000004832
 51
90.0000000000000568
  0
ARC
  5
5527
  8
0
  6
VERDECKT
 62
     1
 10
97.1819805153394611
 20
247.000000000000199
 30
0.0
 40
1.4999999999999141
210
0.0
220
-0.0000000000000002
230
-1.0
 50
89.99999999999946
 51
135.0000000000011084
  0
ARC
  5
5528
  8
0
  6
VERDECKT
 62
     1
 10
82.8180194846605531
 20
247.000000000000199
 30
0.0
 40
1.499999999999921
210
0.0
220
-0.0000000000000002
230
-1.0
 50
44.9999999999988631
 51
90.0000000000005542
  0
LINE
  5
5529
  8
0
  6
VERDECKT
 62
     1
 10
-94.0606601717798156
 20
246.0000000000001137
 30
-0.0000000000000546
 11
-96.1213203435596455
 21
248.0606601717798867
 31
-0.0000000000000551
210
0.0
220
1.0
230
-0.0000000000000002
  0
LINE
  5
552A
  8
0
  6
VERDECKT
 62
     1
 10
-85.9393398282201701
 20
246.0000000000001137
 30
-0.0000000000000546
 11
-83.8786796564403545
 21
248.0606601717798867
 31
-0.0000000000000551
210
0.0
220
1.0
230
-0.0000000000000002
  0
LINE
  5
552B
  8
0
  6
VERDECKT
 62
     1
 10
-86.9999999999999289
 20
247.0606601717798867
 30
-0.0000000000000549
 11
-85.9393398282201701
 21
246.0000000000001137
 31
-0.0000000000000546
210
0.0
220
1.0
230
-0.0000000000000002
  0
LINE
  5
552C
  8
0
  6
VERDECKT
 62
     1
 10
-93.0000000000000426
 20
247.0606601717798867
 30
-0.0000000000000549
 11
-94.0606601717798156
 21
246.0000000000001137
 31
-0.0000000000000546
210
0.0
220
1.0
230
-0.0000000000000002
  0
LINE
  5
552D
  8
0
  6
VERDECKT
 62
     1
 10
-93.0000000000000426
 20
247.0606601717798867
 30
-0.0000000000000549
 11
-95.0606601717798867
 21
249.1213203435596881
 31
-0.0000000000000553
210
0.0
220
1.0
230
-0.0000000000000002
  0
LINE
  5
552E
  8
0
  6
VERDECKT
 62
     1
 10
-86.9999999999999289
 20
247.0606601717798867
 30
-0.0000000000000549
 11
-84.9393398282201133
 21
249.1213203435596881
 31
-0.0000000000000553
210
0.0
220
1.0
230
-0.0000000000000002
  0
ARC
  5
552F
  8
0
  6
VERDECKT
 62
     1
 10
97.1819805153395038
 20
247.000000000000199
 30
0.0
 40
2.9999999999998859
210
0.0
220
-0.0000000000000002
230
-1.0
 50
89.99999999999946
 51
135.0000000000013074
  0
ARC
  5
5530
  8
0
  6
VERDECKT
 62
     1
 10
82.8180194846604536
 20
247.0
 30
0.0
 40
3.0000000000000839
210
0.0
220
-0.0000000000000002
230
-1.0
 50
45.0000000000011511
 51
89.9999999999994458
  0
ARC
  5
5531
  8
0
  6
VERDECKT
 62
     1
 10
-82.8180194846605531
 20
247.000000000000199
 30
0.0
 40
1.4999999999999141
210
0.0
220
-0.0000000000000002
230
-1.0
 50
89.99999999999946
 51
135.0000000000011084
  0
ARC
  5
5532
  8
0
  6
VERDECKT
 62
     1
 10
-97.1819805153394611
 20
247.000000000000199
 30
0.0
 40
1.499999999999921
210
0.0
220
-0.0000000000000002
230
-1.0
 50
44.9999999999988631
 51
90.0000000000005542
  0
LINE
  5
5533
  8
0
  6
VERDECKT
 62
     1
 10
85.9393398282201701
 20
246.0000000000001137
 30
-0.0000000000000546
 11
83.8786796564403545
 21
248.0606601717798867
 31
-0.0000000000000551
210
0.0
220
1.0
230
-0.0000000000000002
  0
LINE
  5
5534
  8
0
  6
VERDECKT
 62
     1
 10
94.0606601717798156
 20
246.0000000000001137
 30
-0.0000000000000546
 11
96.1213203435596455
 21
248.0606601717798867
 31
-0.0000000000000551
210
0.0
220
1.0
230
-0.0000000000000002
  0
LINE
  5
5535
  8
0
  6
VERDECKT
 62
     1
 10
93.0000000000000426
 20
247.0606601717798867
 30
-0.0000000000000549
 11
94.0606601717798156
 21
246.0000000000001137
 31
-0.0000000000000546
210
0.0
220
1.0
230
-0.0000000000000002
  0
LINE
  5
5536
  8
0
  6
VERDECKT
 62
     1
 10
86.9999999999999289
 20
247.0606601717798867
 30
-0.0000000000000549
 11
85.9393398282201701
 21
246.0000000000001137
 31
-0.0000000000000546
210
0.0
220
1.0
230
-0.0000000000000002
  0
LINE
  5
5537
  8
0
  6
VERDECKT
 62
     1
 10
86.9999999999999289
 20
247.0606601717798867
 30
-0.0000000000000549
 11
84.9393398282201133
 21
249.1213203435596881
 31
-0.0000000000000553
210
0.0
220
1.0
230
-0.0000000000000002
  0
LINE
  5
5538
  8
0
  6
VERDECKT
 62
     1
 10
93.0000000000000426
 20
247.0606601717798867
 30
-0.0000000000000549
 11
95.0606601717798867
 21
249.1213203435596881
 31
-0.0000000000000553
210
0.0
220
1.0
230
-0.0000000000000002
  0
ARC
  5
5539
  8
0
  6
VERDECKT
 62
     1
 10
-82.8180194846604536
 20
247.0
 30
0.0
 40
3.0000000000000848
210
0.0
220
-0.0000000000000002
230
-1.0
 50
90.0000000000005542
 51
134.9999999999988063
  0
ARC
  5
553A
  8
0
  6
VERDECKT
 62
     1
 10
-97.1819805153395038
 20
247.000000000000199
 30
0.0
 40
2.999999999999893
210
0.0
220
-0.0000000000000002
230
-1.0
 50
44.9999999999986429
 51
90.0000000000005542
  0
LINE
  5
553B
  8
0
  6
VERDECKT
 62
     1
 10
40.5
 20
221.5000000000001137
 30
-0.0000000000000492
 11
40.5
 21
220.0000000000001137
 31
-0.0000000000000488
210
0.0
220
1.0
230
-0.0000000000000002
  0
LINE
  5
553C
  8
0
  6
VERDECKT
 62
     1
 10
-40.5
 20
221.5000000000001137
 30
-0.0000000000000492
 11
-40.5
 21
220.0000000000001137
 31
-0.0000000000000488
210
0.0
220
1.0
230
-0.0000000000000002
  0
ARC
  5
553D
  8
0
  6
VERDECKT
 62
     1
 10
44.9240392719524806
 20
227.5000000000001137
 30
0.0
 40
5.9999999999999707
210
0.0
220
-0.0000000000000002
230
-1.0
 50
270.0
 51
338.442403688189188
  0
ARC
  5
553E
  8
0
  6
VERDECKT
 62
     1
 10
-44.9240392719524735
 20
227.5000000000001137
 30
0.0
 40
5.9999999999999956
210
0.0
220
-0.0000000000000002
230
-1.0
 50
201.5575963118114089
 51
270.0
  0
ARC
  5
553F
  8
0
  6
VERDECKT
 62
     1
 10
30.0432604829184413
 20
233.3789814280900998
 30
0.0
 40
21.9999999999997407
210
0.0
220
-0.0000000000000002
230
-1.0
 50
338.4424036881882785
 51
11.2049919799216209
  0
ARC
  5
5540
  8
0
  6
VERDECKT
 62
     1
 10
-30.0432604829183383
 20
233.3789814280900998
 30
0.0
 40
21.9999999999998401
210
0.0
220
-0.0000000000000002
230
-1.0
 50
168.7950080200785123
 51
201.5575963118116078
  0
ARC
  5
5541
  8
0
  6
VERDECKT
 62
     1
 10
57.9999999999999929
 20
238.917096231345397
 30
0.0
 40
6.499999999999992
210
0.0
220
-0.0000000000000002
230
-1.0
 50
120.0
 51
191.2049919799214024
  0
ARC
  5
5542
  8
0
  6
VERDECKT
 62
     1
 10
-57.9999999999999929
 20
238.917096231345397
 30
0.0
 40
6.4999999999999867
210
0.0
220
-0.0000000000000002
230
-1.0
 50
348.795008020078626
 51
59.9999999999999929
  0
LINE
  5
5543
  8
0
  6
VERDECKT
 62
     1
 10
-54.7499999999999929
 20
244.5462613559442104
 30
-0.0000000000000543
 11
-63.4999999999999929
 21
249.5980762113534013
 31
-0.0000000000000554
210
0.0
220
1.0
230
-0.0000000000000002
  0
LINE
  5
5544
  8
0
  6
VERDECKT
 62
     1
 10
54.7499999999999929
 20
244.5462613559442104
 30
-0.0000000000000543
 11
63.4999999999999929
 21
249.5980762113534013
 31
-0.0000000000000554
210
0.0
220
1.0
230
-0.0000000000000002
  0
ARC
  5
5545
  8
0
  6
VERDECKT
 62
     1
 10
65.0000000000000426
 20
247.0
 30
0.0
 40
3.0000000000001421
210
0.0
220
-0.0000000000000002
230
-1.0
 50
90.00000000000081
 51
119.9999999999993037
  0
ARC
  5
5546
  8
0
  6
VERDECKT
 62
     1
 10
-65.0000000000000426
 20
247.0
 30
0.0
 40
3.000000000000143
210
0.0
220
-0.0000000000000002
230
-1.0
 50
60.0000000000006466
 51
89.9999999999992042
  0
LINE
  5
5547
  8
0
  6
VERDECKT
 62
     1
 10
107.1616837842521051
 20
248.3594616805551141
 30
-0.0000000000000551
 11
114.3660726073889009
 21
245.0000000000001137
 31
-0.0000000000000544
210
0.0
220
1.0
230
-0.0000000000000002
  0
LINE
  5
5548
  8
0
  6
VERDECKT
 62
     1
 10
-107.1616837842521051
 20
248.3594616805551141
 30
-0.0000000000000551
 11
-114.3660726073889009
 21
245.0000000000001137
 31
-0.0000000000000544
210
0.0
220
1.0
230
-0.0000000000000002
  0
ARC
  5
5549
  8
0
  6
VERDECKT
 62
     1
 10
106.5277563916411054
 20
247.000000000000199
 30
0.0
 40
1.499999999999942
210
0.0
220
-0.0000000000000002
230
-1.0
 50
64.9999999999992752
 51
89.9999999999994742
  0
ARC
  5
554A
  8
0
  6
VERDECKT
 62
     1
 10
-106.5277563916411054
 20
247.0000000000001137
 30
0.0
 40
1.4999999999999709
210
0.0
220
-0.0000000000000002
230
-1.0
 50
90.0000000000005542
 51
115.0000000000006963
  0
ARC
  5
554B
  8
0
  6
VERDECKT
 62
     1
 10
64.9999999999999432
 20
247.0000000000001137
 30
0.0
 40
1.4999999999999709
210
0.0
220
-0.0000000000000002
230
-1.0
 50
89.9999999999989342
 51
119.9999999999980957
  0
ARC
  5
554C
  8
0
  6
VERDECKT
 62
     1
 10
-64.9999999999999005
 20
247.0000000000005116
 30
0.0
 40
1.4999999999996301
210
0.0
220
-0.0000000000000002
230
-1.0
 50
59.9999999999962412
 51
90.0000000000027285
  0
LINE
  5
554D
  8
0
  6
VERDECKT
 62
     1
 10
-58.5358983848622216
 20
245.0000000000001137
 30
-0.0000000000000544
 11
-64.25
 21
248.2990381056768001
 31
-0.0000000000000551
210
0.0
220
1.0
230
-0.0000000000000002
  0
LINE
  5
554E
  8
0
  6
VERDECKT
 62
     1
 10
58.5358983848622216
 20
245.0000000000001137
 30
-0.0000000000000544
 11
64.25
 21
248.2990381056768001
 31
-0.0000000000000551
210
0.0
220
1.0
230
-0.0000000000000002
  0
LINE
  5
554F
  8
0
  6
VERDECKT
 62
     1
 10
34.2936678383716682
 20
0.1394491883962701
 30
0.0
 11
-34.2936678383716682
 21
0.1394491883962701
 31
0.0
210
0.0
220
1.0
230
-0.0000000000000002
  0
LINE
  5
5550
  8
0
  6
VERDECKT
 62
     1
 10
-34.9000000000000909
 20
7.069857508654537
 30
-0.0000000000000016
 11
-34.9000000000000909
 21
129.999999999999801
 31
-0.0000000000000289
210
0.0
220
1.0
230
-0.0000000000000002
  0
LINE
  5
5551
  8
0
  6
VERDECKT
 62
     1
 10
34.9000000000000909
 20
7.069857508654537
 30
-0.0000000000000016
 11
34.9000000000000909
 21
129.999999999999801
 31
-0.0000000000000289
210
0.0
220
1.0
230
-0.0000000000000002
  0
LINE
  5
5552
  8
0
  6
VERDECKT
 62
     1
 10
-34.2936678383717108
 20
0.139449188396267
 30
0.0
 11
-34.9000000000000625
 21
7.0698575086545361
 31
-0.0000000000000016
210
0.0
220
1.0
230
-0.0000000000000002
  0
LINE
  5
5553
  8
0
  6
VERDECKT
 62
     1
 10
34.2936678383717108
 20
0.139449188396267
 30
0.0
 11
34.9000000000000625
 21
7.0698575086545361
 31
-0.0000000000000016
210
0.0
220
1.0
230
-0.0000000000000002
  0
LINE
  5
5554
  8
0
  6
VERDECKT
 62
     1
 10
34.2936678383716682
 20
0.1394491883962701
 30
0.0
 11
35.8875793553185076
 21
0.0
 31
0.0
210
0.0
220
1.0
230
-0.0000000000000002
  0
LINE
  5
5555
  8
0
  6
VERDECKT
 62
     1
 10
-34.2936678383716682
 20
0.1394491883962701
 30
0.0
 11
-35.8875793553185076
 21
0.0
 31
0.0
210
0.0
220
1.0
230
-0.0000000000000002
  0
ENDBLK
  5
5557
  8
0
  0
ENDSEC
  0
SECTION
  2
ENTITIES
  0
TEXT
  5
8F
  8
VOLL
 10
78.076754716981128
 20
31.025947764705851
 30
0.0
 40
1.8
  1

  7
GREEKS
  0
INSERT
  5
1AAA
  8
ADSK_ASSOC_ENTITY_BACKUPS
  2
*S0
 10
0.0
 20
0.0
 30
0.0
  0
INSERT
  5
54D9
  8
STEMPEL
  2
A$C252CD967
 10
0.0
 20
-165.0
 30
0.0
  0
INSERT
  5
5558
  8
STEMPEL
  2
A$C29877DD4
 10
0.0
 20
0.0
 30
0.0
  0
VIEWPORT
  5
2443
 67
     1
  8
0
 10
145.4912847795820028
 20
205.7226858607199915
 30
0.0
 40
790.2674510967764263
 41
422.1483375959078899
 68
     1
 69
     1
1001
ACAD
1000
MVIEW
1002
{
1070
    16
1010
0.0
1020
0.0
1030
0.0
1010
0.0
1020
0.0
1030
1.0
1040
0.0
1040
422.1483375959078899
1040
145.4912847795820028
1040
205.7226858607199915
1040
50.0
1040
0.0
1040
0.0
1070
     0
1070
  1500
1070
     1
1070
     1
1070
     0
1070
     0
1070
     0
1070
     0
1040
0.0
1040
0.0
1040
0.0
1040
10.0
1040
10.0
1040
10.0
1040
10.0
1070
     0
1002
{
1002
}
1002
}
  0
ENDSEC
  0
EOF
