  0
SECTION
  2
HEADER
  9
$ACADVER
  1
AC1009
  9
$INSBASE
 10
0.0
 20
0.0
 30
0.0
  9
$EXTMIN
 10
-115.0163256586718035
 20
-280.003477545226076
 30
-0.0076477722091681
  9
$EXTMAX
 10
115.0297555292838041
 20
250.6430371397212014
 30
0.011472825359931
  9
$LIMMIN
 10
0.0
 20
0.0
  9
$LIMMAX
 10
419.9999999999998863
 20
594.0
  9
$ORTHOMODE
 70
     1
  9
$REGENMODE
 70
     1
  9
$FILLMODE
 70
     1
  9
$QTEXTMODE
 70
     0
  9
$MIRRTEXT
 70
     1
  9
$DRAGMODE
 70
     2
  9
$LTSCALE
 40
10.0
  9
$OSMODE
 70
   511
  9
$ATTMODE
 70
     1
  9
$TEXTSIZE
 40
3.5
  9
$TRACEWID
 40
0.5
  9
$TEXTSTYLE
  7
STANDARD
  9
$CLAYER
  8
STEMPEL
  9
$CELTYPE
  6
BYLAYER
  9
$CECOLOR
 62
   256
  9
$DIMSCALE
 40
1.0
  9
$DIMASZ
 40
3.5
  9
$DIMEXO
 40
1.0
  9
$DIMDLI
 40
0.38
  9
$DIMRND
 40
0.0
  9
$DIMDLE
 40
0.0
  9
$DIMEXE
 40
1.0
  9
$DIMTP
 40
0.0
  9
$DIMTM
 40
0.000000001
  9
$DIMTXT
 40
3.5
  9
$DIMCEN
 40
0.09
  9
$DIMTSZ
 40
0.0
  9
$DIMTOL
 70
     0
  9
$DIMLIM
 70
     0
  9
$DIMTIH
 70
     0
  9
$DIMTOH
 70
     0
  9
$DIMSE1
 70
     0
  9
$DIMSE2
 70
     0
  9
$DIMTAD
 70
     1
  9
$DIMZIN
 70
     8
  9
$DIMBLK
  1

  9
$DIMASO
 70
     1
  9
$DIMSHO
 70
     0
  9
$DIMPOST
  1

  9
$DIMAPOST
  1

  9
$DIMALT
 70
     0
  9
$DIMALTD
 70
     2
  9
$DIMALTF
 40
25.3999999999999986
  9
$DIMLFAC
 40
2.0
  9
$DIMTOFL
 70
     1
  9
$DIMTVP
 40
0.0
  9
$DIMTIX
 70
     0
  9
$DIMSOXD
 70
     0
  9
$DIMSAH
 70
     0
  9
$DIMBLK1
  1

  9
$DIMBLK2
  1

  9
$DIMSTYLE
  2
LORO
  9
$DIMCLRD
 70
     0
  9
$DIMCLRE
 70
     0
  9
$DIMCLRT
 70
     1
  9
$DIMTFAC
 40
0.5
  9
$DIMGAP
 40
1.5
  9
$LUNITS
 70
     2
  9
$LUPREC
 70
     2
  9
$SKETCHINC
 40
1.0
  9
$FILLETRAD
 40
8.0
  9
$AUNITS
 70
     0
  9
$AUPREC
 70
     0
  9
$MENU
  1
ACAD
  9
$ELEVATION
 40
0.0
  9
$PELEVATION
 40
0.0
  9
$THICKNESS
 40
0.0
  9
$LIMCHECK
 70
     0
  9
$BLIPMODE
 70
     0
  9
$CHAMFERA
 40
0.0
  9
$CHAMFERB
 40
0.0
  9
$SKPOLY
 70
     0
  9
$TDCREATE
 40
2455397.8646990740671754
  9
$TDUPDATE
 40
2459807.4062847220338881
  9
$TDINDWG
 40
0.494892581
  9
$TDUSRTIMER
 40
0.494892581
  9
$USRTIMER
 70
     1
  9
$ANGBASE
 50
0.0
  9
$ANGDIR
 70
     0
  9
$PDMODE
 70
     0
  9
$PDSIZE
 40
0.0
  9
$PLINEWID
 40
0.0
  9
$COORDS
 70
     1
  9
$SPLFRAME
 70
     0
  9
$SPLINETYPE
 70
     6
  9
$SPLINESEGS
 70
     8
  9
$ATTDIA
 70
     1
  9
$ATTREQ
 70
     1
  9
$HANDLING
 70
     1
  9
$HANDSEED
  5
491E
  9
$SURFTAB1
 70
     6
  9
$SURFTAB2
 70
     6
  9
$SURFTYPE
 70
     6
  9
$SURFU
 70
     6
  9
$SURFV
 70
     6
  9
$UCSNAME
  2

  9
$UCSORG
 10
0.0
 20
0.0
 30
0.0
  9
$UCSXDIR
 10
1.0
 20
0.0
 30
0.0
  9
$UCSYDIR
 10
0.0
 20
1.0
 30
0.0
  9
$PUCSNAME
  2

  9
$PUCSORG
 10
0.0
 20
0.0
 30
0.0
  9
$PUCSXDIR
 10
1.0
 20
0.0
 30
0.0
  9
$PUCSYDIR
 10
0.0
 20
1.0
 30
0.0
  9
$USERI1
 70
     0
  9
$USERI2
 70
     0
  9
$USERI3
 70
     0
  9
$USERI4
 70
     0
  9
$USERI5
 70
     0
  9
$USERR1
 40
0.0
  9
$USERR2
 40
0.0
  9
$USERR3
 40
0.0
  9
$USERR4
 40
0.0
  9
$USERR5
 40
0.0
  9
$WORLDVIEW
 70
     1
  9
$SHADEDGE
 70
     3
  9
$SHADEDIF
 70
    70
  9
$TILEMODE
 70
     1
  9
$MAXACTVP
 70
    16
  9
$PLIMCHECK
 70
     0
  9
$PEXTMIN
 10
1.0000000000000000E+20
 20
1.0000000000000000E+20
 30
1.0000000000000000E+20
  9
$PEXTMAX
 10
-1.0000000000000000E+20
 20
-1.0000000000000000E+20
 30
-1.0000000000000000E+20
  9
$PLIMMIN
 10
-3.0262931543373952
 20
-4.2782331089283607
  9
$PLIMMAX
 10
293.9737068456626048
 20
415.7217668910715815
  9
$UNITMODE
 70
     0
  9
$VISRETAIN
 70
     0
  9
$PLINEGEN
 70
     0
  9
$PSLTSCALE
 70
     1
  0
ENDSEC
  0
SECTION
  2
TABLES
  0
TABLE
  2
VPORT
 70
     1
  0
VPORT
  2
*ACTIVE
 70
     0
 10
0.0
 20
0.0
 11
1.0
 21
1.0
 12
0.0067149353060358
 22
-82.1842294495786518
 13
0.0
 23
0.0
 14
1.0
 24
1.0
 15
10.0
 25
10.0
 16
-0.0000000000002467
 26
0.0
 36
1111.1633581559190134
 17
0.0
 27
67.5040092468261719
 37
-0.0000000000000135
 40
533.3608191078882328
 41
1.8720136518771331
 42
50.0
 43
0.0
 44
0.0
 50
0.0
 51
0.0
 71
     0
 72
  1500
 73
     1
 74
     0
 75
     0
 76
     0
 77
     0
 78
     0
  0
ENDTAB
  0
TABLE
  2
LTYPE
 70
     4
  0
LTYPE
  2
CONTINUOUS
 70
     0
  3
Solid line
 72
    65
 73
     0
 40
0.0
  0
LTYPE
  2
STRICHPUNKT
 70
     0
  3
__ . __ . __ . __ . __ . __ . __ . __ . __ . __
 72
    65
 73
     4
 40
1.0
 49
0.5
 49
-0.25
 49
0.0
 49
-0.25
  0
LTYPE
  2
RAND
 70
     0
  3
__ __ . __ __ . __ __ . __ __ . __ __ . __ __
 72
    65
 73
     6
 40
1.75
 49
0.5
 49
-0.25
 49
0.5
 49
-0.25
 49
0.0
 49
-0.25
  0
LTYPE
  2
VERDECKT
 70
     0
  3
Verdeckt __ __ __ __ __ __ __ __ __ __ __ __ __
 72
    65
 73
     2
 40
0.375
 49
0.25
 49
-0.125
  0
ENDTAB
  0
TABLE
  2
LAYER
 70
     6
  0
LAYER
  2
0
 70
     0
 62
     7
  6
CONTINUOUS
  0
LAYER
  2
VOLL
 70
     0
 62
     1
  6
CONTINUOUS
  0
LAYER
  2
STEMPEL
 70
     0
 62
     3
  6
CONTINUOUS
  0
LAYER
  2
ADSK_ASSOC_ENTITY_BACKUPS
 70
     1
 62
    -7
  6
CONTINUOUS
  0
ENDTAB
  0
TABLE
  2
STYLE
 70
     3
  0
STYLE
  2
STANDARD
 70
     0
 40
0.0
 41
0.8
 50
0.0
 71
     0
 42
3.5
  3
simplex.shx
  4

  0
STYLE
  2
GREEKS
 70
     0
 40
0.0
 41
0.8
 50
0.0
 71
     0
 42
2.5
  3
SIMPLEX.shx
  4

  0
ENDTAB
  0
TABLE
  2
VIEW
 70
     0
  0
ENDTAB
  0
TABLE
  2
UCS
 70
     0
  0
ENDTAB
  0
TABLE
  2
APPID
 70
    26
  0
APPID
  2
ACAD
 70
     0
  0
APPID
  2
ACAD_NAV_VCDISPLAY
 70
     0
  0
APPID
  2
ACAD_PSEXT
 70
     0
  0
APPID
  2
ACAECLAYERSTANDARD
 70
     0
  0
APPID
  2
ACCMTRANSPARENCY
 70
     0
  0
APPID
  2
ACADANNOMONITORALERTICONDI
 70
     0
  0
APPID
  2
ACAD_EXEMPT_FROM_CAD_STANDARDS
 70
     0
  0
APPID
  2
ACAD_MLEADERVER
 70
     0
  0
APPID
  2
ACAD_OBJECT_CHANGE_GUID
 70
     0
  0
APPID
  2
ACAD_STEPID
 70
     0
  0
APPID
  2
ACSYNERGY
 70
     0
  0
APPID
  2
SYNERGY_BODY_TBR_ID
 70
     0
  0
APPID
  2
ACAD_VIEW_EDGE_ID
 70
     0
  0
APPID
  2
ACSYNERGYSKETCH
 70
     0
  0
APPID
  2
ACAD_MODELDOC_XFORM
 70
     0
  0
APPID
  2
GRADIENTCOLOR1ACI
 70
     0
  0
APPID
  2
GRADIENTCOLOR2ACI
 70
     0
  0
APPID
  2
ACAD_DSTYLE_DIMJAG
 70
     0
  0
APPID
  2
ACAD_DSTYLE_DIMTALN
 70
     0
  0
APPID
  2
ACAD_DSTYLE_DIMRADIAL_EXTENSION
 70
     0
  0
APPID
  2
ACDBDYNAMICBLOCKGUID
 70
     0
  0
APPID
  2
ACADANNOPO
 70
     0
  0
APPID
  2
ACAD_DSTYLE_DIMBREAK
 70
     0
  0
APPID
  2
ACAD_DIMASSOC_CALC_DIMLFAC
 70
     0
  0
APPID
  2
ACAD_DIMASSOC_DIMLFAC
 70
     0
  0
APPID
  2
ACAD_DIMASSOC_OVERRIDDEN_D
 70
     0
  0
ENDTAB
  0
TABLE
  2
DIMSTYLE
 70
     1
  0
DIMSTYLE
  2
LORO
 70
     0
  3

  4

  5

  6

  7

 40
1.0
 41
3.5
 42
1.0
 43
0.38
 44
1.0
 45
0.0
 46
0.0
 47
0.0
 48
0.000000001
140
3.5
141
0.09
142
0.0
143
25.3999999999999986
144
2.0
145
0.0
146
0.5
147
1.5
 71
     0
 72
     0
 73
     0
 74
     0
 75
     0
 76
     0
 77
     1
 78
     8
170
     0
171
     2
172
     1
173
     0
174
     0
175
     0
176
     0
177
     0
178
     1
  0
ENDTAB
  0
ENDSEC
  0
SECTION
  2
BLOCKS
  0
BLOCK
  8
0
  2
$MODEL_SPACE
 70
     0
 10
0.0
 20
0.0
 30
0.0
  3
$MODEL_SPACE
  1

  0
ENDBLK
  5
36
  8
0
  0
BLOCK
 67
     1
  8
0
  2
$PAPER_SPACE
 70
     0
 10
0.0
 20
0.0
 30
0.0
  3
$PAPER_SPACE
  1

  0
ENDBLK
  5
2438
 67
     1
  8
0
  0
BLOCK
  8
0
  2
*S0
 70
     1
 10
0.0
 20
0.0
 30
0.0
  3
*S0
  1

  0
ENDBLK
  5
1AA8
  8
0
  0
BLOCK
  8
0
  2
A$C65A0F21B
 70
     0
 10
0.0
 20
0.0
 30
0.0
  3
A$C65A0F21B
  1

  0
CIRCLE
  5
4817
  8
0
  6
CONTINUOUS
 62
     3
 10
0.0000000000000335
 20
0.0000000000000213
 30
0.0
 40
28.5
  0
CIRCLE
  5
4818
  8
0
  6
CONTINUOUS
 62
     3
 10
0.0000000000000486
 20
0.0000000000000253
 30
0.0
 40
38.8999999999833719
  0
CIRCLE
  5
4819
  8
0
  6
CONTINUOUS
 62
     3
 10
0.0000000000000496
 20
0.0000000000000255
 30
0.0
 40
39.3756675690100479
  0
CIRCLE
  5
481A
  8
0
  6
CONTINUOUS
 62
     3
 10
0.0000000000000312
 20
0.0000000000000222
 30
0.0
 40
25.0
  0
CIRCLE
  5
481B
  8
0
  6
CONTINUOUS
 62
     3
 10
0.0000000000000335
 20
0.0000000000000228
 30
0.0
 40
28.4999313884541188
  0
CIRCLE
  5
481C
  8
0
  6
CONTINUOUS
 62
     3
 10
0.0000000000000383
 20
-90.0
 30
0.0
 40
3.0000000000000422
  0
CIRCLE
  5
481D
  8
0
  6
CONTINUOUS
 62
     3
 10
-89.9999999999999432
 20
0.0000000000000127
 30
-0.0000000000000284
 40
3.0000000000000422
  0
CIRCLE
  5
481E
  8
0
  6
CONTINUOUS
 62
     3
 10
0.0000000000000604
 20
90.0
 30
0.0
 40
3.0000000000000422
  0
CIRCLE
  5
481F
  8
0
  6
CONTINUOUS
 62
     3
 10
90.0000000000000568
 20
0.0000000000000017
 30
0.0000000000000284
 40
3.0000000000000422
  0
CIRCLE
  5
4820
  8
0
  6
CONTINUOUS
 62
     3
 10
0.0000000000000492
 20
0.0000000000000001
 30
0.0
 40
40.5
  0
CIRCLE
  5
4821
  8
0
  6
CONTINUOUS
 62
     3
 10
0.0000000000000547
 20
0.0000000000000016
 30
0.0
 40
115.0
  0
CIRCLE
  5
4822
  8
0
  6
CONTINUOUS
 62
     3
 10
0.0000000000000531
 20
0.0000000000000012
 30
0.0
 40
51.5
  0
CIRCLE
  5
4823
  8
0
  6
CONTINUOUS
 62
     3
 10
-0.0000000000004547
 20
0.0
 30
0.0
 40
24.5682646352329392
  0
CIRCLE
  5
4824
  8
0
  6
VERDECKT
 62
     1
 10
0.0000000000000335
 20
0.0000000000000213
 30
0.0
 40
30.3962978266523685
  0
CIRCLE
  5
4825
  8
0
  6
VERDECKT
 62
     1
 10
0.0000000000000496
 20
0.0000000000000255
 30
0.0
 40
40.9637414116526628
  0
CIRCLE
  5
4826
  8
0
  6
VERDECKT
 62
     1
 10
0.0000000000000335
 20
0.0000000000000228
 30
0.0
 40
30.1375513255491114
  0
CIRCLE
  5
4827
  8
0
  6
VERDECKT
 62
     1
 10
0.0000000000000312
 20
0.0000000000000222
 30
0.0
 40
26.5
  0
CIRCLE
  5
4828
  8
0
  6
VERDECKT
 62
     1
 10
0.0000000000000381
 20
-90.0
 30
0.0
 40
4.0606601717798263
  0
CIRCLE
  5
4829
  8
0
  6
VERDECKT
 62
     1
 10
-89.9999999999999432
 20
0.0000000000000126
 30
-0.0000000000000284
 40
4.0606601717798263
  0
CIRCLE
  5
482A
  8
0
  6
VERDECKT
 62
     1
 10
0.0000000000000601
 20
90.0
 30
0.0
 40
4.0606601717798263
  0
CIRCLE
  5
482B
  8
0
  6
VERDECKT
 62
     1
 10
90.0000000000000568
 20
0.0000000000000016
 30
0.0000000000000284
 40
4.0606601717798263
  0
CIRCLE
  5
482C
  8
0
  6
VERDECKT
 62
     1
 10
0.0000000000000544
 20
0.0000000000000015
 30
0.0
 40
114.3660726073889009
  0
CIRCLE
  5
482D
  8
0
  6
VERDECKT
 62
     1
 10
0.0000000000000518
 20
0.0000000000000008
 30
0.0
 40
52.0432604829181713
  0
CIRCLE
  5
482E
  8
0
  6
VERDECKT
 62
     1
 10
0.0000000000000531
 20
0.0000000000000012
 30
0.0
 40
53.0
  0
CIRCLE
  5
482F
  8
0
  6
VERDECKT
 62
     1
 10
0.0000000000000518
 20
0.0000000000000008
 30
0.0
 40
53.5432604829181784
  0
CIRCLE
  5
4830
  8
0
  6
VERDECKT
 62
     1
 10
-0.0000000000004547
 20
0.0
 30
0.0
 40
26.0625566823705412
  0
ENDBLK
  5
4832
  8
0
  0
BLOCK
  8
0
  2
A$CDEFEE198
 70
     0
 10
0.0
 20
0.0
 30
0.0
  3
A$CDEFEE198
  1

  0
LINE
  5
4836
  8
0
  6
CONTINUOUS
 62
     3
 10
-30.3962978266523685
 20
151.0008377447614123
 30
-0.0000000000000335
 11
30.3962978266523685
 21
151.0008377447614123
 31
-0.0000000000000335
210
0.0
220
1.0
230
-0.0000000000000002
  0
LINE
  5
4837
  8
0
  6
CONTINUOUS
 62
     3
 10
-40.9637414116526486
 20
219.8058467953113109
 30
-0.0000000000000488
 11
40.9637414116526628
 21
219.8058467953113109
 31
-0.0000000000000488
210
0.0
220
1.0
230
-0.0000000000000002
  0
ARC
  5
4838
  8
0
  6
CONTINUOUS
 62
     3
 10
23.9463308639721788
 20
166.1997861679257085
 30
0.0
 40
13.6000000000166299
210
0.0
220
-0.0000000000000002
230
-1.0
 50
327.5381823459990756
 51
342.8999999999998067
  0
ARC
  5
4839
  8
0
  6
CONTINUOUS
 62
     3
 10
-23.9463308639721788
 20
166.1997861679257085
 30
0.0
 40
13.6000000000166299
210
0.0
220
-0.0000000000000002
230
-1.0
 50
197.0999999999999943
 51
212.461817654000896
  0
LINE
  5
483A
  8
0
  6
CONTINUOUS
 62
     3
 10
-30.3962978266523685
 20
151.0008377447614123
 30
-0.0000000000000335
 11
-35.4213216035159775
 21
158.9001568946106886
 31
-0.0000000000000353
210
0.0
220
1.0
230
-0.0000000000000002
  0
LINE
  5
483B
  8
0
  6
CONTINUOUS
 62
     3
 10
30.3962978266523685
 20
151.0008377447614123
 30
-0.0000000000000335
 11
35.4213216035159633
 21
158.9001568946106886
 31
-0.0000000000000353
210
0.0
220
1.0
230
-0.0000000000000002
  0
LINE
  5
483C
  8
0
  6
CONTINUOUS
 62
     3
 10
39.3824904525655199
 20
220.0000000000001137
 30
-0.0000000000000488
 11
40.9637414116526628
 21
219.8058467953113109
 31
-0.0000000000000488
210
0.0
220
1.0
230
-0.0000000000000002
  0
LINE
  5
483D
  8
0
  6
CONTINUOUS
 62
     3
 10
-39.3824904525655128
 20
220.0000000000001137
 30
-0.0000000000000488
 11
-40.9637414116526628
 21
219.8058467953113109
 31
-0.0000000000000488
210
0.0
220
1.0
230
-0.0000000000000002
  0
LINE
  5
483E
  8
0
  6
CONTINUOUS
 62
     3
 10
-40.5521769385105983
 20
216.4539231485954929
 30
-0.0000000000000481
 11
-40.9637414116526628
 21
219.8058467953113109
 31
-0.0000000000000488
210
0.0
220
1.0
230
-0.0000000000000002
  0
LINE
  5
483F
  8
0
  6
CONTINUOUS
 62
     3
 10
40.5521769385105983
 20
216.4539231485954929
 30
-0.0000000000000481
 11
40.9637414116526628
 21
219.8058467953113109
 31
-0.0000000000000488
210
0.0
220
1.0
230
-0.0000000000000002
  0
ARC
  5
4840
  8
0
  6
CONTINUOUS
 62
     3
 10
47.499999999984297
 20
215.6008377447614066
 30
0.0
 40
6.999999999984305
210
0.0
220
-0.0000000000000002
230
-1.0
 50
173.0
 51
179.9999999999992895
  0
ARC
  5
4841
  8
0
  6
CONTINUOUS
 62
     3
 10
-47.4999999999810072
 20
215.6008377447616908
 30
0.0
 40
6.9999999999810063
210
0.0
220
-0.0000000000000002
230
-1.0
 50
359.9999999999988063
 51
7.0000000000009406
  0
LINE
  5
4842
  8
0
  6
CONTINUOUS
 62
     3
 10
40.5
 20
215.6008377447614919
 30
-0.0000000000000479
 11
40.5
 21
175.8008377447613952
 31
-0.000000000000039
210
0.0
220
1.0
230
-0.0000000000000002
  0
LINE
  5
4843
  8
0
  6
CONTINUOUS
 62
     3
 10
-40.5
 20
215.6008377447614919
 30
-0.0000000000000479
 11
-40.5
 21
175.8008377447613952
 31
-0.000000000000039
210
0.0
220
1.0
230
-0.0000000000000002
  0
ARC
  5
4844
  8
0
  6
CONTINUOUS
 62
     3
 10
26.8999999999831907
 20
175.8008377447615089
 30
0.0
 40
13.60000000001682
210
0.0
220
-0.0000000000000002
230
-1.0
 50
342.9000000000002046
 51
359.9999999999997726
  0
ARC
  5
4845
  8
0
  6
CONTINUOUS
 62
     3
 10
-26.8999999999831907
 20
175.8008377447615089
 30
0.0
 40
13.6000000000168093
210
0.0
220
-0.0000000000000002
230
-1.0
 50
180.0
 51
197.0999999999997954
  0
LINE
  5
4846
  8
0
  6
CONTINUOUS
 62
     3
 10
-36.9451158652453628
 20
162.2008377447614009
 30
-0.000000000000036
 11
-39.8987850012565488
 21
171.8018893215972014
 31
-0.0000000000000381
210
0.0
220
1.0
230
-0.0000000000000002
  0
LINE
  5
4847
  8
0
  6
CONTINUOUS
 62
     3
 10
36.9451158652453628
 20
162.2008377447614009
 30
-0.000000000000036
 11
39.8987850012565488
 21
171.8018893215972014
 31
-0.0000000000000381
210
0.0
220
1.0
230
-0.0000000000000002
  0
LINE
  5
4848
  8
0
  6
CONTINUOUS
 62
     3
 10
-26.5000000000001101
 20
130.0
 30
-0.0000000000000289
 11
26.5000000000001101
 21
130.0
 31
-0.0000000000000289
210
0.0
220
1.0
230
-0.0000000000000002
  0
LINE
  5
4849
  8
0
  6
CONTINUOUS
 62
     3
 10
-27.5065571220454714
 20
144.986681450790087
 30
-0.0000000000000322
 11
-30.1375513255491008
 21
151.0008377447614123
 31
-0.0000000000000335
210
0.0
220
1.0
230
-0.0000000000000002
  0
LINE
  5
484A
  8
0
  6
CONTINUOUS
 62
     3
 10
27.5065571220454714
 20
144.986681450790087
 30
-0.0000000000000322
 11
30.1375513255491008
 21
151.0008377447614123
 31
-0.0000000000000335
210
0.0
220
1.0
230
-0.0000000000000002
  0
ARC
  5
484B
  8
0
  6
CONTINUOUS
 62
     3
 10
37.4540574573835627
 20
140.3998947914708992
 30
0.0
 40
10.9540574573835503
210
0.0
220
-0.0000000000000002
230
-1.0
 50
155.2456005037886086
 51
180.000000000002899
  0
ARC
  5
484C
  8
0
  6
CONTINUOUS
 62
     3
 10
-37.4540574573834135
 20
140.3998947914708992
 30
0.0
 40
10.9540574573833993
210
0.0
220
-0.0000000000000002
230
-1.0
 50
359.9999999999968736
 51
24.7543994962115796
  0
LINE
  5
484D
  8
0
  6
CONTINUOUS
 62
     3
 10
26.5000000000001101
 20
140.3998947914703024
 30
-0.0000000000000312
 11
26.5000000000001101
 21
130.0
 31
-0.0000000000000289
210
0.0
220
1.0
230
-0.0000000000000002
  0
LINE
  5
484E
  8
0
  6
CONTINUOUS
 62
     3
 10
-26.5000000000001101
 20
140.3998947914703024
 30
-0.0000000000000312
 11
-26.5000000000001101
 21
130.0
 31
-0.0000000000000289
210
0.0
220
1.0
230
-0.0000000000000002
  0
LINE
  5
484F
  8
0
  6
CONTINUOUS
 62
     3
 10
-44.9240392719524522
 20
220.0000000000001137
 30
-0.0000000000000488
 11
44.9240392719524735
 21
220.0000000000001137
 31
-0.0000000000000488
210
0.0
220
1.0
230
-0.0000000000000002
  0
LINE
  5
4850
  8
0
  6
CONTINUOUS
 62
     3
 10
-106.527756391641006
 20
250.0
 30
-0.0000000000000555
 11
106.527756391641006
 21
250.0
 31
-0.0000000000000555
210
0.0
220
1.0
230
-0.0000000000000002
  0
LINE
  5
4851
  8
0
  6
CONTINUOUS
 62
     3
 10
-115.0
 20
246.3594616805550004
 30
-0.0000000000000547
 11
115.0
 21
246.3594616805550004
 31
-0.0000000000000547
210
0.0
220
1.0
230
-0.0000000000000002
  0
LINE
  5
4852
  8
0
  6
CONTINUOUS
 62
     3
 10
-114.3660726073889009
 20
245.0000000000001137
 30
-0.0000000000000544
 11
114.3660726073889009
 21
245.0000000000001137
 31
-0.0000000000000544
210
0.0
220
1.0
230
-0.0000000000000002
  0
ARC
  5
4853
  8
0
  6
CONTINUOUS
 62
     3
 10
106.527756391641006
 20
247.0000000000001137
 30
0.0
 40
2.9999999999999432
210
0.0
220
-0.0000000000000002
230
-1.0
 50
64.9999999999994884
 51
89.99999999999973
  0
ARC
  5
4854
  8
0
  6
CONTINUOUS
 62
     3
 10
-106.527756391641006
 20
247.0
 30
0.0
 40
3.0000000000000271
210
0.0
220
-0.0000000000000002
230
-1.0
 50
90.0000000000005542
 51
115.0000000000002984
  0
LINE
  5
4855
  8
0
  6
CONTINUOUS
 62
     3
 10
107.7956111768632042
 20
249.7189233611100008
 30
-0.0000000000000554
 11
115.0
 21
246.3594616805550004
 31
-0.0000000000000547
210
0.0
220
1.0
230
-0.0000000000000002
  0
LINE
  5
4856
  8
0
  6
CONTINUOUS
 62
     3
 10
-107.7956111768632042
 20
249.7189233611100008
 30
-0.0000000000000554
 11
-115.0
 21
246.3594616805550004
 31
-0.0000000000000547
210
0.0
220
1.0
230
-0.0000000000000002
  0
LINE
  5
4857
  8
0
  6
CONTINUOUS
 62
     3
 10
-114.3660726073889009
 20
245.0000000000001137
 30
-0.0000000000000544
 11
-115.0
 21
246.3594616805550004
 31
-0.0000000000000547
210
0.0
220
1.0
230
-0.0000000000000002
  0
LINE
  5
4858
  8
0
  6
CONTINUOUS
 62
     3
 10
114.3660726073889009
 20
245.0000000000001137
 30
-0.0000000000000544
 11
115.0
 21
246.3594616805550004
 31
-0.0000000000000547
210
0.0
220
1.0
230
-0.0000000000000002
  0
LINE
  5
4859
  8
0
  6
CONTINUOUS
 62
     3
 10
-55.4999999999999929
 20
243.2472232502674956
 30
-0.000000000000054
 11
-58.5358983848622216
 21
245.0000000000001137
 31
-0.0000000000000544
210
0.0
220
1.0
230
-0.0000000000000002
  0
LINE
  5
485A
  8
0
  6
CONTINUOUS
 62
     3
 10
55.4999999999999929
 20
243.2472232502674956
 30
-0.000000000000054
 11
58.5358983848622216
 21
245.0000000000001137
 31
-0.0000000000000544
210
0.0
220
1.0
230
-0.0000000000000002
  0
ARC
  5
485B
  8
0
  6
CONTINUOUS
 62
     3
 10
58.0000000000000071
 20
238.9170962313453117
 30
0.0
 40
5.0000000000000018
210
0.0
220
-0.0000000000000002
230
-1.0
 50
120.000000000000199
 51
191.2049919799212034
  0
ARC
  5
485C
  8
0
  6
CONTINUOUS
 62
     3
 10
-58.0000000000000071
 20
238.9170962313453117
 30
0.0
 40
5.0000000000000124
210
0.0
220
-0.0000000000000002
230
-1.0
 50
348.7950080200786829
 51
59.9999999999997513
  0
ARC
  5
485D
  8
0
  6
CONTINUOUS
 62
     3
 10
30.0432604829181713
 20
233.3789814280900998
 30
0.0
 40
23.5000000000000213
210
0.0
220
-0.0000000000000002
230
-1.0
 50
338.4424036881883922
 51
11.2049919799213598
  0
ARC
  5
485E
  8
0
  6
CONTINUOUS
 62
     3
 10
-30.0432604829181713
 20
233.3789814280900998
 30
0.0
 40
23.5
210
0.0
220
-0.0000000000000002
230
-1.0
 50
168.7950080200785976
 51
201.5575963118116078
  0
ARC
  5
485F
  8
0
  6
CONTINUOUS
 62
     3
 10
44.9240392719524735
 20
227.5000000000001137
 30
0.0
 40
7.5
210
0.0
220
-0.0000000000000002
230
-1.0
 50
270.0
 51
338.4424036881883922
  0
ARC
  5
4860
  8
0
  6
CONTINUOUS
 62
     3
 10
-44.9240392719524735
 20
227.5000000000001137
 30
0.0
 40
7.5000000000000044
210
0.0
220
-0.0000000000000002
230
-1.0
 50
201.5575963118116078
 51
270.0
  0
LINE
  5
4861
  8
0
  6
CONTINUOUS
 62
     3
 10
26.06255668237009
 20
0.0
 30
0.0
 11
-26.0625566823709995
 21
0.0
 31
0.0
210
0.0
220
1.0
230
-0.0000000000000002
  0
LINE
  5
4862
  8
0
  6
CONTINUOUS
 62
     3
 10
26.5
 20
130.0
 30
-0.0000000000000289
 11
-26.5
 21
130.0
 31
-0.0000000000000289
210
0.0
220
1.0
230
-0.0000000000000002
  0
ARC
  5
4863
  8
0
  6
CONTINUOUS
 62
     3
 10
-25.4999999999992788
 20
5.0436609429058787
 30
0.0
 40
1.000000000000262
210
0.0
220
-0.0000000000000002
230
-1.0
 50
179.9999999999994884
 51
184.999999999997101
  0
ARC
  5
4864
  8
0
  6
CONTINUOUS
 62
     3
 10
25.5000000000001883
 20
5.0436609429058787
 30
0.0
 40
1.000000000000262
210
0.0
220
-0.0000000000000002
230
-1.0
 50
355.000000000002899
 51
0.0000000000005089
  0
LINE
  5
4865
  8
0
  6
CONTINUOUS
 62
     3
 10
-26.0625566823712198
 20
-0.00000000000002
 30
0.0
 11
-26.4961946980922001
 21
4.9565052001582481
 31
-0.0000000000000011
210
0.0
220
1.0
230
-0.0000000000000002
  0
LINE
  5
4866
  8
0
  6
CONTINUOUS
 62
     3
 10
26.0625566823703103
 20
-0.00000000000002
 30
0.0
 11
26.4961946980912906
 21
4.9565052001582481
 31
-0.0000000000000011
210
0.0
220
1.0
230
-0.0000000000000002
  0
LINE
  5
4867
  8
0
  6
CONTINUOUS
 62
     3
 10
-26.5000000000004583
 20
5.0436609429058876
 30
-0.0000000000000011
 11
-26.5000000000004583
 21
130.0
 31
-0.0000000000000289
210
0.0
220
1.0
230
-0.0000000000000002
  0
LINE
  5
4868
  8
0
  6
CONTINUOUS
 62
     3
 10
26.4999999999995488
 20
5.0436609429058876
 30
-0.0000000000000011
 11
26.4999999999995488
 21
130.0
 31
-0.0000000000000289
210
0.0
220
1.0
230
-0.0000000000000002
  0
LINE
  5
4869
  8
0
  6
VERDECKT
 62
     1
 10
-39.3756675690100479
 20
220.0008377447614976
 30
-0.0000000000000488
 11
39.3756675690100479
 21
220.0008377447614976
 31
-0.0000000000000488
210
0.0
220
1.0
230
-0.0000000000000002
  0
LINE
  5
486A
  8
0
  6
VERDECKT
 62
     1
 10
-28.5
 20
151.0008377447614123
 30
-0.0000000000000335
 11
-34.0713226929690123
 21
159.7589368091261974
 31
-0.0000000000000355
210
0.0
220
1.0
230
-0.0000000000000002
  0
LINE
  5
486B
  8
0
  6
VERDECKT
 62
     1
 10
28.5
 20
151.0008377447614123
 30
-0.0000000000000335
 11
34.0713226929690123
 21
159.7589368091261974
 31
-0.0000000000000355
210
0.0
220
1.0
230
-0.0000000000000002
  0
ARC
  5
486C
  8
0
  6
VERDECKT
 62
     1
 10
23.9463308639723316
 20
166.1997861679255948
 30
0.0
 40
11.9999999999998295
210
0.0
220
-0.0000000000000002
230
-1.0
 50
327.5381823459987913
 51
342.8999999999999773
  0
ARC
  5
486D
  8
0
  6
VERDECKT
 62
     1
 10
-23.9463308639723316
 20
166.1997861679255948
 30
0.0
 40
11.9999999999998295
210
0.0
220
-0.0000000000000002
230
-1.0
 50
197.0999999999999091
 51
212.461817654001095
  0
LINE
  5
486E
  8
0
  6
VERDECKT
 62
     1
 10
-35.4158470415521265
 20
162.6713022651379958
 30
-0.0000000000000361
 11
-38.3695161775633409
 21
172.2723538419737963
 31
-0.0000000000000383
210
0.0
220
1.0
230
-0.0000000000000002
  0
LINE
  5
486F
  8
0
  6
VERDECKT
 62
     1
 10
35.4158470415521265
 20
162.6713022651379958
 30
-0.0000000000000361
 11
38.3695161775633409
 21
172.2723538419737963
 31
-0.0000000000000383
210
0.0
220
1.0
230
-0.0000000000000002
  0
ARC
  5
4870
  8
0
  6
VERDECKT
 62
     1
 10
26.8999999999833896
 20
175.8008377447613952
 30
0.0
 40
11.9999999999999698
210
0.0
220
-0.0000000000000002
230
-1.0
 50
342.8999999999998067
 51
0.0
  0
ARC
  5
4871
  8
0
  6
VERDECKT
 62
     1
 10
-26.8999999999836916
 20
175.8008377447613952
 30
0.0
 40
11.9999999999996803
210
0.0
220
-0.0000000000000002
230
-1.0
 50
179.9999999999996874
 51
197.1000000000001933
  0
LINE
  5
4872
  8
0
  6
VERDECKT
 62
     1
 10
38.8999999999833719
 20
215.6008377447614919
 30
-0.0000000000000479
 11
38.8999999999833719
 21
175.8008377447613952
 31
-0.000000000000039
210
0.0
220
1.0
230
-0.0000000000000002
  0
LINE
  5
4873
  8
0
  6
VERDECKT
 62
     1
 10
-38.8999999999833719
 20
215.6008377447614919
 30
-0.0000000000000479
 11
-38.8999999999833719
 21
175.8008377447613952
 31
-0.000000000000039
210
0.0
220
1.0
230
-0.0000000000000002
  0
ARC
  5
4874
  8
0
  6
VERDECKT
 62
     1
 10
47.4999999999850928
 20
215.6008377447614066
 30
0.0
 40
8.600000000001728
210
0.0
220
-0.0000000000000002
230
-1.0
 50
173.0000000000005969
 51
179.9999999999992042
  0
ARC
  5
4875
  8
0
  6
VERDECKT
 62
     1
 10
-47.4999999999850928
 20
215.6008377447614066
 30
0.0
 40
8.600000000001728
210
0.0
220
-0.0000000000000002
230
-1.0
 50
0.0000000000007633
 51
6.999999999999388
  0
LINE
  5
4876
  8
0
  6
VERDECKT
 62
     1
 10
-38.9641030958679835
 20
216.6489140980457933
 30
-0.0000000000000481
 11
-39.3756675690100479
 21
220.0008377447614976
 31
-0.0000000000000488
210
0.0
220
1.0
230
-0.0000000000000002
  0
LINE
  5
4877
  8
0
  6
VERDECKT
 62
     1
 10
38.9641030958679835
 20
216.6489140980457933
 30
-0.0000000000000481
 11
39.3756675690100479
 21
220.0008377447614976
 31
-0.0000000000000488
210
0.0
220
1.0
230
-0.0000000000000002
  0
LINE
  5
4878
  8
0
  6
VERDECKT
 62
     1
 10
39.3756675690100479
 20
220.0008377447614976
 30
-0.0000000000000488
 11
39.3824904525655199
 21
220.0000000000001137
 31
-0.0000000000000488
210
0.0
220
1.0
230
-0.0000000000000002
  0
LINE
  5
4879
  8
0
  6
VERDECKT
 62
     1
 10
-39.3756675690100479
 20
220.0008377447614976
 30
-0.0000000000000488
 11
-39.3824904525655128
 21
220.0000000000001137
 31
-0.0000000000000488
210
0.0
220
1.0
230
-0.0000000000000002
  0
LINE
  5
487A
  8
0
  6
VERDECKT
 62
     1
 10
-28.4999313884541188
 20
151.0
 30
-0.0000000000000335
 11
28.4999313884541188
 21
151.0
 31
-0.0000000000000335
210
0.0
220
1.0
230
-0.0000000000000002
  0
LINE
  5
487B
  8
0
  6
VERDECKT
 62
     1
 10
25.0
 20
140.3998947914703024
 30
-0.0000000000000312
 11
25.0
 21
130.0
 31
-0.0000000000000289
210
0.0
220
1.0
230
-0.0000000000000002
  0
LINE
  5
487C
  8
0
  6
VERDECKT
 62
     1
 10
-25.0
 20
140.3998947914703024
 30
-0.0000000000000312
 11
-25.0
 21
130.0
 31
-0.0000000000000289
210
0.0
220
1.0
230
-0.0000000000000002
  0
ARC
  5
487D
  8
0
  6
VERDECKT
 62
     1
 10
38.5292614036995715
 20
140.1646133743363123
 30
0.0
 40
13.5313070867113101
210
0.0
220
-0.0000000000000002
230
-1.0
 50
156.3722149488552873
 51
179.0036948023600019
  0
ARC
  5
487E
  8
0
  6
VERDECKT
 62
     1
 10
-38.5292614036996568
 20
140.1646133743363123
 30
0.0
 40
13.5313070867114007
210
0.0
220
-0.0000000000000002
230
-1.0
 50
0.9963051976400844
 51
23.6277850511446808
  0
LINE
  5
487F
  8
0
  6
VERDECKT
 62
     1
 10
-26.132304407580019
 20
145.5878715012601958
 30
-0.0000000000000323
 11
-28.4999313884541188
 21
151.0
 31
-0.0000000000000335
210
0.0
220
1.0
230
-0.0000000000000002
  0
LINE
  5
4880
  8
0
  6
VERDECKT
 62
     1
 10
26.132304407580019
 20
145.5878715012601958
 30
-0.0000000000000323
 11
28.4999313884541188
 21
151.0
 31
-0.0000000000000335
210
0.0
220
1.0
230
-0.0000000000000002
  0
LINE
  5
4881
  8
0
  6
VERDECKT
 62
     1
 10
-28.4999313884541188
 20
151.0
 30
-0.0000000000000335
 11
-30.1375513255491114
 21
151.0008377447614123
 31
-0.0000000000000335
210
0.0
220
1.0
230
-0.0000000000000002
  0
LINE
  5
4882
  8
0
  6
VERDECKT
 62
     1
 10
28.4999313884541188
 20
151.0
 30
-0.0000000000000335
 11
30.1375513255491114
 21
151.0008377447614123
 31
-0.0000000000000335
210
0.0
220
1.0
230
-0.0000000000000002
  0
LINE
  5
4883
  8
0
  6
VERDECKT
 62
     1
 10
-4.0606601717798378
 20
246.0
 30
-0.0000000000000546
 11
-0.0000000000000169
 21
246.0
 31
-0.0000000000000546
210
0.0
220
1.0
230
-0.0000000000000002
  0
LINE
  5
4884
  8
0
  6
VERDECKT
 62
     1
 10
-0.0000000000000163
 20
246.0
 30
-0.0000000000000546
 11
4.0606601717798094
 21
246.0
 31
-0.0000000000000546
210
0.0
220
1.0
230
-0.0000000000000002
  0
LINE
  5
4885
  8
0
  6
VERDECKT
 62
     1
 10
-3.0000000000000582
 20
247.0606601717798867
 30
-0.0000000000000549
 11
-0.0000000000000169
 21
247.0606601717798867
 31
-0.0000000000000549
210
0.0
220
1.0
230
-0.0000000000000002
  0
LINE
  5
4886
  8
0
  6
VERDECKT
 62
     1
 10
-0.000000000000016
 20
247.0606601717798867
 30
-0.0000000000000549
 11
3.0000000000000249
 21
247.0606601717798867
 31
-0.0000000000000549
210
0.0
220
1.0
230
-0.0000000000000002
  0
LINE
  5
4887
  8
0
  6
VERDECKT
 62
     1
 10
-94.0606601717798156
 20
246.0
 30
-0.0000000000000546
 11
-85.9393398282201701
 21
246.0
 31
-0.0000000000000546
210
0.0
220
1.0
230
-0.0000000000000002
  0
LINE
  5
4888
  8
0
  6
VERDECKT
 62
     1
 10
-93.0000000000000426
 20
247.0606601717798867
 30
-0.0000000000000549
 11
-86.9999999999999432
 21
247.0606601717798867
 31
-0.0000000000000549
210
0.0
220
1.0
230
-0.0000000000000002
  0
LINE
  5
4889
  8
0
  6
VERDECKT
 62
     1
 10
85.9393398282201701
 20
246.0
 30
-0.0000000000000546
 11
94.0606601717798156
 21
246.0
 31
-0.0000000000000546
210
0.0
220
1.0
230
-0.0000000000000002
  0
LINE
  5
488A
  8
0
  6
VERDECKT
 62
     1
 10
86.9999999999999432
 20
247.0606601717798867
 30
-0.0000000000000549
 11
93.0000000000000426
 21
247.0606601717798867
 31
-0.0000000000000549
210
0.0
220
1.0
230
-0.0000000000000002
  0
LINE
  5
488B
  8
0
  6
VERDECKT
 62
     1
 10
-44.9240392719524522
 20
221.5000000000001137
 30
-0.0000000000000492
 11
44.9240392719524735
 21
221.5000000000001137
 31
-0.0000000000000492
210
0.0
220
1.0
230
-0.0000000000000002
  0
LINE
  5
488C
  8
0
  6
VERDECKT
 62
     1
 10
-106.5277563916411054
 20
248.5000000000001137
 30
-0.0000000000000552
 11
106.5277563916411054
 21
248.5000000000001137
 31
-0.0000000000000552
210
0.0
220
1.0
230
-0.0000000000000002
  0
ARC
  5
488D
  8
0
  6
VERDECKT
 62
     1
 10
7.1819805153394762
 20
247.0
 30
0.0
 40
1.5
210
0.0
220
-0.0000000000000002
230
-1.0
 50
89.9999999999999432
 51
134.9999999999994031
  0
ARC
  5
488E
  8
0
  6
VERDECKT
 62
     1
 10
-7.1819805153394398
 20
247.0000000000001137
 30
0.0
 40
1.499999999999974
210
0.0
220
-0.0000000000000002
230
-1.0
 50
44.9999999999999076
 51
90.0000000000001137
  0
LINE
  5
488F
  8
0
  6
VERDECKT
 62
     1
 10
-4.0606601717798396
 20
246.0
 30
-0.0000000000000546
 11
-6.1213203435596606
 21
248.0606601717798867
 31
-0.0000000000000551
210
0.0
220
1.0
230
-0.0000000000000002
  0
LINE
  5
4890
  8
0
  6
VERDECKT
 62
     1
 10
4.0606601717798059
 20
246.0
 30
-0.0000000000000546
 11
6.1213203435596268
 21
248.0606601717798867
 31
-0.0000000000000551
210
0.0
220
1.0
230
-0.0000000000000002
  0
LINE
  5
4891
  8
0
  6
VERDECKT
 62
     1
 10
3.0000000000000249
 20
247.0606601717798867
 30
-0.0000000000000549
 11
4.0606601717798192
 21
246.0
 31
-0.0000000000000546
210
0.0
220
1.0
230
-0.0000000000000002
  0
LINE
  5
4892
  8
0
  6
VERDECKT
 62
     1
 10
-3.0000000000000582
 20
247.0606601717798867
 30
-0.0000000000000549
 11
-4.0606601717798521
 21
246.0
 31
-0.0000000000000546
210
0.0
220
1.0
230
-0.0000000000000002
  0
LINE
  5
4893
  8
0
  6
VERDECKT
 62
     1
 10
-3.0000000000000742
 20
247.0606601717798867
 30
-0.0000000000000549
 11
-5.0606601717799231
 21
249.1213203435596881
 31
-0.0000000000000553
210
0.0
220
1.0
230
-0.0000000000000002
  0
LINE
  5
4894
  8
0
  6
VERDECKT
 62
     1
 10
3.00000000000004
 20
247.0606601717798867
 30
-0.0000000000000549
 11
5.0606601717798902
 21
249.1213203435596881
 31
-0.0000000000000553
210
0.0
220
1.0
230
-0.0000000000000002
  0
ARC
  5
4895
  8
0
  6
VERDECKT
 62
     1
 10
7.1819805153395473
 20
247.0000000000001137
 30
0.0
 40
3.0
210
0.0
220
-0.0000000000000002
230
-1.0
 50
89.9999999999999858
 51
134.9999999999994884
  0
ARC
  5
4896
  8
0
  6
VERDECKT
 62
     1
 10
-7.1819805153395118
 20
247.0000000000001137
 30
0.0
 40
2.9999999999999991
210
0.0
220
-0.0000000000000002
230
-1.0
 50
45.0000000000004832
 51
90.0000000000000568
  0
ARC
  5
4897
  8
0
  6
VERDECKT
 62
     1
 10
97.1819805153394611
 20
247.0000000000001137
 30
0.0
 40
1.4999999999999141
210
0.0
220
-0.0000000000000002
230
-1.0
 50
89.99999999999946
 51
135.0000000000011084
  0
ARC
  5
4898
  8
0
  6
VERDECKT
 62
     1
 10
82.8180194846605531
 20
247.0000000000001137
 30
0.0
 40
1.499999999999921
210
0.0
220
-0.0000000000000002
230
-1.0
 50
44.9999999999988631
 51
90.0000000000005542
  0
LINE
  5
4899
  8
0
  6
VERDECKT
 62
     1
 10
-94.0606601717798156
 20
246.0
 30
-0.0000000000000546
 11
-96.1213203435596455
 21
248.0606601717798867
 31
-0.0000000000000551
210
0.0
220
1.0
230
-0.0000000000000002
  0
LINE
  5
489A
  8
0
  6
VERDECKT
 62
     1
 10
-85.9393398282201701
 20
246.0
 30
-0.0000000000000546
 11
-83.8786796564403545
 21
248.0606601717798867
 31
-0.0000000000000551
210
0.0
220
1.0
230
-0.0000000000000002
  0
LINE
  5
489B
  8
0
  6
VERDECKT
 62
     1
 10
-86.9999999999999289
 20
247.0606601717798014
 30
-0.0000000000000549
 11
-85.9393398282201701
 21
246.0
 31
-0.0000000000000546
210
0.0
220
1.0
230
-0.0000000000000002
  0
LINE
  5
489C
  8
0
  6
VERDECKT
 62
     1
 10
-93.0000000000000426
 20
247.0606601717798867
 30
-0.0000000000000549
 11
-94.0606601717798156
 21
246.0
 31
-0.0000000000000546
210
0.0
220
1.0
230
-0.0000000000000002
  0
LINE
  5
489D
  8
0
  6
VERDECKT
 62
     1
 10
-93.0000000000000426
 20
247.0606601717798867
 30
-0.0000000000000549
 11
-95.0606601717798867
 21
249.1213203435596881
 31
-0.0000000000000553
210
0.0
220
1.0
230
-0.0000000000000002
  0
LINE
  5
489E
  8
0
  6
VERDECKT
 62
     1
 10
-86.9999999999999289
 20
247.0606601717798867
 30
-0.0000000000000549
 11
-84.9393398282201133
 21
249.1213203435596029
 31
-0.0000000000000553
210
0.0
220
1.0
230
-0.0000000000000002
  0
ARC
  5
489F
  8
0
  6
VERDECKT
 62
     1
 10
97.1819805153395038
 20
247.000000000000199
 30
0.0
 40
2.9999999999998859
210
0.0
220
-0.0000000000000002
230
-1.0
 50
89.99999999999946
 51
135.0000000000013074
  0
ARC
  5
48A0
  8
0
  6
VERDECKT
 62
     1
 10
82.8180194846604536
 20
247.0
 30
0.0
 40
3.0000000000000839
210
0.0
220
-0.0000000000000002
230
-1.0
 50
45.0000000000011511
 51
89.9999999999994458
  0
ARC
  5
48A1
  8
0
  6
VERDECKT
 62
     1
 10
-82.8180194846605531
 20
247.0000000000001137
 30
0.0
 40
1.4999999999999141
210
0.0
220
-0.0000000000000002
230
-1.0
 50
89.99999999999946
 51
135.0000000000011084
  0
ARC
  5
48A2
  8
0
  6
VERDECKT
 62
     1
 10
-97.1819805153394611
 20
247.0000000000001137
 30
0.0
 40
1.499999999999921
210
0.0
220
-0.0000000000000002
230
-1.0
 50
44.9999999999988631
 51
90.0000000000005542
  0
LINE
  5
48A3
  8
0
  6
VERDECKT
 62
     1
 10
85.9393398282201701
 20
246.0
 30
-0.0000000000000546
 11
83.8786796564403545
 21
248.0606601717798867
 31
-0.0000000000000551
210
0.0
220
1.0
230
-0.0000000000000002
  0
LINE
  5
48A4
  8
0
  6
VERDECKT
 62
     1
 10
94.0606601717798156
 20
246.0
 30
-0.0000000000000546
 11
96.1213203435596455
 21
248.0606601717798867
 31
-0.0000000000000551
210
0.0
220
1.0
230
-0.0000000000000002
  0
LINE
  5
48A5
  8
0
  6
VERDECKT
 62
     1
 10
93.0000000000000426
 20
247.0606601717798867
 30
-0.0000000000000549
 11
94.0606601717798156
 21
246.0
 31
-0.0000000000000546
210
0.0
220
1.0
230
-0.0000000000000002
  0
LINE
  5
48A6
  8
0
  6
VERDECKT
 62
     1
 10
86.9999999999999289
 20
247.0606601717798014
 30
-0.0000000000000549
 11
85.9393398282201701
 21
246.0
 31
-0.0000000000000546
210
0.0
220
1.0
230
-0.0000000000000002
  0
LINE
  5
48A7
  8
0
  6
VERDECKT
 62
     1
 10
86.9999999999999289
 20
247.0606601717798867
 30
-0.0000000000000549
 11
84.9393398282201133
 21
249.1213203435596029
 31
-0.0000000000000553
210
0.0
220
1.0
230
-0.0000000000000002
  0
LINE
  5
48A8
  8
0
  6
VERDECKT
 62
     1
 10
93.0000000000000426
 20
247.0606601717798867
 30
-0.0000000000000549
 11
95.0606601717798867
 21
249.1213203435596881
 31
-0.0000000000000553
210
0.0
220
1.0
230
-0.0000000000000002
  0
ARC
  5
48A9
  8
0
  6
VERDECKT
 62
     1
 10
-82.8180194846604536
 20
247.0
 30
0.0
 40
3.0000000000000848
210
0.0
220
-0.0000000000000002
230
-1.0
 50
90.0000000000005542
 51
134.9999999999988063
  0
ARC
  5
48AA
  8
0
  6
VERDECKT
 62
     1
 10
-97.1819805153395038
 20
247.000000000000199
 30
0.0
 40
2.999999999999893
210
0.0
220
-0.0000000000000002
230
-1.0
 50
44.9999999999986429
 51
90.0000000000005542
  0
LINE
  5
48AB
  8
0
  6
VERDECKT
 62
     1
 10
40.5
 20
221.5000000000001137
 30
-0.0000000000000492
 11
40.5
 21
220.0000000000001137
 31
-0.0000000000000488
210
0.0
220
1.0
230
-0.0000000000000002
  0
LINE
  5
48AC
  8
0
  6
VERDECKT
 62
     1
 10
-40.5
 20
221.5000000000001137
 30
-0.0000000000000492
 11
-40.5
 21
220.0000000000001137
 31
-0.0000000000000488
210
0.0
220
1.0
230
-0.0000000000000002
  0
ARC
  5
48AD
  8
0
  6
VERDECKT
 62
     1
 10
44.9240392719524806
 20
227.5
 30
0.0
 40
5.9999999999999707
210
0.0
220
-0.0000000000000002
230
-1.0
 50
270.0
 51
338.442403688189188
  0
ARC
  5
48AE
  8
0
  6
VERDECKT
 62
     1
 10
-44.9240392719524735
 20
227.5000000000001137
 30
0.0
 40
5.9999999999999956
210
0.0
220
-0.0000000000000002
230
-1.0
 50
201.5575963118114089
 51
270.0
  0
ARC
  5
48AF
  8
0
  6
VERDECKT
 62
     1
 10
30.0432604829184413
 20
233.3789814280899861
 30
0.0
 40
21.9999999999997407
210
0.0
220
-0.0000000000000002
230
-1.0
 50
338.4424036881882785
 51
11.2049919799216209
  0
ARC
  5
48B0
  8
0
  6
VERDECKT
 62
     1
 10
-30.0432604829183383
 20
233.3789814280899861
 30
0.0
 40
21.9999999999998401
210
0.0
220
-0.0000000000000002
230
-1.0
 50
168.7950080200785123
 51
201.5575963118116078
  0
ARC
  5
48B1
  8
0
  6
VERDECKT
 62
     1
 10
57.9999999999999929
 20
238.9170962313453117
 30
0.0
 40
6.499999999999992
210
0.0
220
-0.0000000000000002
230
-1.0
 50
120.0
 51
191.2049919799214024
  0
ARC
  5
48B2
  8
0
  6
VERDECKT
 62
     1
 10
-57.9999999999999929
 20
238.9170962313453117
 30
0.0
 40
6.4999999999999867
210
0.0
220
-0.0000000000000002
230
-1.0
 50
348.795008020078626
 51
59.9999999999999929
  0
LINE
  5
48B3
  8
0
  6
VERDECKT
 62
     1
 10
-54.7499999999999929
 20
244.5462613559440967
 30
-0.0000000000000543
 11
-63.4999999999999929
 21
249.5980762113534013
 31
-0.0000000000000554
210
0.0
220
1.0
230
-0.0000000000000002
  0
LINE
  5
48B4
  8
0
  6
VERDECKT
 62
     1
 10
54.7499999999999929
 20
244.5462613559440967
 30
-0.0000000000000543
 11
63.4999999999999929
 21
249.5980762113534013
 31
-0.0000000000000554
210
0.0
220
1.0
230
-0.0000000000000002
  0
ARC
  5
48B5
  8
0
  6
VERDECKT
 62
     1
 10
65.0000000000000426
 20
246.9999999999998863
 30
0.0
 40
3.0000000000001421
210
0.0
220
-0.0000000000000002
230
-1.0
 50
90.00000000000081
 51
119.9999999999993037
  0
ARC
  5
48B6
  8
0
  6
VERDECKT
 62
     1
 10
-65.0000000000000426
 20
246.9999999999998863
 30
0.0
 40
3.000000000000143
210
0.0
220
-0.0000000000000002
230
-1.0
 50
60.0000000000006466
 51
89.9999999999992042
  0
LINE
  5
48B7
  8
0
  6
VERDECKT
 62
     1
 10
107.1616837842521051
 20
248.3594616805550004
 30
-0.0000000000000551
 11
114.3660726073889009
 21
245.0000000000001137
 31
-0.0000000000000544
210
0.0
220
1.0
230
-0.0000000000000002
  0
LINE
  5
48B8
  8
0
  6
VERDECKT
 62
     1
 10
-107.1616837842521051
 20
248.3594616805550004
 30
-0.0000000000000551
 11
-114.3660726073889009
 21
245.0000000000001137
 31
-0.0000000000000544
210
0.0
220
1.0
230
-0.0000000000000002
  0
ARC
  5
48B9
  8
0
  6
VERDECKT
 62
     1
 10
106.5277563916411054
 20
247.0000000000001137
 30
0.0
 40
1.499999999999942
210
0.0
220
-0.0000000000000002
230
-1.0
 50
64.9999999999992752
 51
89.9999999999994742
  0
ARC
  5
48BA
  8
0
  6
VERDECKT
 62
     1
 10
-106.5277563916411054
 20
247.0000000000001137
 30
0.0
 40
1.4999999999999709
210
0.0
220
-0.0000000000000002
230
-1.0
 50
90.0000000000005542
 51
115.0000000000006963
  0
ARC
  5
48BB
  8
0
  6
VERDECKT
 62
     1
 10
64.9999999999999432
 20
247.0000000000001137
 30
0.0
 40
1.4999999999999709
210
0.0
220
-0.0000000000000002
230
-1.0
 50
89.9999999999989342
 51
119.9999999999980957
  0
ARC
  5
48BC
  8
0
  6
VERDECKT
 62
     1
 10
-64.9999999999999005
 20
247.0000000000003979
 30
0.0
 40
1.4999999999996301
210
0.0
220
-0.0000000000000002
230
-1.0
 50
59.9999999999962412
 51
90.0000000000027285
  0
LINE
  5
48BD
  8
0
  6
VERDECKT
 62
     1
 10
-58.5358983848622216
 20
245.0000000000001137
 30
-0.0000000000000544
 11
-64.25
 21
248.2990381056766864
 31
-0.0000000000000551
210
0.0
220
1.0
230
-0.0000000000000002
  0
LINE
  5
48BE
  8
0
  6
VERDECKT
 62
     1
 10
58.5358983848622216
 20
245.0000000000001137
 30
-0.0000000000000544
 11
64.25
 21
248.2990381056766864
 31
-0.0000000000000551
210
0.0
220
1.0
230
-0.0000000000000002
  0
LINE
  5
48BF
  8
0
  6
VERDECKT
 62
     1
 10
24.5682646352324809
 20
0.1307336141214535
 30
0.0
 11
-24.5682646352333904
 21
0.1307336141214535
 31
0.0
210
0.0
220
1.0
230
-0.0000000000000002
  0
ARC
  5
48C0
  8
0
  6
VERDECKT
 62
     1
 10
-23.9999999999992788
 20
5.1091523572708777
 30
0.0
 40
1.000000000000262
210
0.0
220
-0.0000000000000002
230
-1.0
 50
179.9999999999994884
 51
184.999999999997101
  0
ARC
  5
48C1
  8
0
  6
VERDECKT
 62
     1
 10
24.0000000000001883
 20
5.1091523572708777
 30
0.0
 40
1.000000000000262
210
0.0
220
-0.0000000000000002
230
-1.0
 50
355.000000000002899
 51
0.0000000000005089
  0
LINE
  5
48C2
  8
0
  6
VERDECKT
 62
     1
 10
-25.0000000000004583
 20
5.1091523572708866
 30
-0.0000000000000011
 11
-25.0000000000004583
 21
130.0
 31
-0.0000000000000289
210
0.0
220
1.0
230
-0.0000000000000002
  0
LINE
  5
48C3
  8
0
  6
VERDECKT
 62
     1
 10
24.9999999999995488
 20
5.1091523572708866
 30
-0.0000000000000011
 11
24.9999999999995488
 21
130.0
 31
-0.0000000000000289
210
0.0
220
1.0
230
-0.0000000000000002
  0
LINE
  5
48C4
  8
0
  6
VERDECKT
 62
     1
 10
-24.5682646352333904
 20
0.1307336141214535
 30
0.0
 11
-24.9961946980922001
 21
5.0219966145232471
 31
-0.0000000000000011
210
0.0
220
1.0
230
-0.0000000000000002
  0
LINE
  5
48C5
  8
0
  6
VERDECKT
 62
     1
 10
24.5682646352324809
 20
0.1307336141214535
 30
0.0
 11
24.9961946980912906
 21
5.0219966145232471
 31
-0.0000000000000011
210
0.0
220
1.0
230
-0.0000000000000002
  0
LINE
  5
48C6
  8
0
  6
VERDECKT
 62
     1
 10
24.5682646352324809
 20
0.1307336141214676
 30
0.0
 11
26.06255668237009
 21
0.0000000000000141
 31
0.0
210
0.0
220
1.0
230
-0.0000000000000002
  0
LINE
  5
48C7
  8
0
  6
VERDECKT
 62
     1
 10
-24.5682646352333904
 20
0.1307336141214676
 30
0.0
 11
-26.0625566823709995
 21
0.0000000000000141
 31
0.0
210
0.0
220
1.0
230
-0.0000000000000002
  0
ENDBLK
  5
48C9
  8
0
  0
ENDSEC
  0
SECTION
  2
ENTITIES
  0
TEXT
  5
8F
  8
VOLL
 10
78.076754716981128
 20
31.025947764705851
 30
0.0
 40
1.8
  1

  7
GREEKS
  0
INSERT
  5
1AAA
  8
ADSK_ASSOC_ENTITY_BACKUPS
  2
*S0
 10
0.0
 20
0.0
 30
0.0
  0
INSERT
  5
4833
  8
STEMPEL
  2
A$C65A0F21B
 10
0.0
 20
-165.0
 30
0.0
  0
INSERT
  5
48CA
  8
STEMPEL
  2
A$CDEFEE198
 10
0.0
 20
0.0
 30
0.0
  0
VIEWPORT
  5
2443
 67
     1
  8
0
 10
145.4737068456626048
 20
205.72176689107161
 30
0.0
 40
790.2674510967764263
 41
422.1483375959078899
 68
     1
 69
     1
1001
ACAD
1000
MVIEW
1002
{
1070
    16
1010
0.0
1020
0.0
1030
0.0
1010
0.0
1020
0.0
1030
1.0
1040
0.0
1040
422.1483375959078899
1040
145.4737068456626048
1040
205.72176689107161
1040
50.0
1040
0.0
1040
0.0
1070
     0
1070
  1500
1070
     1
1070
     1
1070
     0
1070
     0
1070
     0
1070
     0
1040
0.0
1040
0.0
1040
0.0
1040
10.0
1040
10.0
1040
10.0
1040
10.0
1070
     0
1002
{
1002
}
1002
}
  0
ENDSEC
  0
EOF
