  0
SECTION
  2
HEADER
  9
$ACADVER
  1
AC1009
  9
$INSBASE
 10
0.0
 20
0.0
 30
0.0
  9
$EXTMIN
 10
-132.8595657159947052
 20
0.0
 30
-0.0000000000000639
  9
$EXTMAX
 10
95.8299342432308237
 20
288.0000000000001137
 30
0.0
  9
$LIMMIN
 10
0.0
 20
0.0
  9
$LIMMAX
 10
419.9999999999998863
 20
594.0
  9
$ORTHOMODE
 70
     1
  9
$REGENMODE
 70
     1
  9
$FILLMODE
 70
     1
  9
$QTEXTMODE
 70
     0
  9
$MIRRTEXT
 70
     1
  9
$DRAGMODE
 70
     2
  9
$LTSCALE
 40
20.0
  9
$OSMODE
 70
   511
  9
$ATTMODE
 70
     1
  9
$TEXTSIZE
 40
3.5
  9
$TRACEWID
 40
0.5
  9
$TEXTSTYLE
  7
STANDARD
  9
$CLAYER
  8
STEMPEL
  9
$CELTYPE
  6
BYLAYER
  9
$CECOLOR
 62
   256
  9
$DIMSCALE
 40
1.0
  9
$DIMASZ
 40
3.5
  9
$DIMEXO
 40
1.0
  9
$DIMDLI
 40
0.38
  9
$DIMRND
 40
0.0
  9
$DIMDLE
 40
0.0
  9
$DIMEXE
 40
1.0
  9
$DIMTP
 40
0.0
  9
$DIMTM
 40
0.000000001
  9
$DIMTXT
 40
3.5
  9
$DIMCEN
 40
0.09
  9
$DIMTSZ
 40
0.0
  9
$DIMTOL
 70
     0
  9
$DIMLIM
 70
     0
  9
$DIMTIH
 70
     0
  9
$DIMTOH
 70
     0
  9
$DIMSE1
 70
     0
  9
$DIMSE2
 70
     0
  9
$DIMTAD
 70
     1
  9
$DIMZIN
 70
     8
  9
$DIMBLK
  1

  9
$DIMASO
 70
     1
  9
$DIMSHO
 70
     0
  9
$DIMPOST
  1

  9
$DIMAPOST
  1

  9
$DIMALT
 70
     0
  9
$DIMALTD
 70
     2
  9
$DIMALTF
 40
25.3999999999999986
  9
$DIMLFAC
 40
2.0
  9
$DIMTOFL
 70
     1
  9
$DIMTVP
 40
0.0
  9
$DIMTIX
 70
     0
  9
$DIMSOXD
 70
     0
  9
$DIMSAH
 70
     0
  9
$DIMBLK1
  1

  9
$DIMBLK2
  1

  9
$DIMSTYLE
  2
LORO
  9
$DIMCLRD
 70
     0
  9
$DIMCLRE
 70
     0
  9
$DIMCLRT
 70
     1
  9
$DIMTFAC
 40
0.5
  9
$DIMGAP
 40
1.5
  9
$LUNITS
 70
     2
  9
$LUPREC
 70
     2
  9
$SKETCHINC
 40
1.0
  9
$FILLETRAD
 40
0.0
  9
$AUNITS
 70
     0
  9
$AUPREC
 70
     0
  9
$MENU
  1
ACAD
  9
$ELEVATION
 40
0.0
  9
$PELEVATION
 40
0.0
  9
$THICKNESS
 40
0.0
  9
$LIMCHECK
 70
     0
  9
$BLIPMODE
 70
     0
  9
$CHAMFERA
 40
0.0
  9
$CHAMFERB
 40
0.0
  9
$SKPOLY
 70
     0
  9
$TDCREATE
 40
2455397.8646990740671754
  9
$TDUPDATE
 40
2459137.4293171297758818
  9
$TDINDWG
 40
0.1865106481
  9
$TDUSRTIMER
 40
0.1865106481
  9
$USRTIMER
 70
     1
  9
$ANGBASE
 50
0.0
  9
$ANGDIR
 70
     0
  9
$PDMODE
 70
     0
  9
$PDSIZE
 40
0.0
  9
$PLINEWID
 40
0.0
  9
$COORDS
 70
     1
  9
$SPLFRAME
 70
     0
  9
$SPLINETYPE
 70
     6
  9
$SPLINESEGS
 70
     8
  9
$ATTDIA
 70
     1
  9
$ATTREQ
 70
     1
  9
$HANDLING
 70
     1
  9
$HANDSEED
  5
2288
  9
$SURFTAB1
 70
     6
  9
$SURFTAB2
 70
     6
  9
$SURFTYPE
 70
     6
  9
$SURFU
 70
     6
  9
$SURFV
 70
     6
  9
$UCSNAME
  2

  9
$UCSORG
 10
0.0
 20
0.0
 30
0.0
  9
$UCSXDIR
 10
1.0
 20
0.0
 30
0.0
  9
$UCSYDIR
 10
0.0
 20
1.0
 30
0.0
  9
$PUCSNAME
  2

  9
$PUCSORG
 10
0.0
 20
0.0
 30
0.0
  9
$PUCSXDIR
 10
1.0
 20
0.0
 30
0.0
  9
$PUCSYDIR
 10
0.0
 20
1.0
 30
0.0
  9
$USERI1
 70
     0
  9
$USERI2
 70
     0
  9
$USERI3
 70
     0
  9
$USERI4
 70
     0
  9
$USERI5
 70
     0
  9
$USERR1
 40
0.0
  9
$USERR2
 40
0.0
  9
$USERR3
 40
0.0
  9
$USERR4
 40
0.0
  9
$USERR5
 40
0.0
  9
$WORLDVIEW
 70
     1
  9
$SHADEDGE
 70
     3
  9
$SHADEDIF
 70
    70
  9
$TILEMODE
 70
     1
  9
$MAXACTVP
 70
    16
  9
$PLIMCHECK
 70
     0
  9
$PEXTMIN
 10
1.0000000000000000E+20
 20
1.0000000000000000E+20
 30
1.0000000000000000E+20
  9
$PEXTMAX
 10
-1.0000000000000000E+20
 20
-1.0000000000000000E+20
 30
-1.0000000000000000E+20
  9
$PLIMMIN
 10
-5.7497411897045563
 20
-3.1933152452575642
  9
$PLIMMAX
 10
204.4754768426697069
 20
294.1312597486714822
  9
$UNITMODE
 70
     0
  9
$VISRETAIN
 70
     0
  9
$PLINEGEN
 70
     0
  9
$PSLTSCALE
 70
     0
  0
ENDSEC
  0
SECTION
  2
TABLES
  0
TABLE
  2
VPORT
 70
     1
  0
VPORT
  2
*ACTIVE
 70
     0
 10
0.0
 20
0.0
 11
1.0
 21
1.0
 12
-18.5000000000000604
 22
0.0000000000000568
 13
0.0
 23
0.0
 14
1.0
 24
1.0
 15
10.0
 25
10.0
 16
-0.0000000000001683
 26
0.0
 36
758.161211059681591
 17
0.0
 27
144.0
 37
-0.000000000000032
 40
289.4681393372982825
 41
1.868197278911564
 42
50.0
 43
0.0
 44
0.0
 50
0.0
 51
0.0
 71
     0
 72
  1500
 73
     1
 74
     0
 75
     0
 76
     0
 77
     0
 78
     0
  0
ENDTAB
  0
TABLE
  2
LTYPE
 70
     3
  0
LTYPE
  2
CONTINUOUS
 70
     0
  3
Solid line
 72
    65
 73
     0
 40
0.0
  0
LTYPE
  2
STRICHPUNKT
 70
     0
  3
__ . __ . __ . __ . __ . __ . __ . __ . __ . __
 72
    65
 73
     4
 40
1.0
 49
0.5
 49
-0.25
 49
0.0
 49
-0.25
  0
LTYPE
  2
ACAD_ISO02W100
 70
     0
  3
ISO Strichlinie __ __ __ __ __ __ __ __ __ __ _
 72
    65
 73
     2
 40
15.0
 49
12.0
 49
-3.0
  0
ENDTAB
  0
TABLE
  2
LAYER
 70
     6
  0
LAYER
  2
0
 70
     0
 62
     7
  6
CONTINUOUS
  0
LAYER
  2
VOLL
 70
     0
 62
     1
  6
CONTINUOUS
  0
LAYER
  2
STEMPEL
 70
     0
 62
     3
  6
CONTINUOUS
  0
LAYER
  2
TEXT
 70
     0
 62
     7
  6
CONTINUOUS
  0
LAYER
  2
DEFPOINTS
 70
     0
 62
     7
  6
CONTINUOUS
  0
LAYER
  2
ADSK_ASSOC_ENTITY_BACKUPS
 70
     1
 62
    -7
  6
CONTINUOUS
  0
ENDTAB
  0
TABLE
  2
STYLE
 70
     2
  0
STYLE
  2
STANDARD
 70
     0
 40
0.0
 41
0.8
 50
0.0
 71
     0
 42
3.5
  3
simplex.shx
  4

  0
STYLE
  2
GREEKS
 70
     0
 40
0.0
 41
0.8
 50
0.0
 71
     0
 42
2.5
  3
SIMPLEX.shx
  4

  0
ENDTAB
  0
TABLE
  2
VIEW
 70
     0
  0
ENDTAB
  0
TABLE
  2
UCS
 70
     0
  0
ENDTAB
  0
TABLE
  2
APPID
 70
    22
  0
APPID
  2
ACAD
 70
     0
  0
APPID
  2
ACAECLAYERSTANDARD
 70
     0
  0
APPID
  2
ACCMTRANSPARENCY
 70
     0
  0
APPID
  2
ACAD_NAV_VCDISPLAY
 70
     0
  0
APPID
  2
ACAD_PSEXT
 70
     0
  0
APPID
  2
ACAD_EXEMPT_FROM_CAD_STANDARDS
 70
     0
  0
APPID
  2
ACAD_MLEADERVER
 70
     0
  0
APPID
  2
ACAD_DSTYLE_DIMRADIAL_EXTENSION
 70
     0
  0
APPID
  2
GRADIENTCOLOR1ACI
 70
     0
  0
APPID
  2
GRADIENTCOLOR2ACI
 70
     0
  0
APPID
  2
ACADANNOMONITORALERTICONDI
 70
     0
  0
APPID
  2
ACAD_STEPID
 70
     0
  0
APPID
  2
ACAD_ASSOCPERSSUBENTMANAGER
 70
     0
  0
APPID
  2
ACAD_OBJECT_CHANGE_GUID
 70
     0
  0
APPID
  2
ACDBDYNAMICBLOCKGUID
 70
     0
  0
APPID
  2
ACSYNERGY
 70
     0
  0
APPID
  2
SYNERGY_BODY_TBR_ID
 70
     0
  0
APPID
  2
ACAD_VIEW_EDGE_ID
 70
     0
  0
APPID
  2
ACAD_DSTYLE_DIMJAG
 70
     0
  0
APPID
  2
ACAD_DSTYLE_DIMBREAK
 70
     0
  0
APPID
  2
ACAD_DSTYLE_DIMTALN
 70
     0
  0
APPID
  2
ACADANNOPO
 70
     0
  0
ENDTAB
  0
TABLE
  2
DIMSTYLE
 70
     2
  0
DIMSTYLE
  2
STANDARD
 70
     0
  3

  4

  5

  6

  7

 40
1.0
 41
0.18
 42
0.0625
 43
0.38
 44
0.18
 45
0.0
 46
0.0
 47
0.0
 48
0.0
140
0.18
141
0.09
142
0.0
143
25.3999999999999986
144
1.0
145
0.0
146
1.0
147
0.09
 71
     0
 72
     0
 73
     1
 74
     1
 75
     0
 76
     0
 77
     0
 78
     0
170
     0
171
     2
172
     0
173
     0
174
     0
175
     0
176
     0
177
     0
178
     0
  0
DIMSTYLE
  2
LORO
 70
     0
  3

  4

  5

  6

  7

 40
1.0
 41
3.5
 42
1.0
 43
0.38
 44
1.0
 45
0.0
 46
0.0
 47
0.0
 48
0.000000001
140
3.5
141
0.09
142
0.0
143
25.3999999999999986
144
2.0
145
0.0
146
0.5
147
1.5
 71
     0
 72
     0
 73
     0
 74
     0
 75
     0
 76
     0
 77
     1
 78
     8
170
     0
171
     2
172
     1
173
     0
174
     0
175
     0
176
     0
177
     0
178
     1
  0
ENDTAB
  0
ENDSEC
  0
SECTION
  2
BLOCKS
  0
BLOCK
  8
0
  2
$MODEL_SPACE
 70
     0
 10
0.0
 20
0.0
 30
0.0
  3
$MODEL_SPACE
  1

  0
ENDBLK
  5
36
  8
0
  0
BLOCK
 67
     1
  8
0
  2
$PAPER_SPACE
 70
     0
 10
0.0
 20
0.0
 30
0.0
  3
$PAPER_SPACE
  1

  0
ENDBLK
  5
34
 67
     1
  8
0
  0
BLOCK
  8
0
  2
*S0
 70
     1
 10
0.0
 20
0.0
 30
0.0
  3
*S0
  1

  0
ENDBLK
  5
1E43
  8
0
  0
BLOCK
  8
0
  2
A$C3C63E77A
 70
     0
 10
0.0
 20
0.0
 30
0.0
  3
A$C3C63E77A
  1

  0
LINE
  5
21B8
  8
0
  6
CONTINUOUS
 62
     3
 10
26.5
 20
0.0000000000000107
 30
0.0
 11
-26.5
 21
53.0000000000000568
 31
-0.0000000000000118
210
0.0
220
1.0
230
-0.0000000000000002
  0
LINE
  5
21B9
  8
0
  6
CONTINUOUS
 62
     3
 10
-29.395392599469691
 20
288.0000000000001137
 30
-0.0000000000000639
 11
29.395392599469691
 21
288.0000000000001137
 31
-0.0000000000000639
210
0.0
220
1.0
230
-0.0000000000000002
  0
LINE
  5
21BA
  8
0
  6
CONTINUOUS
 62
     3
 10
26.5
 20
244.8726731603433961
 30
-0.0000000000000544
 11
26.5
 21
0.0
 31
0.0
210
0.0
220
1.0
230
-0.0000000000000002
  0
LINE
  5
21BB
  8
0
  6
CONTINUOUS
 62
     3
 10
-26.5
 20
244.8726731603433961
 30
-0.0000000000000544
 11
-26.5
 21
53.0000000000000426
 31
-0.0000000000000118
210
0.0
220
1.0
230
-0.0000000000000002
  0
ARC
  5
21BC
  8
0
  6
CONTINUOUS
 62
     3
 10
34.5000000000018474
 20
244.8726731603427993
 30
0.0
 40
8.0000000000018172
210
0.0
220
-0.0000000000000002
230
-1.0
 50
148.2116693829487986
 51
179.9999999999959073
  0
ARC
  5
21BD
  8
0
  6
CONTINUOUS
 62
     3
 10
-34.5000000000017977
 20
244.8726731603427993
 30
0.0
 40
8.0000000000017764
210
0.0
220
-0.0000000000000002
230
-1.0
 50
0.0000000000040711
 51
31.7883306170513897
  0
ARC
  5
21BE
  8
0
  6
CONTINUOUS
 62
     3
 10
17.5000000000009095
 20
255.4083269131957081
 30
0.0
 40
11.9999999999990905
210
0.0
220
-0.0000000000000002
230
-1.0
 50
328.2116693829494807
 51
0.0000000000016284
  0
ARC
  5
21BF
  8
0
  6
CONTINUOUS
 62
     3
 10
-17.5000000000009095
 20
255.4083269131957081
 30
0.0
 40
11.9999999999990905
210
0.0
220
-0.0000000000000002
230
-1.0
 50
179.9999999999984084
 51
211.7883306170504056
  0
LINE
  5
21C0
  8
0
  6
CONTINUOUS
 62
     3
 10
29.5
 20
266.5
 30
-0.0000000000000592
 11
29.5
 21
255.408326913196106
 31
-0.0000000000000567
210
0.0
220
1.0
230
-0.0000000000000002
  0
LINE
  5
21C1
  8
0
  6
CONTINUOUS
 62
     3
 10
-29.5
 20
266.5
 30
-0.0000000000000592
 11
-29.5
 21
255.408326913196106
 31
-0.0000000000000567
210
0.0
220
1.0
230
-0.0000000000000002
  0
ARC
  5
21C2
  8
0
  6
CONTINUOUS
 62
     3
 10
39.4999999999973497
 20
266.5000000000006821
 30
0.0
 40
9.9999999999973674
210
0.0
220
-0.0000000000000002
230
-1.0
 50
160.5369005553091881
 51
180.0000000000034959
  0
ARC
  5
21C3
  8
0
  6
CONTINUOUS
 62
     3
 10
-39.4999999999971081
 20
266.5000000000007958
 30
0.0
 40
9.9999999999971223
210
0.0
220
-0.0000000000000002
230
-1.0
 50
359.9999999999960778
 51
19.4630994446909291
  0
ARC
  5
21C4
  8
0
  6
CONTINUOUS
 62
     3
 10
6.5000000000067528
 20
278.161999999999523
 30
0.0
 40
25.0000320571215617
210
0.0
220
-0.0000000000000002
230
-1.0
 50
340.5369005553073976
 51
0.0917549919735764
  0
ARC
  5
21C5
  8
0
  6
CONTINUOUS
 62
     3
 10
-6.5000000000067644
 20
278.161999999999523
 30
0.0
 40
25.0000320571215404
210
0.0
220
-0.0000000000000002
230
-1.0
 50
179.9082450080263982
 51
199.4630994446926024
  0
LINE
  5
21C6
  8
0
  6
CONTINUOUS
 62
     3
 10
31.5
 20
278.767234450057515
 30
-0.0000000000000619
 11
31.5
 21
278.2020357021012273
 31
-0.0000000000000618
210
0.0
220
1.0
230
-0.0000000000000002
  0
LINE
  5
21C7
  8
0
  6
CONTINUOUS
 62
     3
 10
-31.5
 20
278.767234450057515
 30
-0.0000000000000619
 11
-31.5
 21
278.2020357021012273
 31
-0.0000000000000618
210
0.0
220
1.0
230
-0.0000000000000002
  0
ARC
  5
21C8
  8
0
  6
CONTINUOUS
 62
     3
 10
11.0000000000048797
 20
278.7672344500584245
 30
0.0
 40
20.4999999999951186
210
0.0
220
-0.0000000000000002
230
-1.0
 50
0.0
 51
21.5243488256551494
  0
ARC
  5
21C9
  8
0
  6
CONTINUOUS
 62
     3
 10
-11.0000000000046896
 20
278.7672344500584245
 30
0.0
 40
20.4999999999953104
210
0.0
220
-0.0000000000000002
230
-1.0
 50
158.475651174347604
 51
180.0000000000023874
  0
LINE
  5
21CA
  8
0
  6
CONTINUOUS
 62
     3
 10
29.3953925994697016
 20
288.0000000000001137
 30
-0.0000000000000639
 11
30.0703655260863201
 21
286.2886145562255251
 31
-0.0000000000000636
210
0.0
220
1.0
230
-0.0000000000000002
  0
LINE
  5
21CB
  8
0
  6
CONTINUOUS
 62
     3
 10
-29.3953925994697016
 20
288.0000000000001137
 30
-0.0000000000000639
 11
-30.0703655260863201
 21
286.2886145562255251
 31
-0.0000000000000636
210
0.0
220
1.0
230
-0.0000000000000002
  0
LINE
  5
21CC
  8
0
  6
ACAD_ISO02W100
 62
     1
 10
-28.0
 20
287.4496551141829173
 30
-0.0000000000000638
 11
28.0
 21
287.4496551141829173
 31
-0.0000000000000638
210
0.0
220
1.0
230
-0.0000000000000002
  0
LINE
  5
21CD
  8
0
  6
ACAD_ISO02W100
 62
     1
 10
25.0
 20
244.8726731603433109
 30
-0.0000000000000544
 11
25.0
 21
1.500000000000028
 31
-0.0000000000000003
210
0.0
220
1.0
230
-0.0000000000000002
  0
LINE
  5
21CE
  8
0
  6
ACAD_ISO02W100
 62
     1
 10
-25.0
 20
244.8726731603433109
 30
-0.0000000000000544
 11
-25.0
 21
51.5000000000000426
 31
-0.0000000000000114
210
0.0
220
1.0
230
-0.0000000000000002
  0
LINE
  5
21CF
  8
0
  6
ACAD_ISO02W100
 62
     1
 10
28.0
 20
287.4496551141829173
 30
-0.0000000000000638
 11
28.6749729266166504
 21
285.7382696704082718
 31
-0.0000000000000634
210
0.0
220
1.0
230
-0.0000000000000002
  0
LINE
  5
21D0
  8
0
  6
ACAD_ISO02W100
 62
     1
 10
-28.0
 20
287.4496551141829173
 30
-0.0000000000000638
 11
-28.6749729266166504
 21
285.7382696704082718
 31
-0.0000000000000634
210
0.0
220
1.0
230
-0.0000000000000002
  0
ARC
  5
21D1
  8
0
  6
ACAD_ISO02W100
 62
     1
 10
10.9999999999947402
 20
278.767234450056776
 30
0.0
 40
19.0000000000052616
210
0.0
220
-0.0000000000000002
230
-1.0
 50
0.0000000000022264
 51
21.5243488256462001
  0
ARC
  5
21D2
  8
0
  6
ACAD_ISO02W100
 62
     1
 10
-10.9999999999948308
 20
278.767234450056776
 30
0.0
 40
19.0000000000051585
210
0.0
220
-0.0000000000000002
230
-1.0
 50
158.4756511743536862
 51
179.9999999999976978
  0
LINE
  5
21D3
  8
0
  6
ACAD_ISO02W100
 62
     1
 10
30.0
 20
278.767234450057515
 30
-0.0000000000000619
 11
30.0
 21
278.2008160540331119
 31
-0.0000000000000618
210
0.0
220
1.0
230
-0.0000000000000002
  0
LINE
  5
21D4
  8
0
  6
ACAD_ISO02W100
 62
     1
 10
-30.0
 20
278.767234450057515
 30
-0.0000000000000619
 11
-30.0
 21
278.2008160540331119
 31
-0.0000000000000618
210
0.0
220
1.0
230
-0.0000000000000002
  0
ARC
  5
21D5
  8
0
  6
ACAD_ISO02W100
 62
     1
 10
6.5000000000013527
 20
278.1620000000000914
 30
0.0
 40
23.5000320571267984
210
0.0
220
-0.0000000000000002
230
-1.0
 50
340.5369005553100124
 51
0.0946380447186501
  0
ARC
  5
21D6
  8
0
  6
ACAD_ISO02W100
 62
     1
 10
-6.500000000000699
 20
278.1620000000002051
 30
0.0
 40
23.5000320571274486
210
0.0
220
-0.0000000000000002
230
-1.0
 50
179.9053619552815064
 51
199.4630994446895897
  0
ARC
  5
21D7
  8
0
  6
ACAD_ISO02W100
 62
     1
 10
39.5000000000043627
 20
266.4999999999996021
 30
0.0
 40
11.5000000000043592
210
0.0
220
-0.0000000000000002
230
-1.0
 50
160.5369005553162083
 51
179.9999999999980105
  0
ARC
  5
21D8
  8
0
  6
ACAD_ISO02W100
 62
     1
 10
-39.5000000000042419
 20
266.4999999999997158
 30
0.0
 40
11.5000000000042295
210
0.0
220
-0.0000000000000002
230
-1.0
 50
0.0000000000017048
 51
19.4630994446836709
  0
LINE
  5
21D9
  8
0
  6
ACAD_ISO02W100
 62
     1
 10
28.0
 20
266.5
 30
-0.0000000000000592
 11
28.0
 21
255.408326913196106
 31
-0.0000000000000567
210
0.0
220
1.0
230
-0.0000000000000002
  0
LINE
  5
21DA
  8
0
  6
ACAD_ISO02W100
 62
     1
 10
-28.0
 20
266.5
 30
-0.0000000000000592
 11
-28.0
 21
255.408326913196106
 31
-0.0000000000000567
210
0.0
220
1.0
230
-0.0000000000000002
  0
ARC
  5
21DB
  8
0
  6
ACAD_ISO02W100
 62
     1
 10
17.5000000000017302
 20
255.4083269131953102
 30
0.0
 40
10.4999999999982894
210
0.0
220
-0.0000000000000002
230
-1.0
 50
328.2116693829497081
 51
0.0000000000041856
  0
ARC
  5
21DC
  8
0
  6
ACAD_ISO02W100
 62
     1
 10
-17.5000000000017302
 20
255.4083269131953102
 30
0.0
 40
10.4999999999982894
210
0.0
220
-0.0000000000000002
230
-1.0
 50
179.9999999999957936
 51
211.7883306170502919
  0
ARC
  5
21DD
  8
0
  6
ACAD_ISO02W100
 62
     1
 10
34.5000000000025508
 20
244.8726731603422877
 30
0.0
 40
9.5000000000025562
210
0.0
220
-0.0000000000000002
230
-1.0
 50
148.211669382948088
 51
179.999999999994003
  0
ARC
  5
21DE
  8
0
  6
ACAD_ISO02W100
 62
     1
 10
-34.5000000000025508
 20
244.8726731603422877
 30
0.0
 40
9.5000000000025508
210
0.0
220
-0.0000000000000002
230
-1.0
 50
0.0000000000060049
 51
31.7883306170519191
  0
LINE
  5
21DF
  8
0
  6
ACAD_ISO02W100
 62
     1
 10
-28.0000000000000107
 20
287.4496551141829173
 30
-0.0000000000000638
 11
-29.3953925994696803
 21
288.0000000000001137
 31
-0.0000000000000639
210
0.0
220
1.0
230
-0.0000000000000002
  0
LINE
  5
21E0
  8
0
  6
ACAD_ISO02W100
 62
     1
 10
28.0000000000000107
 20
287.4496551141829173
 30
-0.0000000000000638
 11
29.3953925994696803
 21
288.0000000000001137
 31
-0.0000000000000639
210
0.0
220
1.0
230
-0.0000000000000002
  0
ENDBLK
  5
21E2
  8
0
  0
BLOCK
  8
0
  2
A$C9D8DB76E
 70
     0
 10
0.0
 20
0.0
 30
0.0
  3
A$C9D8DB76E
  1

  0
CIRCLE
  5
21E6
  8
0
  6
CONTINUOUS
 62
     3
 10
-0.0000000000000341
 20
26.5000000000000391
 30
-0.0000000000000059
 40
25.0000000000000213
  0
CIRCLE
  5
21E7
  8
0
  6
CONTINUOUS
 62
     3
 10
0.0000000000000328
 20
26.5000000000000391
 30
0.0
 40
26.5000000000000284
210
0.0
220
-0.0000000000000002
230
-1.0
  0
LINE
  5
21E8
  8
0
  6
CONTINUOUS
 62
     3
 10
-29.3953925994697904
 20
288.0000000000001137
 30
-0.0000000000000639
 11
29.3953925994695986
 21
288.0000000000001137
 31
-0.0000000000000639
210
-0.0000000000000002
220
1.0
230
-0.0000000000000002
  0
LINE
  5
21E9
  8
0
  6
CONTINUOUS
 62
     3
 10
26.4999999999999289
 20
244.8726731603433961
 30
-0.0000000000000544
 11
26.4999999999999716
 21
26.5000000000000497
 31
-0.0000000000000059
210
-0.0000000000000002
220
1.0
230
-0.0000000000000002
  0
LINE
  5
21EA
  8
0
  6
CONTINUOUS
 62
     3
 10
-26.5000000000000888
 20
244.8726731603433961
 30
-0.0000000000000544
 11
-26.5000000000000391
 21
26.5000000000000284
 31
-0.0000000000000059
210
-0.0000000000000002
220
1.0
230
-0.0000000000000002
  0
ARC
  5
21EB
  8
0
  6
CONTINUOUS
 62
     3
 10
34.5000000000018616
 20
244.8726731603427993
 30
0.0
 40
8.0000000000017497
210
0.0
220
-0.0000000000000002
230
-1.0
 50
148.2116693829484859
 51
179.9999999999959073
  0
ARC
  5
21EC
  8
0
  6
CONTINUOUS
 62
     3
 10
-34.5000000000017266
 20
244.8726731603427993
 30
0.0
 40
8.0000000000017781
210
0.0
220
-0.0000000000000002
230
-1.0
 50
0.0000000000040584
 51
31.7883306170513684
  0
ARC
  5
21ED
  8
0
  6
CONTINUOUS
 62
     3
 10
17.5000000000009983
 20
255.4083269131957934
 30
0.0
 40
11.9999999999990994
210
0.0
220
-0.0000000000000002
230
-1.0
 50
328.2116693829494807
 51
0.0000000000016157
  0
ARC
  5
21EE
  8
0
  6
CONTINUOUS
 62
     3
 10
-17.5000000000008313
 20
255.4083269131957934
 30
0.0
 40
11.9999999999990905
210
0.0
220
-0.0000000000000002
230
-1.0
 50
179.9999999999984084
 51
211.7883306170504056
  0
LINE
  5
21EF
  8
0
  6
CONTINUOUS
 62
     3
 10
29.4999999999999183
 20
266.5000000000001137
 30
-0.0000000000000592
 11
29.4999999999999183
 21
255.408326913196106
 31
-0.0000000000000567
210
-0.0000000000000002
220
1.0
230
-0.0000000000000002
  0
LINE
  5
21F0
  8
0
  6
CONTINUOUS
 62
     3
 10
-29.5000000000000995
 20
266.5000000000001137
 30
-0.0000000000000592
 11
-29.5000000000000888
 21
255.408326913196106
 31
-0.0000000000000567
210
-0.0000000000000002
220
1.0
230
-0.0000000000000002
  0
ARC
  5
21F1
  8
0
  6
CONTINUOUS
 62
     3
 10
39.499999999997442
 20
266.5000000000007958
 30
0.0
 40
9.9999999999973692
210
0.0
220
-0.0000000000000002
230
-1.0
 50
160.5369005553091029
 51
180.0000000000034959
  0
ARC
  5
21F2
  8
0
  6
CONTINUOUS
 62
     3
 10
-39.4999999999970299
 20
266.5000000000007958
 30
0.0
 40
9.9999999999971241
210
0.0
220
-0.0000000000000002
230
-1.0
 50
359.9999999999960778
 51
19.4630994446909185
  0
ARC
  5
21F3
  8
0
  6
CONTINUOUS
 62
     3
 10
6.5000000000068532
 20
278.161999999999523
 30
0.0
 40
25.0000320571215617
210
0.0
220
-0.0000000000000002
230
-1.0
 50
340.5369005553072839
 51
0.0917549919735637
  0
ARC
  5
21F4
  8
0
  6
CONTINUOUS
 62
     3
 10
-6.5000000000066684
 20
278.161999999999523
 30
0.0
 40
25.0000320571215404
210
0.0
220
-0.0000000000000002
230
-1.0
 50
179.9082450080263982
 51
199.4630994446924888
  0
LINE
  5
21F5
  8
0
  6
CONTINUOUS
 62
     3
 10
31.4999999999999112
 20
278.7672344500575718
 30
-0.0000000000000619
 11
31.4999999999999112
 21
278.2020357021012842
 31
-0.0000000000000618
210
-0.0000000000000002
220
1.0
230
-0.0000000000000002
  0
LINE
  5
21F6
  8
0
  6
CONTINUOUS
 62
     3
 10
-31.5000000000001101
 20
278.7672344500575718
 30
-0.0000000000000619
 11
-31.5000000000001101
 21
278.2020357021012842
 31
-0.0000000000000618
210
-0.0000000000000002
220
1.0
230
-0.0000000000000002
  0
ARC
  5
21F7
  8
0
  6
CONTINUOUS
 62
     3
 10
11.0000000000047908
 20
278.7672344500584813
 30
0.0
 40
20.4999999999953211
210
0.0
220
-0.0000000000000002
230
-1.0
 50
0.0
 51
21.5243488256549291
  0
ARC
  5
21F8
  8
0
  6
CONTINUOUS
 62
     3
 10
-11.0000000000045901
 20
278.7672344500584813
 30
0.0
 40
20.4999999999953211
210
0.0
220
-0.0000000000000002
230
-1.0
 50
158.4756511743474903
 51
180.0000000000023874
  0
LINE
  5
21F9
  8
0
  6
CONTINUOUS
 62
     3
 10
29.3953925994696093
 20
288.0000000000001137
 30
-0.0000000000000639
 11
30.0703655260862313
 21
286.2886145562255251
 31
-0.0000000000000636
210
-0.0000000000000002
220
1.0
230
-0.0000000000000002
  0
LINE
  5
21FA
  8
0
  6
CONTINUOUS
 62
     3
 10
-29.3953925994698118
 20
288.0000000000001137
 30
-0.0000000000000639
 11
-30.0703655260864302
 21
286.2886145562255251
 31
-0.0000000000000636
210
-0.0000000000000002
220
1.0
230
-0.0000000000000002
  0
LINE
  5
21FB
  8
0
  6
ACAD_ISO02W100
 62
     1
 10
-28.0000000000001101
 20
287.4496551141829741
 30
-0.0000000000000638
 11
27.9999999999999112
 21
287.4496551141829741
 31
-0.0000000000000638
210
-0.0000000000000002
220
1.0
230
-0.0000000000000002
  0
LINE
  5
21FC
  8
0
  6
ACAD_ISO02W100
 62
     1
 10
24.9999999999999183
 20
244.8726731603433961
 30
-0.0000000000000544
 11
24.9999999999999716
 21
26.5000000000000497
 31
-0.0000000000000059
210
-0.0000000000000002
220
1.0
230
-0.0000000000000002
  0
LINE
  5
21FD
  8
0
  6
ACAD_ISO02W100
 62
     1
 10
-25.0000000000000888
 20
244.8726731603433961
 30
-0.0000000000000544
 11
-25.0000000000000391
 21
26.5000000000000284
 31
-0.0000000000000059
210
-0.0000000000000002
220
1.0
230
-0.0000000000000002
  0
LINE
  5
21FE
  8
0
  6
ACAD_ISO02W100
 62
     1
 10
27.9999999999999112
 20
287.4496551141829741
 30
-0.0000000000000638
 11
28.674972926616551
 21
285.7382696704083855
 31
-0.0000000000000634
210
-0.0000000000000002
220
1.0
230
-0.0000000000000002
  0
LINE
  5
21FF
  8
0
  6
ACAD_ISO02W100
 62
     1
 10
-28.0000000000001101
 20
287.4496551141829741
 30
-0.0000000000000638
 11
-28.6749729266167606
 21
285.7382696704083855
 31
-0.0000000000000634
210
-0.0000000000000002
220
1.0
230
-0.0000000000000002
  0
ARC
  5
2200
  8
0
  6
ACAD_ISO02W100
 62
     1
 10
10.9999999999949303
 20
278.767234450056776
 30
0.0
 40
19.0000000000051692
210
0.0
220
-0.0000000000000002
230
-1.0
 50
0.0000000000022137
 51
21.5243488256462996
  0
ARC
  5
2201
  8
0
  6
ACAD_ISO02W100
 62
     1
 10
-10.9999999999947402
 20
278.767234450056776
 30
0.0
 40
19.0000000000051585
210
0.0
220
-0.0000000000000002
230
-1.0
 50
158.4756511743536009
 51
179.9999999999976978
  0
LINE
  5
2202
  8
0
  6
ACAD_ISO02W100
 62
     1
 10
29.9999999999999112
 20
278.7672344500575718
 30
-0.0000000000000619
 11
29.9999999999999112
 21
278.2008160540331119
 31
-0.0000000000000618
210
-0.0000000000000002
220
1.0
230
-0.0000000000000002
  0
LINE
  5
2203
  8
0
  6
ACAD_ISO02W100
 62
     1
 10
-30.0000000000001101
 20
278.7672344500575718
 30
-0.0000000000000619
 11
-30.0000000000001101
 21
278.2008160540331119
 31
-0.0000000000000618
210
-0.0000000000000002
220
1.0
230
-0.0000000000000002
  0
ARC
  5
2204
  8
0
  6
ACAD_ISO02W100
 62
     1
 10
6.5000000000014531
 20
278.1620000000002051
 30
0.0
 40
23.5000320571268091
210
0.0
220
-0.0000000000000002
230
-1.0
 50
340.5369005553100124
 51
0.0946380447186374
  0
ARC
  5
2205
  8
0
  6
ACAD_ISO02W100
 62
     1
 10
-6.5000000000006031
 20
278.1620000000003188
 30
0.0
 40
23.5000320571274486
210
0.0
220
-0.0000000000000002
230
-1.0
 50
179.9053619552813927
 51
199.4630994446895045
  0
ARC
  5
2206
  8
0
  6
ACAD_ISO02W100
 62
     1
 10
39.5000000000045688
 20
266.4999999999997158
 30
0.0
 40
11.5000000000044693
210
0.0
220
-0.0000000000000002
230
-1.0
 50
160.5369005553164072
 51
179.9999999999978968
  0
ARC
  5
2207
  8
0
  6
ACAD_ISO02W100
 62
     1
 10
-39.5000000000041567
 20
266.4999999999997726
 30
0.0
 40
11.5000000000042402
210
0.0
220
-0.0000000000000002
230
-1.0
 50
0.0000000000016921
 51
19.4630994446836603
  0
LINE
  5
2208
  8
0
  6
ACAD_ISO02W100
 62
     1
 10
27.9999999999999183
 20
266.5000000000001137
 30
-0.0000000000000592
 11
27.9999999999999183
 21
255.408326913196106
 31
-0.0000000000000567
210
-0.0000000000000002
220
1.0
230
-0.0000000000000002
  0
LINE
  5
2209
  8
0
  6
ACAD_ISO02W100
 62
     1
 10
-28.0000000000000888
 20
266.5000000000001137
 30
-0.0000000000000592
 11
-28.0000000000000888
 21
255.408326913196106
 31
-0.0000000000000567
210
-0.0000000000000002
220
1.0
230
-0.0000000000000002
  0
ARC
  5
220A
  8
0
  6
ACAD_ISO02W100
 62
     1
 10
17.500000000001819
 20
255.4083269131953955
 30
0.0
 40
10.4999999999982894
210
0.0
220
-0.0000000000000002
230
-1.0
 50
328.2116693829497081
 51
0.0000000000041729
  0
ARC
  5
220B
  8
0
  6
ACAD_ISO02W100
 62
     1
 10
-17.5000000000016485
 20
255.4083269131953955
 30
0.0
 40
10.4999999999982894
210
0.0
220
-0.0000000000000002
230
-1.0
 50
179.9999999999957936
 51
211.7883306170502919
  0
ARC
  5
220C
  8
0
  6
ACAD_ISO02W100
 62
     1
 10
34.5000000000026432
 20
244.8726731603422877
 30
0.0
 40
9.5000000000025562
210
0.0
220
-0.0000000000000002
230
-1.0
 50
148.211669382948088
 51
179.999999999994003
  0
ARC
  5
220D
  8
0
  6
ACAD_ISO02W100
 62
     1
 10
-34.5000000000024798
 20
244.8726731603422877
 30
0.0
 40
9.5000000000025526
210
0.0
220
-0.0000000000000002
230
-1.0
 50
0.0000000000059922
 51
31.7883306170518907
  0
LINE
  5
220E
  8
0
  6
ACAD_ISO02W100
 62
     1
 10
-28.0000000000001208
 20
287.4496551141829741
 30
-0.0000000000000638
 11
-29.3953925994697904
 21
288.0000000000001137
 31
-0.0000000000000639
210
-0.0000000000000002
220
1.0
230
-0.0000000000000002
  0
LINE
  5
220F
  8
0
  6
ACAD_ISO02W100
 62
     1
 10
27.9999999999999183
 20
287.4496551141829741
 30
-0.0000000000000638
 11
29.3953925994695808
 21
288.0000000000001137
 31
-0.0000000000000639
210
-0.0000000000000002
220
1.0
230
-0.0000000000000002
  0
ENDBLK
  5
2211
  8
0
  0
ENDSEC
  0
SECTION
  2
ENTITIES
  0
TEXT
  5
8F
  8
VOLL
 10
78.076754716981128
 20
31.025947764705851
 30
0.0
 40
1.8
  1

  7
GREEKS
  0
TEXT
  5
238
  8
TEXT
 62
     1
 10
370.8294390732485795
 20
62.7032768094243309
 30
0.0
 40
7.0
  1

 41
0.8
  7
GREEKS
 72
     1
 11
370.8294390732485795
 21
62.7032768094243309
 31
0.0
  0
TEXT
  5
6D8
  8
VOLL
 10
581.6324910719251875
 20
478.1082820471253854
 30
0.0
 40
1.8
  1

  7
GREEKS
  0
TEXT
  5
9D4
  8
VOLL
 10
-59.5246469162499068
 20
502.817156597916096
 30
0.0
 40
1.8
  1

  7
GREEKS
  0
INSERT
  5
1E45
  8
ADSK_ASSOC_ENTITY_BACKUPS
  2
*S0
 10
0.0
 20
0.0
 30
0.0
  0
INSERT
  5
21E3
  8
STEMPEL
  2
A$C3C63E77A
 10
-100.0
 20
0.0
 30
0.0
  0
INSERT
  5
2212
  8
STEMPEL
  2
A$C9D8DB76E
 10
63.0
 20
0.0
 30
0.0
  0
VIEWPORT
  5
922
 67
     1
  8
0
 10
99.3628678264825851
 20
145.4689722517069015
 30
0.0
 40
558.2925386536639962
 41
298.8402482734222758
 68
     1
 69
     1
1001
ACAD
1000
MVIEW
1002
{
1070
    16
1010
0.0
1020
0.0
1030
0.0
1010
0.0
1020
0.0
1030
1.0
1040
0.0
1040
298.8402482734222758
1040
99.3628678264825851
1040
145.4689722517069015
1040
50.0
1040
0.0
1040
0.0
1070
     0
1070
  1500
1070
     1
1070
     1
1070
     0
1070
     0
1070
     0
1070
     0
1040
0.0
1040
0.0
1040
0.0
1040
10.0
1040
10.0
1040
10.0
1040
10.0
1070
     0
1002
{
1002
}
1002
}
  0
ENDSEC
  0
EOF
