  0
SECTION
  2
HEADER
  9
$ACADVER
  1
AC1009
  9
$INSBASE
 10
0.0
 20
0.0
 30
0.0
  9
$EXTMIN
 10
-36.5
 20
-36.5000000000000071
 30
0.0
  9
$EXTMAX
 10
36.5
 20
36.5000000000000071
 30
210.1045868912972026
  9
$LIMMIN
 10
0.0
 20
0.0
  9
$LIMMAX
 10
594.0000000000002274
 20
840.0
  9
$ORTHOMODE
 70
     1
  9
$REGENMODE
 70
     1
  9
$FILLMODE
 70
     1
  9
$QTEXTMODE
 70
     0
  9
$MIRRTEXT
 70
     1
  9
$DRAGMODE
 70
     2
  9
$LTSCALE
 40
20.0
  9
$OSMODE
 70
  2559
  9
$ATTMODE
 70
     1
  9
$TEXTSIZE
 40
3.5
  9
$TRACEWID
 40
1.0
  9
$TEXTSTYLE
  7
STANDARD
  9
$CLAYER
  8
STEMPEL
  9
$CELTYPE
  6
BYLAYER
  9
$CECOLOR
 62
   256
  9
$DIMSCALE
 40
1.0
  9
$DIMASZ
 40
3.5
  9
$DIMEXO
 40
1.0
  9
$DIMDLI
 40
7.0
  9
$DIMRND
 40
0.0
  9
$DIMDLE
 40
0.0
  9
$DIMEXE
 40
1.0
  9
$DIMTP
 40
0.0
  9
$DIMTM
 40
0.0
  9
$DIMTXT
 40
3.5
  9
$DIMCEN
 40
1.5
  9
$DIMTSZ
 40
0.0
  9
$DIMTOL
 70
     0
  9
$DIMLIM
 70
     0
  9
$DIMTIH
 70
     0
  9
$DIMTOH
 70
     0
  9
$DIMSE1
 70
     0
  9
$DIMSE2
 70
     0
  9
$DIMTAD
 70
     1
  9
$DIMZIN
 70
     8
  9
$DIMBLK
  1

  9
$DIMASO
 70
     1
  9
$DIMSHO
 70
     0
  9
$DIMPOST
  1

  9
$DIMAPOST
  1

  9
$DIMALT
 70
     0
  9
$DIMALTD
 70
     2
  9
$DIMALTF
 40
25.3999999999999986
  9
$DIMLFAC
 40
2.0
  9
$DIMTOFL
 70
     1
  9
$DIMTVP
 40
0.0
  9
$DIMTIX
 70
     0
  9
$DIMSOXD
 70
     0
  9
$DIMSAH
 70
     0
  9
$DIMBLK1
  1

  9
$DIMBLK2
  1

  9
$DIMSTYLE
  2
STANDARD
  9
$DIMCLRD
 70
     0
  9
$DIMCLRE
 70
     0
  9
$DIMCLRT
 70
     1
  9
$DIMTFAC
 40
0.5
  9
$DIMGAP
 40
1.5
  9
$LUNITS
 70
     2
  9
$LUPREC
 70
     2
  9
$SKETCHINC
 40
1.0
  9
$FILLETRAD
 40
6.0
  9
$AUNITS
 70
     0
  9
$AUPREC
 70
     0
  9
$MENU
  1
ACAD
  9
$ELEVATION
 40
0.0
  9
$PELEVATION
 40
0.0
  9
$THICKNESS
 40
0.0
  9
$LIMCHECK
 70
     0
  9
$BLIPMODE
 70
     0
  9
$CHAMFERA
 40
0.0
  9
$CHAMFERB
 40
0.0
  9
$SKPOLY
 70
     0
  9
$TDCREATE
 40
2455397.867048610933125
  9
$TDUPDATE
 40
2458885.4170023151673377
  9
$TDINDWG
 40
2.6450022800999999
  9
$TDUSRTIMER
 40
2.6450022800999999
  9
$USRTIMER
 70
     1
  9
$ANGBASE
 50
0.0
  9
$ANGDIR
 70
     0
  9
$PDMODE
 70
     0
  9
$PDSIZE
 40
0.0
  9
$PLINEWID
 40
0.0
  9
$COORDS
 70
     1
  9
$SPLFRAME
 70
     0
  9
$SPLINETYPE
 70
     6
  9
$SPLINESEGS
 70
     8
  9
$ATTDIA
 70
     1
  9
$ATTREQ
 70
     1
  9
$HANDLING
 70
     1
  9
$HANDSEED
  5
E7EF
  9
$SURFTAB1
 70
     6
  9
$SURFTAB2
 70
     6
  9
$SURFTYPE
 70
     6
  9
$SURFU
 70
     6
  9
$SURFV
 70
     6
  9
$UCSNAME
  2

  9
$UCSORG
 10
0.0
 20
0.0
 30
0.0
  9
$UCSXDIR
 10
1.0
 20
0.0
 30
0.0
  9
$UCSYDIR
 10
0.0
 20
1.0
 30
0.0
  9
$PUCSNAME
  2

  9
$PUCSORG
 10
0.0
 20
0.0
 30
0.0
  9
$PUCSXDIR
 10
1.0
 20
0.0
 30
0.0
  9
$PUCSYDIR
 10
0.0
 20
1.0
 30
0.0
  9
$USERI1
 70
     0
  9
$USERI2
 70
     0
  9
$USERI3
 70
     0
  9
$USERI4
 70
     0
  9
$USERI5
 70
     0
  9
$USERR1
 40
0.0
  9
$USERR2
 40
0.0
  9
$USERR3
 40
0.0
  9
$USERR4
 40
0.0
  9
$USERR5
 40
0.0
  9
$WORLDVIEW
 70
     1
  9
$SHADEDGE
 70
     3
  9
$SHADEDIF
 70
    70
  9
$TILEMODE
 70
     1
  9
$MAXACTVP
 70
    16
  9
$PLIMCHECK
 70
     0
  9
$PEXTMIN
 10
1.0000000000000000E+20
 20
1.0000000000000000E+20
 30
1.0000000000000000E+20
  9
$PEXTMAX
 10
-1.0000000000000000E+20
 20
-1.0000000000000000E+20
 30
-1.0000000000000000E+20
  9
$PLIMMIN
 10
-5.7529467459912178
 20
-3.1946115626146931
  9
$PLIMMAX
 10
204.4700094889531101
 20
294.1267645384037905
  9
$UNITMODE
 70
     0
  9
$VISRETAIN
 70
     0
  9
$PLINEGEN
 70
     0
  9
$PSLTSCALE
 70
     0
  0
ENDSEC
  0
SECTION
  2
TABLES
  0
TABLE
  2
VPORT
 70
     1
  0
VPORT
  2
*ACTIVE
 70
     0
 10
0.0
 20
0.0
 11
1.0
 21
1.0
 12
0.0
 22
0.0000000000000284
 13
0.0
 23
0.0
 14
1.0
 24
1.0
 15
10.0
 25
10.0
 16
-338.3764554113924987
 26
-338.377689587221596
 36
338.3764554113924987
 17
-68.294947339261924
 27
-68.2951964345282363
 37
173.3472407849104968
 40
232.3323139907143116
 41
1.868197278911564
 42
49.9999999999999929
 43
0.0
 44
0.0
 50
0.0
 51
0.0000000000000212
 71
     0
 72
  1500
 73
     1
 74
     1
 75
     0
 76
     0
 77
     0
 78
     0
  0
ENDTAB
  0
TABLE
  2
LTYPE
 70
     4
  0
LTYPE
  2
CONTINUOUS
 70
     0
  3
Solid line
 72
    65
 73
     0
 40
0.0
  0
LTYPE
  2
STRICHPUNKT
 70
     0
  3
__ . __ . __ . __ . __ . __ . __ . __ . __ . __
 72
    65
 73
     4
 40
1.0
 49
0.5
 49
-0.25
 49
0.0
 49
-0.25
  0
LTYPE
  2
AUSGEZOGEN
 70
     0
  3
Ausgezogene Linie
 72
    65
 73
     0
 40
0.0
  0
ENDTAB
  0
TABLE
  2
LAYER
 70
    14
  0
LAYER
  2
0
 70
     0
 62
     7
  6
CONTINUOUS
  0
LAYER
  2
STEMPEL
 70
     0
 62
     3
  6
CONTINUOUS
  0
LAYER
  2
TEXT
 70
     0
 62
     7
  6
CONTINUOUS
  0
LAYER
  2
DEFPOINTS
 70
     0
 62
     7
  6
CONTINUOUS
  0
LAYER
  2
ADSK_ASSOC_ENTITY_BACKUPS
 70
     1
 62
    -7
  6
CONTINUOUS
  0
LAYER
  2
MATERIAL__EDELSTAHL_
 70
     0
 62
   254
  6
CONTINUOUS
  0
ENDTAB
  0
TABLE
  2
STYLE
 70
     2
  0
STYLE
  2
STANDARD
 70
     0
 40
0.0
 41
0.8
 50
0.0
 71
     0
 42
3.5
  3
simplex.shx
  4

  0
STYLE
  2
GREEKS
 70
     0
 40
0.0
 41
0.8
 50
0.0
 71
     0
 42
2.5
  3
SIMPLEX.shx
  4

  0
ENDTAB
  0
TABLE
  2
VIEW
 70
     2
  0
ENDTAB
  0
TABLE
  2
UCS
 70
     0
  0
ENDTAB
  0
TABLE
  2
APPID
 70
    47
  0
APPID
  2
ACAD
 70
     0
  0
APPID
  2
ACAD_EXEMPT_FROM_CAD_STANDARDS
 70
     0
  0
APPID
  2
ACAD_NAV_VCDISPLAY
 70
     0
  0
APPID
  2
ACAD_PSEXT
 70
     0
  0
APPID
  2
ACAECLAYERSTANDARD
 70
     0
  0
APPID
  2
ACCMTRANSPARENCY
 70
     0
  0
APPID
  2
ACAD_STEPID
 70
     0
  0
APPID
  2
ACADANNOMONITORALERTICONDI
 70
     0
  0
APPID
  2
ACAD_MLEADERVER
 70
     0
  0
APPID
  2
ACAD_OBJECT_CHANGE_GUID
 70
     0
  0
APPID
  2
ACADANNOPO
 70
     0
  0
APPID
  2
GRADIENTCOLOR1ACI
 70
     0
  0
APPID
  2
GRADIENTCOLOR2ACI
 70
     0
  0
APPID
  2
ACAD_DSTYLE_DIMRADIAL_EXTENSION
 70
     0
  0
APPID
  2
MCAD_NO_VIS
 70
     0
  0
APPID
  2
ACAD_TEMP_GRAPHIC
 70
     0
  0
APPID
  2
ACATTRIBSERVICES
 70
     0
  0
APPID
  2
DESIGNERASSEMBLIES
 70
     0
  0
APPID
  2
ACAD_DSTYLE_DIMJAG
 70
     0
  0
APPID
  2
ACAD_DSTYLE_DIMBREAK
 70
     0
  0
APPID
  2
GENIUS_GENSCREG_15
 70
     0
  0
APPID
  2
GENIUS_GENOBJ-N-SDF_13
 70
     0
  0
APPID
  2
GENIUS_GENODEF_13
 70
     0
  0
APPID
  2
ACAD_DSTYLE_DIMARC_LENGTH_
 70
     0
  0
APPID
  2
ACAD_DSTYLE_DIM_LINETYPE
 70
     0
  0
APPID
  2
ACAD_DSTYLE_DIM_EXT1_LINETYPE
 70
     0
  0
APPID
  2
ACAD_DSTYLE_DIM_EXT2_LINETYPE
 70
     0
  0
APPID
  2
RAK
 70
     0
  0
APPID
  2
ACSYNERGY
 70
     0
  0
APPID
  2
SYNERGY_BODY_TBR_ID
 70
     0
  0
APPID
  2
ACAD_VIEW_EDGE_ID
 70
     0
  0
APPID
  2
ACSYNERGYSKETCH
 70
     0
  0
APPID
  2
ACAD_MODELDOC_XFORM
 70
     0
  0
APPID
  2
GENIUS_GENDTOL_13
 70
     0
  0
APPID
  2
ACAD_DSTYLE_DIMINSPECT
 70
     0
  0
APPID
  2
ACAD_DSTYLE_DIMANGULAR_EXT
 70
     0
  0
APPID
  2
PLOTTRANSPARENCY
 70
     0
  0
APPID
  2
ACAUTHENVIRON
 70
     0
  0
APPID
  2
ACDBDYNAMICBLOCKTRUENAME
 70
     0
  0
APPID
  2
ACDBDYNAMICBLOCKGUID
 70
     0
  0
APPID
  2
PE_URL
 70
     0
  0
APPID
  2
SYNERGY_EXCLUDED_FROM_SNAPSHOT
 70
     0
  0
APPID
  2
ACAD_DSTYLE_DIMTALN
 70
     0
  0
APPID
  2
ACAD_DIMASSOC_CALC_DIMLFAC
 70
     0
  0
APPID
  2
ACAD_DIMASSOC_DIMLFAC
 70
     0
  0
APPID
  2
ACAD_DIMASSOC_OVERRIDDEN_D
 70
     0
  0
APPID
  2
AcDbAttr
 70
     0
  0
ENDTAB
  0
TABLE
  2
DIMSTYLE
 70
     3
  0
DIMSTYLE
  2
STANDARD
 70
     0
  3

  4

  5

  6

  7

 40
1.0
 41
0.18
 42
0.0625
 43
0.38
 44
0.18
 45
0.0
 46
0.0
 47
0.0
 48
0.0
140
0.18
141
0.09
142
0.0
143
25.3999999999999986
144
1.0
145
0.0
146
1.0
147
0.09
 71
     0
 72
     0
 73
     1
 74
     1
 75
     0
 76
     0
 77
     0
 78
     0
170
     0
171
     2
172
     0
173
     0
174
     0
175
     0
176
     0
177
     0
178
     0
  0
ENDTAB
  0
ENDSEC
  0
SECTION
  2
BLOCKS
  0
BLOCK
  8
0
  2
$MODEL_SPACE
 70
     0
 10
0.0
 20
0.0
 30
0.0
  3
$MODEL_SPACE
  1

  0
ENDBLK
  5
38
  8
0
  0
BLOCK
 67
     1
  8
0
  2
$PAPER_SPACE
 70
     0
 10
0.0
 20
0.0
 30
0.0
  3
$PAPER_SPACE
  1

  0
ENDBLK
  5
36
 67
     1
  8
0
  0
BLOCK
  8
0
  2
*S0
 70
     1
 10
0.0
 20
0.0
 30
0.0
  3
*S0
  1

  0
ENDBLK
  5
30A9
  8
0
  0
BLOCK
  8
0
  2
*U9
 70
     1
 10
0.0
 20
0.0
 30
0.0
  3
*U9
  1

  0
POLYLINE
  5
E5D8
  8
MATERIAL__EDELSTAHL_
 10
-35.2999999999999616
 20
0.0000000000000571
 30
138.304586891297248
 66
     1
 70
     8
  0
VERTEX
  8
MATERIAL__EDELSTAHL_
  5
E5E7
 10
-35.3000
 20
5.71230e-14
 30
138.305
  70
    32
  0
VERTEX
  8
MATERIAL__EDELSTAHL_
  5
E5E8
 10
-35.2575
 20
-1.73209
 30
138.347
  70
    32
  0
VERTEX
  8
MATERIAL__EDELSTAHL_
  5
E5E9
 10
-35.1300
 20
-3.46001
 30
138.475
  70
    32
  0
VERTEX
  8
MATERIAL__EDELSTAHL_
  5
E5EA
 10
-34.9179
 20
-5.17959
 30
138.687
  70
    32
  0
VERTEX
  8
MATERIAL__EDELSTAHL_
  5
E5EB
 10
-34.6217
 20
-6.88669
 30
138.983
  70
    32
  0
VERTEX
  8
MATERIAL__EDELSTAHL_
  5
E5EC
 10
-34.2421
 20
-8.57720
 30
139.362
  70
    32
  0
VERTEX
  8
MATERIAL__EDELSTAHL_
  5
E5ED
 10
-33.7800
 20
-10.2470
 30
139.825
  70
    32
  0
VERTEX
  8
MATERIAL__EDELSTAHL_
  5
E5EE
 10
-33.2365
 20
-11.8922
 30
140.368
  70
    32
  0
VERTEX
  8
MATERIAL__EDELSTAHL_
  5
E5EF
 10
-32.6129
 20
-13.5087
 30
140.992
  70
    32
  0
VERTEX
  8
MATERIAL__EDELSTAHL_
  5
E5F0
 10
-31.9108
 20
-15.0927
 30
141.694
  70
    32
  0
VERTEX
  8
MATERIAL__EDELSTAHL_
  5
E5F1
 10
-31.1318
 20
-16.6403
 30
142.473
  70
    32
  0
VERTEX
  8
MATERIAL__EDELSTAHL_
  5
E5F2
 10
-30.2778
 20
-18.1478
 30
143.327
  70
    32
  0
VERTEX
  8
MATERIAL__EDELSTAHL_
  5
E5F3
 10
-29.3509
 20
-19.6116
 30
144.254
  70
    32
  0
VERTEX
  8
MATERIAL__EDELSTAHL_
  5
E5F4
 10
-28.3532
 20
-21.0282
 30
145.251
  70
    32
  0
VERTEX
  8
MATERIAL__EDELSTAHL_
  5
E5F5
 10
-27.2873
 20
-22.3941
 30
146.317
  70
    32
  0
VERTEX
  8
MATERIAL__EDELSTAHL_
  5
E5F6
 10
-26.1556
 20
-23.7060
 30
147.449
  70
    32
  0
VERTEX
  8
MATERIAL__EDELSTAHL_
  5
E5F7
 10
-24.9609
 20
-24.9609
 30
148.644
  70
    32
  0
VERTEX
  8
MATERIAL__EDELSTAHL_
  5
E5F8
 10
-23.7060
 20
-26.1556
 30
149.899
  70
    32
  0
VERTEX
  8
MATERIAL__EDELSTAHL_
  5
E5F9
 10
-22.3941
 20
-27.2873
 30
151.211
  70
    32
  0
VERTEX
  8
MATERIAL__EDELSTAHL_
  5
E5FA
 10
-21.0282
 20
-28.3532
 30
152.576
  70
    32
  0
VERTEX
  8
MATERIAL__EDELSTAHL_
  5
E5FB
 10
-19.6116
 20
-29.3509
 30
153.993
  70
    32
  0
VERTEX
  8
MATERIAL__EDELSTAHL_
  5
E5FC
 10
-18.1478
 20
-30.2778
 30
155.457
  70
    32
  0
VERTEX
  8
MATERIAL__EDELSTAHL_
  5
E5FD
 10
-16.6403
 20
-31.1318
 30
156.964
  70
    32
  0
VERTEX
  8
MATERIAL__EDELSTAHL_
  5
E5FE
 10
-15.0927
 20
-31.9108
 30
158.512
  70
    32
  0
VERTEX
  8
MATERIAL__EDELSTAHL_
  5
E5FF
 10
-13.5087
 20
-32.6129
 30
160.096
  70
    32
  0
VERTEX
  8
MATERIAL__EDELSTAHL_
  5
E600
 10
-11.8922
 20
-33.2365
 30
161.712
  70
    32
  0
VERTEX
  8
MATERIAL__EDELSTAHL_
  5
E601
 10
-10.2470
 20
-33.7800
 30
163.358
  70
    32
  0
VERTEX
  8
MATERIAL__EDELSTAHL_
  5
E602
 10
-8.57720
 20
-34.2421
 30
165.027
  70
    32
  0
VERTEX
  8
MATERIAL__EDELSTAHL_
  5
E603
 10
-6.88669
 20
-34.6217
 30
166.718
  70
    32
  0
VERTEX
  8
MATERIAL__EDELSTAHL_
  5
E604
 10
-5.17959
 20
-34.9179
 30
168.425
  70
    32
  0
VERTEX
  8
MATERIAL__EDELSTAHL_
  5
E605
 10
-3.46001
 20
-35.1300
 30
170.145
  70
    32
  0
VERTEX
  8
MATERIAL__EDELSTAHL_
  5
E606
 10
-1.73209
 20
-35.2575
 30
171.872
  70
    32
  0
VERTEX
  8
MATERIAL__EDELSTAHL_
  5
E607
 10
-3.28845e-14
 20
-35.3000
 30
173.605
  70
    32
  0
VERTEX
  8
MATERIAL__EDELSTAHL_
  5
E608
 10
1.73209
 20
-35.2575
 30
175.337
  70
    32
  0
VERTEX
  8
MATERIAL__EDELSTAHL_
  5
E609
 10
3.46001
 20
-35.1300
 30
177.065
  70
    32
  0
VERTEX
  8
MATERIAL__EDELSTAHL_
  5
E60A
 10
5.17959
 20
-34.9179
 30
178.784
  70
    32
  0
VERTEX
  8
MATERIAL__EDELSTAHL_
  5
E60B
 10
6.88669
 20
-34.6217
 30
180.491
  70
    32
  0
VERTEX
  8
MATERIAL__EDELSTAHL_
  5
E60C
 10
8.57720
 20
-34.2421
 30
182.182
  70
    32
  0
VERTEX
  8
MATERIAL__EDELSTAHL_
  5
E60D
 10
10.2470
 20
-33.7800
 30
183.852
  70
    32
  0
VERTEX
  8
MATERIAL__EDELSTAHL_
  5
E60E
 10
11.8922
 20
-33.2365
 30
185.497
  70
    32
  0
VERTEX
  8
MATERIAL__EDELSTAHL_
  5
E60F
 10
13.5087
 20
-32.6129
 30
187.113
  70
    32
  0
VERTEX
  8
MATERIAL__EDELSTAHL_
  5
E610
 10
15.0927
 20
-31.9108
 30
188.697
  70
    32
  0
VERTEX
  8
MATERIAL__EDELSTAHL_
  5
E611
 10
16.6403
 20
-31.1318
 30
190.245
  70
    32
  0
VERTEX
  8
MATERIAL__EDELSTAHL_
  5
E612
 10
18.1478
 20
-30.2778
 30
191.752
  70
    32
  0
VERTEX
  8
MATERIAL__EDELSTAHL_
  5
E613
 10
19.6116
 20
-29.3509
 30
193.216
  70
    32
  0
VERTEX
  8
MATERIAL__EDELSTAHL_
  5
E614
 10
21.0282
 20
-28.3532
 30
194.633
  70
    32
  0
VERTEX
  8
MATERIAL__EDELSTAHL_
  5
E615
 10
22.3941
 20
-27.2873
 30
195.999
  70
    32
  0
VERTEX
  8
MATERIAL__EDELSTAHL_
  5
E616
 10
23.7060
 20
-26.1556
 30
197.311
  70
    32
  0
VERTEX
  8
MATERIAL__EDELSTAHL_
  5
E617
 10
24.9609
 20
-24.9609
 30
198.565
  70
    32
  0
VERTEX
  8
MATERIAL__EDELSTAHL_
  5
E618
 10
26.1556
 20
-23.7060
 30
199.760
  70
    32
  0
VERTEX
  8
MATERIAL__EDELSTAHL_
  5
E619
 10
27.2873
 20
-22.3941
 30
200.892
  70
    32
  0
VERTEX
  8
MATERIAL__EDELSTAHL_
  5
E61A
 10
28.3532
 20
-21.0282
 30
201.958
  70
    32
  0
VERTEX
  8
MATERIAL__EDELSTAHL_
  5
E61B
 10
29.3509
 20
-19.6116
 30
202.955
  70
    32
  0
VERTEX
  8
MATERIAL__EDELSTAHL_
  5
E61C
 10
30.2778
 20
-18.1478
 30
203.882
  70
    32
  0
VERTEX
  8
MATERIAL__EDELSTAHL_
  5
E61D
 10
31.1318
 20
-16.6403
 30
204.736
  70
    32
  0
VERTEX
  8
MATERIAL__EDELSTAHL_
  5
E61E
 10
31.9108
 20
-15.0927
 30
205.515
  70
    32
  0
VERTEX
  8
MATERIAL__EDELSTAHL_
  5
E61F
 10
32.6129
 20
-13.5087
 30
206.218
  70
    32
  0
VERTEX
  8
MATERIAL__EDELSTAHL_
  5
E620
 10
33.2365
 20
-11.8922
 30
206.841
  70
    32
  0
VERTEX
  8
MATERIAL__EDELSTAHL_
  5
E621
 10
33.7800
 20
-10.2470
 30
207.385
  70
    32
  0
VERTEX
  8
MATERIAL__EDELSTAHL_
  5
E622
 10
34.2421
 20
-8.57720
 30
207.847
  70
    32
  0
VERTEX
  8
MATERIAL__EDELSTAHL_
  5
E623
 10
34.6217
 20
-6.88669
 30
208.226
  70
    32
  0
VERTEX
  8
MATERIAL__EDELSTAHL_
  5
E624
 10
34.9179
 20
-5.17959
 30
208.523
  70
    32
  0
VERTEX
  8
MATERIAL__EDELSTAHL_
  5
E625
 10
35.1300
 20
-3.46001
 30
208.735
  70
    32
  0
VERTEX
  8
MATERIAL__EDELSTAHL_
  5
E626
 10
35.2575
 20
-1.73209
 30
208.862
  70
    32
  0
VERTEX
  8
MATERIAL__EDELSTAHL_
  5
E627
 10
35.3000
 20
-5.28000e-14
 30
208.905
  70
    32
  0
VERTEX
  8
MATERIAL__EDELSTAHL_
  5
E628
 10
35.2575
 20
1.73209
 30
208.862
  70
    32
  0
VERTEX
  8
MATERIAL__EDELSTAHL_
  5
E629
 10
35.1300
 20
3.46001
 30
208.735
  70
    32
  0
VERTEX
  8
MATERIAL__EDELSTAHL_
  5
E62A
 10
34.9179
 20
5.17959
 30
208.523
  70
    32
  0
VERTEX
  8
MATERIAL__EDELSTAHL_
  5
E62B
 10
34.6217
 20
6.88669
 30
208.226
  70
    32
  0
VERTEX
  8
MATERIAL__EDELSTAHL_
  5
E62C
 10
34.2421
 20
8.57720
 30
207.847
  70
    32
  0
VERTEX
  8
MATERIAL__EDELSTAHL_
  5
E62D
 10
33.7800
 20
10.2470
 30
207.385
  70
    32
  0
VERTEX
  8
MATERIAL__EDELSTAHL_
  5
E62E
 10
33.2365
 20
11.8922
 30
206.841
  70
    32
  0
VERTEX
  8
MATERIAL__EDELSTAHL_
  5
E62F
 10
32.6129
 20
13.5087
 30
206.218
  70
    32
  0
VERTEX
  8
MATERIAL__EDELSTAHL_
  5
E630
 10
31.9108
 20
15.0927
 30
205.515
  70
    32
  0
VERTEX
  8
MATERIAL__EDELSTAHL_
  5
E631
 10
31.1318
 20
16.6403
 30
204.736
  70
    32
  0
VERTEX
  8
MATERIAL__EDELSTAHL_
  5
E632
 10
30.2778
 20
18.1478
 30
203.882
  70
    32
  0
VERTEX
  8
MATERIAL__EDELSTAHL_
  5
E633
 10
29.3509
 20
19.6116
 30
202.955
  70
    32
  0
VERTEX
  8
MATERIAL__EDELSTAHL_
  5
E634
 10
28.3532
 20
21.0282
 30
201.958
  70
    32
  0
VERTEX
  8
MATERIAL__EDELSTAHL_
  5
E635
 10
27.2873
 20
22.3941
 30
200.892
  70
    32
  0
VERTEX
  8
MATERIAL__EDELSTAHL_
  5
E636
 10
26.1556
 20
23.7060
 30
199.760
  70
    32
  0
VERTEX
  8
MATERIAL__EDELSTAHL_
  5
E637
 10
24.9609
 20
24.9609
 30
198.565
  70
    32
  0
VERTEX
  8
MATERIAL__EDELSTAHL_
  5
E638
 10
23.7060
 20
26.1556
 30
197.311
  70
    32
  0
VERTEX
  8
MATERIAL__EDELSTAHL_
  5
E639
 10
22.3941
 20
27.2873
 30
195.999
  70
    32
  0
VERTEX
  8
MATERIAL__EDELSTAHL_
  5
E63A
 10
21.0282
 20
28.3532
 30
194.633
  70
    32
  0
VERTEX
  8
MATERIAL__EDELSTAHL_
  5
E63B
 10
19.6116
 20
29.3509
 30
193.216
  70
    32
  0
VERTEX
  8
MATERIAL__EDELSTAHL_
  5
E63C
 10
18.1478
 20
30.2778
 30
191.752
  70
    32
  0
VERTEX
  8
MATERIAL__EDELSTAHL_
  5
E63D
 10
16.6403
 20
31.1318
 30
190.245
  70
    32
  0
VERTEX
  8
MATERIAL__EDELSTAHL_
  5
E63E
 10
15.0927
 20
31.9108
 30
188.697
  70
    32
  0
VERTEX
  8
MATERIAL__EDELSTAHL_
  5
E63F
 10
13.5087
 20
32.6129
 30
187.113
  70
    32
  0
VERTEX
  8
MATERIAL__EDELSTAHL_
  5
E640
 10
11.8922
 20
33.2365
 30
185.497
  70
    32
  0
VERTEX
  8
MATERIAL__EDELSTAHL_
  5
E641
 10
10.2470
 20
33.7800
 30
183.852
  70
    32
  0
VERTEX
  8
MATERIAL__EDELSTAHL_
  5
E642
 10
8.57720
 20
34.2421
 30
182.182
  70
    32
  0
VERTEX
  8
MATERIAL__EDELSTAHL_
  5
E643
 10
6.88669
 20
34.6217
 30
180.491
  70
    32
  0
VERTEX
  8
MATERIAL__EDELSTAHL_
  5
E644
 10
5.17959
 20
34.9179
 30
178.784
  70
    32
  0
VERTEX
  8
MATERIAL__EDELSTAHL_
  5
E645
 10
3.46001
 20
35.1300
 30
177.065
  70
    32
  0
VERTEX
  8
MATERIAL__EDELSTAHL_
  5
E646
 10
1.73209
 20
35.2575
 30
175.337
  70
    32
  0
VERTEX
  8
MATERIAL__EDELSTAHL_
  5
E647
 10
2.85615e-14
 20
35.3000
 30
173.605
  70
    32
  0
VERTEX
  8
MATERIAL__EDELSTAHL_
  5
E648
 10
-1.73209
 20
35.2575
 30
171.872
  70
    32
  0
VERTEX
  8
MATERIAL__EDELSTAHL_
  5
E649
 10
-3.46001
 20
35.1300
 30
170.145
  70
    32
  0
VERTEX
  8
MATERIAL__EDELSTAHL_
  5
E64A
 10
-5.17959
 20
34.9179
 30
168.425
  70
    32
  0
VERTEX
  8
MATERIAL__EDELSTAHL_
  5
E64B
 10
-6.88669
 20
34.6217
 30
166.718
  70
    32
  0
VERTEX
  8
MATERIAL__EDELSTAHL_
  5
E64C
 10
-8.57720
 20
34.2421
 30
165.027
  70
    32
  0
VERTEX
  8
MATERIAL__EDELSTAHL_
  5
E64D
 10
-10.2470
 20
33.7800
 30
163.358
  70
    32
  0
VERTEX
  8
MATERIAL__EDELSTAHL_
  5
E64E
 10
-11.8922
 20
33.2365
 30
161.712
  70
    32
  0
VERTEX
  8
MATERIAL__EDELSTAHL_
  5
E64F
 10
-13.5087
 20
32.6129
 30
160.096
  70
    32
  0
VERTEX
  8
MATERIAL__EDELSTAHL_
  5
E650
 10
-15.0927
 20
31.9108
 30
158.512
  70
    32
  0
VERTEX
  8
MATERIAL__EDELSTAHL_
  5
E651
 10
-16.6403
 20
31.1318
 30
156.964
  70
    32
  0
VERTEX
  8
MATERIAL__EDELSTAHL_
  5
E652
 10
-18.1478
 20
30.2778
 30
155.457
  70
    32
  0
VERTEX
  8
MATERIAL__EDELSTAHL_
  5
E653
 10
-19.6116
 20
29.3509
 30
153.993
  70
    32
  0
VERTEX
  8
MATERIAL__EDELSTAHL_
  5
E654
 10
-21.0282
 20
28.3532
 30
152.576
  70
    32
  0
VERTEX
  8
MATERIAL__EDELSTAHL_
  5
E655
 10
-22.3941
 20
27.2873
 30
151.211
  70
    32
  0
VERTEX
  8
MATERIAL__EDELSTAHL_
  5
E656
 10
-23.7060
 20
26.1556
 30
149.899
  70
    32
  0
VERTEX
  8
MATERIAL__EDELSTAHL_
  5
E657
 10
-24.9609
 20
24.9609
 30
148.644
  70
    32
  0
VERTEX
  8
MATERIAL__EDELSTAHL_
  5
E658
 10
-26.1556
 20
23.7060
 30
147.449
  70
    32
  0
VERTEX
  8
MATERIAL__EDELSTAHL_
  5
E659
 10
-27.2873
 20
22.3941
 30
146.317
  70
    32
  0
VERTEX
  8
MATERIAL__EDELSTAHL_
  5
E65A
 10
-28.3532
 20
21.0282
 30
145.251
  70
    32
  0
VERTEX
  8
MATERIAL__EDELSTAHL_
  5
E65B
 10
-29.3509
 20
19.6116
 30
144.254
  70
    32
  0
VERTEX
  8
MATERIAL__EDELSTAHL_
  5
E65C
 10
-30.2778
 20
18.1478
 30
143.327
  70
    32
  0
VERTEX
  8
MATERIAL__EDELSTAHL_
  5
E65D
 10
-31.1318
 20
16.6403
 30
142.473
  70
    32
  0
VERTEX
  8
MATERIAL__EDELSTAHL_
  5
E65E
 10
-31.9108
 20
15.0927
 30
141.694
  70
    32
  0
VERTEX
  8
MATERIAL__EDELSTAHL_
  5
E65F
 10
-32.6129
 20
13.5087
 30
140.992
  70
    32
  0
VERTEX
  8
MATERIAL__EDELSTAHL_
  5
E660
 10
-33.2365
 20
11.8922
 30
140.368
  70
    32
  0
VERTEX
  8
MATERIAL__EDELSTAHL_
  5
E661
 10
-33.7800
 20
10.2470
 30
139.825
  70
    32
  0
VERTEX
  8
MATERIAL__EDELSTAHL_
  5
E662
 10
-34.2421
 20
8.57720
 30
139.362
  70
    32
  0
VERTEX
  8
MATERIAL__EDELSTAHL_
  5
E663
 10
-34.6217
 20
6.88669
 30
138.983
  70
    32
  0
VERTEX
  8
MATERIAL__EDELSTAHL_
  5
E664
 10
-34.9179
 20
5.17959
 30
138.687
  70
    32
  0
VERTEX
  8
MATERIAL__EDELSTAHL_
  5
E665
 10
-35.1300
 20
3.46001
 30
138.475
  70
    32
  0
VERTEX
  8
MATERIAL__EDELSTAHL_
  5
E666
 10
-35.2575
 20
1.73209
 30
138.347
  70
    32
  0
VERTEX
  8
MATERIAL__EDELSTAHL_
  5
E667
 10
-35.3000
 20
5.71230e-14
 30
138.305
  70
    32
  0
SEQEND
  8
MATERIAL__EDELSTAHL_
  5
E668
  0
POLYLINE
  5
E5D9
  8
MATERIAL__EDELSTAHL_
 10
-36.5
 20
0.0000000000000591
 30
137.1045868912972026
 66
     1
 70
     8
  0
VERTEX
  8
MATERIAL__EDELSTAHL_
  5
E669
 10
-36.5000
 20
5.90700e-14
 30
137.105
  70
    32
  0
VERTEX
  8
MATERIAL__EDELSTAHL_
  5
E66A
 10
-36.4560
 20
-1.79097
 30
137.149
  70
    32
  0
VERTEX
  8
MATERIAL__EDELSTAHL_
  5
E66B
 10
-36.3242
 20
-3.57763
 30
137.280
  70
    32
  0
VERTEX
  8
MATERIAL__EDELSTAHL_
  5
E66C
 10
-36.1049
 20
-5.35566
 30
137.500
  70
    32
  0
VERTEX
  8
MATERIAL__EDELSTAHL_
  5
E66D
 10
-35.7987
 20
-7.12080
 30
137.806
  70
    32
  0
VERTEX
  8
MATERIAL__EDELSTAHL_
  5
E66E
 10
-35.4061
 20
-8.86878
 30
138.198
  70
    32
  0
VERTEX
  8
MATERIAL__EDELSTAHL_
  5
E66F
 10
-34.9283
 20
-10.5954
 30
138.676
  70
    32
  0
VERTEX
  8
MATERIAL__EDELSTAHL_
  5
E670
 10
-34.3664
 20
-12.2965
 30
139.238
  70
    32
  0
VERTEX
  8
MATERIAL__EDELSTAHL_
  5
E671
 10
-33.7216
 20
-13.9679
 30
139.883
  70
    32
  0
VERTEX
  8
MATERIAL__EDELSTAHL_
  5
E672
 10
-32.9956
 20
-15.6058
 30
140.609
  70
    32
  0
VERTEX
  8
MATERIAL__EDELSTAHL_
  5
E673
 10
-32.1901
 20
-17.2060
 30
141.414
  70
    32
  0
VERTEX
  8
MATERIAL__EDELSTAHL_
  5
E674
 10
-31.3071
 20
-18.7648
 30
142.297
  70
    32
  0
VERTEX
  8
MATERIAL__EDELSTAHL_
  5
E675
 10
-30.3486
 20
-20.2783
 30
143.256
  70
    32
  0
VERTEX
  8
MATERIAL__EDELSTAHL_
  5
E676
 10
-29.3171
 20
-21.7430
 30
144.288
  70
    32
  0
VERTEX
  8
MATERIAL__EDELSTAHL_
  5
E677
 10
-28.2149
 20
-23.1554
 30
145.390
  70
    32
  0
VERTEX
  8
MATERIAL__EDELSTAHL_
  5
E678
 10
-27.0447
 20
-24.5119
 30
146.560
  70
    32
  0
VERTEX
  8
MATERIAL__EDELSTAHL_
  5
E679
 10
-25.8094
 20
-25.8094
 30
147.795
  70
    32
  0
VERTEX
  8
MATERIAL__EDELSTAHL_
  5
E67A
 10
-24.5119
 20
-27.0447
 30
149.093
  70
    32
  0
VERTEX
  8
MATERIAL__EDELSTAHL_
  5
E67B
 10
-23.1554
 20
-28.2149
 30
150.449
  70
    32
  0
VERTEX
  8
MATERIAL__EDELSTAHL_
  5
E67C
 10
-21.7430
 20
-29.3171
 30
151.862
  70
    32
  0
VERTEX
  8
MATERIAL__EDELSTAHL_
  5
E67D
 10
-20.2783
 20
-30.3486
 30
153.326
  70
    32
  0
VERTEX
  8
MATERIAL__EDELSTAHL_
  5
E67E
 10
-18.7648
 20
-31.3071
 30
154.840
  70
    32
  0
VERTEX
  8
MATERIAL__EDELSTAHL_
  5
E67F
 10
-17.2060
 20
-32.1901
 30
156.399
  70
    32
  0
VERTEX
  8
MATERIAL__EDELSTAHL_
  5
E680
 10
-15.6058
 20
-32.9956
 30
157.999
  70
    32
  0
VERTEX
  8
MATERIAL__EDELSTAHL_
  5
E681
 10
-13.9679
 20
-33.7216
 30
159.637
  70
    32
  0
VERTEX
  8
MATERIAL__EDELSTAHL_
  5
E682
 10
-12.2965
 20
-34.3664
 30
161.308
  70
    32
  0
VERTEX
  8
MATERIAL__EDELSTAHL_
  5
E683
 10
-10.5954
 20
-34.9283
 30
163.009
  70
    32
  0
VERTEX
  8
MATERIAL__EDELSTAHL_
  5
E684
 10
-8.86878
 20
-35.4061
 30
164.736
  70
    32
  0
VERTEX
  8
MATERIAL__EDELSTAHL_
  5
E685
 10
-7.12080
 20
-35.7987
 30
166.484
  70
    32
  0
VERTEX
  8
MATERIAL__EDELSTAHL_
  5
E686
 10
-5.35566
 20
-36.1049
 30
168.249
  70
    32
  0
VERTEX
  8
MATERIAL__EDELSTAHL_
  5
E687
 10
-3.57763
 20
-36.3242
 30
170.027
  70
    32
  0
VERTEX
  8
MATERIAL__EDELSTAHL_
  5
E688
 10
-1.79097
 20
-36.4560
 30
171.814
  70
    32
  0
VERTEX
  8
MATERIAL__EDELSTAHL_
  5
E689
 10
-3.40049e-14
 20
-36.5000
 30
173.605
  70
    32
  0
VERTEX
  8
MATERIAL__EDELSTAHL_
  5
E68A
 10
1.79097
 20
-36.4560
 30
175.396
  70
    32
  0
VERTEX
  8
MATERIAL__EDELSTAHL_
  5
E68B
 10
3.57763
 20
-36.3242
 30
177.182
  70
    32
  0
VERTEX
  8
MATERIAL__EDELSTAHL_
  5
E68C
 10
5.35566
 20
-36.1049
 30
178.960
  70
    32
  0
VERTEX
  8
MATERIAL__EDELSTAHL_
  5
E68D
 10
7.12080
 20
-35.7987
 30
180.725
  70
    32
  0
VERTEX
  8
MATERIAL__EDELSTAHL_
  5
E68E
 10
8.86878
 20
-35.4061
 30
182.473
  70
    32
  0
VERTEX
  8
MATERIAL__EDELSTAHL_
  5
E68F
 10
10.5954
 20
-34.9283
 30
184.200
  70
    32
  0
VERTEX
  8
MATERIAL__EDELSTAHL_
  5
E690
 10
12.2965
 20
-34.3664
 30
185.901
  70
    32
  0
VERTEX
  8
MATERIAL__EDELSTAHL_
  5
E691
 10
13.9679
 20
-33.7216
 30
187.573
  70
    32
  0
VERTEX
  8
MATERIAL__EDELSTAHL_
  5
E692
 10
15.6058
 20
-32.9956
 30
189.210
  70
    32
  0
VERTEX
  8
MATERIAL__EDELSTAHL_
  5
E693
 10
17.2060
 20
-32.1901
 30
190.811
  70
    32
  0
VERTEX
  8
MATERIAL__EDELSTAHL_
  5
E694
 10
18.7648
 20
-31.3071
 30
192.369
  70
    32
  0
VERTEX
  8
MATERIAL__EDELSTAHL_
  5
E695
 10
20.2783
 20
-30.3486
 30
193.883
  70
    32
  0
VERTEX
  8
MATERIAL__EDELSTAHL_
  5
E696
 10
21.7430
 20
-29.3171
 30
195.348
  70
    32
  0
VERTEX
  8
MATERIAL__EDELSTAHL_
  5
E697
 10
23.1554
 20
-28.2149
 30
196.760
  70
    32
  0
VERTEX
  8
MATERIAL__EDELSTAHL_
  5
E698
 10
24.5119
 20
-27.0447
 30
198.116
  70
    32
  0
VERTEX
  8
MATERIAL__EDELSTAHL_
  5
E699
 10
25.8094
 20
-25.8094
 30
199.414
  70
    32
  0
VERTEX
  8
MATERIAL__EDELSTAHL_
  5
E69A
 10
27.0447
 20
-24.5119
 30
200.649
  70
    32
  0
VERTEX
  8
MATERIAL__EDELSTAHL_
  5
E69B
 10
28.2149
 20
-23.1554
 30
201.819
  70
    32
  0
VERTEX
  8
MATERIAL__EDELSTAHL_
  5
E69C
 10
29.3171
 20
-21.7430
 30
202.922
  70
    32
  0
VERTEX
  8
MATERIAL__EDELSTAHL_
  5
E69D
 10
30.3486
 20
-20.2783
 30
203.953
  70
    32
  0
VERTEX
  8
MATERIAL__EDELSTAHL_
  5
E69E
 10
31.3071
 20
-18.7648
 30
204.912
  70
    32
  0
VERTEX
  8
MATERIAL__EDELSTAHL_
  5
E69F
 10
32.1901
 20
-17.2060
 30
205.795
  70
    32
  0
VERTEX
  8
MATERIAL__EDELSTAHL_
  5
E6A0
 10
32.9956
 20
-15.6058
 30
206.600
  70
    32
  0
VERTEX
  8
MATERIAL__EDELSTAHL_
  5
E6A1
 10
33.7216
 20
-13.9679
 30
207.326
  70
    32
  0
VERTEX
  8
MATERIAL__EDELSTAHL_
  5
E6A2
 10
34.3664
 20
-12.2965
 30
207.971
  70
    32
  0
VERTEX
  8
MATERIAL__EDELSTAHL_
  5
E6A3
 10
34.9283
 20
-10.5954
 30
208.533
  70
    32
  0
VERTEX
  8
MATERIAL__EDELSTAHL_
  5
E6A4
 10
35.4061
 20
-8.86878
 30
209.011
  70
    32
  0
VERTEX
  8
MATERIAL__EDELSTAHL_
  5
E6A5
 10
35.7987
 20
-7.12080
 30
209.403
  70
    32
  0
VERTEX
  8
MATERIAL__EDELSTAHL_
  5
E6A6
 10
36.1049
 20
-5.35566
 30
209.710
  70
    32
  0
VERTEX
  8
MATERIAL__EDELSTAHL_
  5
E6A7
 10
36.3242
 20
-3.57763
 30
209.929
  70
    32
  0
VERTEX
  8
MATERIAL__EDELSTAHL_
  5
E6A8
 10
36.4560
 20
-1.79097
 30
210.061
  70
    32
  0
VERTEX
  8
MATERIAL__EDELSTAHL_
  5
E6A9
 10
36.5000
 20
-5.46000e-14
 30
210.105
  70
    32
  0
VERTEX
  8
MATERIAL__EDELSTAHL_
  5
E6AA
 10
36.4560
 20
1.79097
 30
210.061
  70
    32
  0
VERTEX
  8
MATERIAL__EDELSTAHL_
  5
E6AB
 10
36.3242
 20
3.57763
 30
209.929
  70
    32
  0
VERTEX
  8
MATERIAL__EDELSTAHL_
  5
E6AC
 10
36.1049
 20
5.35566
 30
209.710
  70
    32
  0
VERTEX
  8
MATERIAL__EDELSTAHL_
  5
E6AD
 10
35.7987
 20
7.12080
 30
209.403
  70
    32
  0
VERTEX
  8
MATERIAL__EDELSTAHL_
  5
E6AE
 10
35.4061
 20
8.86878
 30
209.011
  70
    32
  0
VERTEX
  8
MATERIAL__EDELSTAHL_
  5
E6AF
 10
34.9283
 20
10.5954
 30
208.533
  70
    32
  0
VERTEX
  8
MATERIAL__EDELSTAHL_
  5
E6B0
 10
34.3664
 20
12.2965
 30
207.971
  70
    32
  0
VERTEX
  8
MATERIAL__EDELSTAHL_
  5
E6B1
 10
33.7216
 20
13.9679
 30
207.326
  70
    32
  0
VERTEX
  8
MATERIAL__EDELSTAHL_
  5
E6B2
 10
32.9956
 20
15.6058
 30
206.600
  70
    32
  0
VERTEX
  8
MATERIAL__EDELSTAHL_
  5
E6B3
 10
32.1901
 20
17.2060
 30
205.795
  70
    32
  0
VERTEX
  8
MATERIAL__EDELSTAHL_
  5
E6B4
 10
31.3071
 20
18.7648
 30
204.912
  70
    32
  0
VERTEX
  8
MATERIAL__EDELSTAHL_
  5
E6B5
 10
30.3486
 20
20.2783
 30
203.953
  70
    32
  0
VERTEX
  8
MATERIAL__EDELSTAHL_
  5
E6B6
 10
29.3171
 20
21.7430
 30
202.922
  70
    32
  0
VERTEX
  8
MATERIAL__EDELSTAHL_
  5
E6B7
 10
28.2149
 20
23.1554
 30
201.819
  70
    32
  0
VERTEX
  8
MATERIAL__EDELSTAHL_
  5
E6B8
 10
27.0447
 20
24.5119
 30
200.649
  70
    32
  0
VERTEX
  8
MATERIAL__EDELSTAHL_
  5
E6B9
 10
25.8094
 20
25.8094
 30
199.414
  70
    32
  0
VERTEX
  8
MATERIAL__EDELSTAHL_
  5
E6BA
 10
24.5119
 20
27.0447
 30
198.116
  70
    32
  0
VERTEX
  8
MATERIAL__EDELSTAHL_
  5
E6BB
 10
23.1554
 20
28.2149
 30
196.760
  70
    32
  0
VERTEX
  8
MATERIAL__EDELSTAHL_
  5
E6BC
 10
21.7430
 20
29.3171
 30
195.348
  70
    32
  0
VERTEX
  8
MATERIAL__EDELSTAHL_
  5
E6BD
 10
20.2783
 20
30.3486
 30
193.883
  70
    32
  0
VERTEX
  8
MATERIAL__EDELSTAHL_
  5
E6BE
 10
18.7648
 20
31.3071
 30
192.369
  70
    32
  0
VERTEX
  8
MATERIAL__EDELSTAHL_
  5
E6BF
 10
17.2060
 20
32.1901
 30
190.811
  70
    32
  0
VERTEX
  8
MATERIAL__EDELSTAHL_
  5
E6C0
 10
15.6058
 20
32.9956
 30
189.210
  70
    32
  0
VERTEX
  8
MATERIAL__EDELSTAHL_
  5
E6C1
 10
13.9679
 20
33.7216
 30
187.573
  70
    32
  0
VERTEX
  8
MATERIAL__EDELSTAHL_
  5
E6C2
 10
12.2965
 20
34.3664
 30
185.901
  70
    32
  0
VERTEX
  8
MATERIAL__EDELSTAHL_
  5
E6C3
 10
10.5954
 20
34.9283
 30
184.200
  70
    32
  0
VERTEX
  8
MATERIAL__EDELSTAHL_
  5
E6C4
 10
8.86878
 20
35.4061
 30
182.473
  70
    32
  0
VERTEX
  8
MATERIAL__EDELSTAHL_
  5
E6C5
 10
7.12080
 20
35.7987
 30
180.725
  70
    32
  0
VERTEX
  8
MATERIAL__EDELSTAHL_
  5
E6C6
 10
5.35566
 20
36.1049
 30
178.960
  70
    32
  0
VERTEX
  8
MATERIAL__EDELSTAHL_
  5
E6C7
 10
3.57763
 20
36.3242
 30
177.182
  70
    32
  0
VERTEX
  8
MATERIAL__EDELSTAHL_
  5
E6C8
 10
1.79097
 20
36.4560
 30
175.396
  70
    32
  0
VERTEX
  8
MATERIAL__EDELSTAHL_
  5
E6C9
 10
2.95350e-14
 20
36.5000
 30
173.605
  70
    32
  0
VERTEX
  8
MATERIAL__EDELSTAHL_
  5
E6CA
 10
-1.79097
 20
36.4560
 30
171.814
  70
    32
  0
VERTEX
  8
MATERIAL__EDELSTAHL_
  5
E6CB
 10
-3.57763
 20
36.3242
 30
170.027
  70
    32
  0
VERTEX
  8
MATERIAL__EDELSTAHL_
  5
E6CC
 10
-5.35566
 20
36.1049
 30
168.249
  70
    32
  0
VERTEX
  8
MATERIAL__EDELSTAHL_
  5
E6CD
 10
-7.12080
 20
35.7987
 30
166.484
  70
    32
  0
VERTEX
  8
MATERIAL__EDELSTAHL_
  5
E6CE
 10
-8.86878
 20
35.4061
 30
164.736
  70
    32
  0
VERTEX
  8
MATERIAL__EDELSTAHL_
  5
E6CF
 10
-10.5954
 20
34.9283
 30
163.009
  70
    32
  0
VERTEX
  8
MATERIAL__EDELSTAHL_
  5
E6D0
 10
-12.2965
 20
34.3664
 30
161.308
  70
    32
  0
VERTEX
  8
MATERIAL__EDELSTAHL_
  5
E6D1
 10
-13.9679
 20
33.7216
 30
159.637
  70
    32
  0
VERTEX
  8
MATERIAL__EDELSTAHL_
  5
E6D2
 10
-15.6058
 20
32.9956
 30
157.999
  70
    32
  0
VERTEX
  8
MATERIAL__EDELSTAHL_
  5
E6D3
 10
-17.2060
 20
32.1901
 30
156.399
  70
    32
  0
VERTEX
  8
MATERIAL__EDELSTAHL_
  5
E6D4
 10
-18.7648
 20
31.3071
 30
154.840
  70
    32
  0
VERTEX
  8
MATERIAL__EDELSTAHL_
  5
E6D5
 10
-20.2783
 20
30.3486
 30
153.326
  70
    32
  0
VERTEX
  8
MATERIAL__EDELSTAHL_
  5
E6D6
 10
-21.7430
 20
29.3171
 30
151.862
  70
    32
  0
VERTEX
  8
MATERIAL__EDELSTAHL_
  5
E6D7
 10
-23.1554
 20
28.2149
 30
150.449
  70
    32
  0
VERTEX
  8
MATERIAL__EDELSTAHL_
  5
E6D8
 10
-24.5119
 20
27.0447
 30
149.093
  70
    32
  0
VERTEX
  8
MATERIAL__EDELSTAHL_
  5
E6D9
 10
-25.8094
 20
25.8094
 30
147.795
  70
    32
  0
VERTEX
  8
MATERIAL__EDELSTAHL_
  5
E6DA
 10
-27.0447
 20
24.5119
 30
146.560
  70
    32
  0
VERTEX
  8
MATERIAL__EDELSTAHL_
  5
E6DB
 10
-28.2149
 20
23.1554
 30
145.390
  70
    32
  0
VERTEX
  8
MATERIAL__EDELSTAHL_
  5
E6DC
 10
-29.3171
 20
21.7430
 30
144.288
  70
    32
  0
VERTEX
  8
MATERIAL__EDELSTAHL_
  5
E6DD
 10
-30.3486
 20
20.2783
 30
143.256
  70
    32
  0
VERTEX
  8
MATERIAL__EDELSTAHL_
  5
E6DE
 10
-31.3071
 20
18.7648
 30
142.297
  70
    32
  0
VERTEX
  8
MATERIAL__EDELSTAHL_
  5
E6DF
 10
-32.1901
 20
17.2060
 30
141.414
  70
    32
  0
VERTEX
  8
MATERIAL__EDELSTAHL_
  5
E6E0
 10
-32.9956
 20
15.6058
 30
140.609
  70
    32
  0
VERTEX
  8
MATERIAL__EDELSTAHL_
  5
E6E1
 10
-33.7216
 20
13.9679
 30
139.883
  70
    32
  0
VERTEX
  8
MATERIAL__EDELSTAHL_
  5
E6E2
 10
-34.3664
 20
12.2965
 30
139.238
  70
    32
  0
VERTEX
  8
MATERIAL__EDELSTAHL_
  5
E6E3
 10
-34.9283
 20
10.5954
 30
138.676
  70
    32
  0
VERTEX
  8
MATERIAL__EDELSTAHL_
  5
E6E4
 10
-35.4061
 20
8.86878
 30
138.198
  70
    32
  0
VERTEX
  8
MATERIAL__EDELSTAHL_
  5
E6E5
 10
-35.7987
 20
7.12080
 30
137.806
  70
    32
  0
VERTEX
  8
MATERIAL__EDELSTAHL_
  5
E6E6
 10
-36.1049
 20
5.35566
 30
137.500
  70
    32
  0
VERTEX
  8
MATERIAL__EDELSTAHL_
  5
E6E7
 10
-36.3242
 20
3.57763
 30
137.280
  70
    32
  0
VERTEX
  8
MATERIAL__EDELSTAHL_
  5
E6E8
 10
-36.4560
 20
1.79097
 30
137.149
  70
    32
  0
VERTEX
  8
MATERIAL__EDELSTAHL_
  5
E6E9
 10
-36.5000
 20
5.90700e-14
 30
137.105
  70
    32
  0
SEQEND
  8
MATERIAL__EDELSTAHL_
  5
E6EA
  0
CIRCLE
  5
E5DA
  8
MATERIAL__EDELSTAHL_
 10
0.0
 20
0.0
 30
0.0
 40
35.8875793553185076
210
0.0
220
-0.0000000000000001
230
-1.0
  0
CIRCLE
  5
E5DB
  8
MATERIAL__EDELSTAHL_
 10
0.0
 20
-0.0000000000000004
 30
-6.9999999999982938
 40
36.5
210
0.0
220
-0.0000000000000001
230
-1.0
  0
CIRCLE
  5
E5DC
  8
MATERIAL__EDELSTAHL_
 10
0.0
 20
0.0
 30
-0.104586891297231
 40
34.6921457176084687
210
0.0
220
-0.0000000000000001
230
-1.0
  0
CIRCLE
  5
E5DD
  8
MATERIAL__EDELSTAHL_
 10
0.0
 20
0.0
 30
0.0
 40
35.8875793553185076
210
0.0
220
-0.0000000000000001
230
-1.0
  0
CIRCLE
  5
E5DE
  8
MATERIAL__EDELSTAHL_
 10
0.0
 20
-0.0000000000000004
 30
-7.0523931314871779
 40
35.2999999999999616
210
0.0
220
-0.0000000000000001
230
-1.0
  0
CIRCLE
  5
E5DF
  8
MATERIAL__EDELSTAHL_
 10
0.0
 20
0.0
 30
-0.104586891297231
 40
34.6921457176084687
210
0.0
220
-0.0000000000000001
230
-1.0
  0
POLYLINE
  5
E5E0
  8
MATERIAL__EDELSTAHL_
 10
-35.2999999999999616
 20
0.0000000000000571
 30
138.304586891297248
 66
     1
 70
     8
  0
VERTEX
  8
MATERIAL__EDELSTAHL_
  5
E6EB
 10
-35.3000
 20
5.71230e-14
 30
138.305
  70
    32
  0
VERTEX
  8
MATERIAL__EDELSTAHL_
  5
E6EC
 10
-35.2575
 20
-1.73209
 30
138.347
  70
    32
  0
VERTEX
  8
MATERIAL__EDELSTAHL_
  5
E6ED
 10
-35.1300
 20
-3.46001
 30
138.475
  70
    32
  0
VERTEX
  8
MATERIAL__EDELSTAHL_
  5
E6EE
 10
-34.9179
 20
-5.17959
 30
138.687
  70
    32
  0
VERTEX
  8
MATERIAL__EDELSTAHL_
  5
E6EF
 10
-34.6217
 20
-6.88669
 30
138.983
  70
    32
  0
VERTEX
  8
MATERIAL__EDELSTAHL_
  5
E6F0
 10
-34.2421
 20
-8.57720
 30
139.362
  70
    32
  0
VERTEX
  8
MATERIAL__EDELSTAHL_
  5
E6F1
 10
-33.7800
 20
-10.2470
 30
139.825
  70
    32
  0
VERTEX
  8
MATERIAL__EDELSTAHL_
  5
E6F2
 10
-33.2365
 20
-11.8922
 30
140.368
  70
    32
  0
VERTEX
  8
MATERIAL__EDELSTAHL_
  5
E6F3
 10
-32.6129
 20
-13.5087
 30
140.992
  70
    32
  0
VERTEX
  8
MATERIAL__EDELSTAHL_
  5
E6F4
 10
-31.9108
 20
-15.0927
 30
141.694
  70
    32
  0
VERTEX
  8
MATERIAL__EDELSTAHL_
  5
E6F5
 10
-31.1318
 20
-16.6403
 30
142.473
  70
    32
  0
VERTEX
  8
MATERIAL__EDELSTAHL_
  5
E6F6
 10
-30.2778
 20
-18.1478
 30
143.327
  70
    32
  0
VERTEX
  8
MATERIAL__EDELSTAHL_
  5
E6F7
 10
-29.3509
 20
-19.6116
 30
144.254
  70
    32
  0
VERTEX
  8
MATERIAL__EDELSTAHL_
  5
E6F8
 10
-28.3532
 20
-21.0282
 30
145.251
  70
    32
  0
VERTEX
  8
MATERIAL__EDELSTAHL_
  5
E6F9
 10
-27.2873
 20
-22.3941
 30
146.317
  70
    32
  0
VERTEX
  8
MATERIAL__EDELSTAHL_
  5
E6FA
 10
-26.1556
 20
-23.7060
 30
147.449
  70
    32
  0
VERTEX
  8
MATERIAL__EDELSTAHL_
  5
E6FB
 10
-24.9609
 20
-24.9609
 30
148.644
  70
    32
  0
VERTEX
  8
MATERIAL__EDELSTAHL_
  5
E6FC
 10
-23.7060
 20
-26.1556
 30
149.899
  70
    32
  0
VERTEX
  8
MATERIAL__EDELSTAHL_
  5
E6FD
 10
-22.3941
 20
-27.2873
 30
151.211
  70
    32
  0
VERTEX
  8
MATERIAL__EDELSTAHL_
  5
E6FE
 10
-21.0282
 20
-28.3532
 30
152.576
  70
    32
  0
VERTEX
  8
MATERIAL__EDELSTAHL_
  5
E6FF
 10
-19.6116
 20
-29.3509
 30
153.993
  70
    32
  0
VERTEX
  8
MATERIAL__EDELSTAHL_
  5
E700
 10
-18.1478
 20
-30.2778
 30
155.457
  70
    32
  0
VERTEX
  8
MATERIAL__EDELSTAHL_
  5
E701
 10
-16.6403
 20
-31.1318
 30
156.964
  70
    32
  0
VERTEX
  8
MATERIAL__EDELSTAHL_
  5
E702
 10
-15.0927
 20
-31.9108
 30
158.512
  70
    32
  0
VERTEX
  8
MATERIAL__EDELSTAHL_
  5
E703
 10
-13.5087
 20
-32.6129
 30
160.096
  70
    32
  0
VERTEX
  8
MATERIAL__EDELSTAHL_
  5
E704
 10
-11.8922
 20
-33.2365
 30
161.712
  70
    32
  0
VERTEX
  8
MATERIAL__EDELSTAHL_
  5
E705
 10
-10.2470
 20
-33.7800
 30
163.358
  70
    32
  0
VERTEX
  8
MATERIAL__EDELSTAHL_
  5
E706
 10
-8.57720
 20
-34.2421
 30
165.027
  70
    32
  0
VERTEX
  8
MATERIAL__EDELSTAHL_
  5
E707
 10
-6.88669
 20
-34.6217
 30
166.718
  70
    32
  0
VERTEX
  8
MATERIAL__EDELSTAHL_
  5
E708
 10
-5.17959
 20
-34.9179
 30
168.425
  70
    32
  0
VERTEX
  8
MATERIAL__EDELSTAHL_
  5
E709
 10
-3.46001
 20
-35.1300
 30
170.145
  70
    32
  0
VERTEX
  8
MATERIAL__EDELSTAHL_
  5
E70A
 10
-1.73209
 20
-35.2575
 30
171.872
  70
    32
  0
VERTEX
  8
MATERIAL__EDELSTAHL_
  5
E70B
 10
-3.28845e-14
 20
-35.3000
 30
173.605
  70
    32
  0
VERTEX
  8
MATERIAL__EDELSTAHL_
  5
E70C
 10
1.73209
 20
-35.2575
 30
175.337
  70
    32
  0
VERTEX
  8
MATERIAL__EDELSTAHL_
  5
E70D
 10
3.46001
 20
-35.1300
 30
177.065
  70
    32
  0
VERTEX
  8
MATERIAL__EDELSTAHL_
  5
E70E
 10
5.17959
 20
-34.9179
 30
178.784
  70
    32
  0
VERTEX
  8
MATERIAL__EDELSTAHL_
  5
E70F
 10
6.88669
 20
-34.6217
 30
180.491
  70
    32
  0
VERTEX
  8
MATERIAL__EDELSTAHL_
  5
E710
 10
8.57720
 20
-34.2421
 30
182.182
  70
    32
  0
VERTEX
  8
MATERIAL__EDELSTAHL_
  5
E711
 10
10.2470
 20
-33.7800
 30
183.852
  70
    32
  0
VERTEX
  8
MATERIAL__EDELSTAHL_
  5
E712
 10
11.8922
 20
-33.2365
 30
185.497
  70
    32
  0
VERTEX
  8
MATERIAL__EDELSTAHL_
  5
E713
 10
13.5087
 20
-32.6129
 30
187.113
  70
    32
  0
VERTEX
  8
MATERIAL__EDELSTAHL_
  5
E714
 10
15.0927
 20
-31.9108
 30
188.697
  70
    32
  0
VERTEX
  8
MATERIAL__EDELSTAHL_
  5
E715
 10
16.6403
 20
-31.1318
 30
190.245
  70
    32
  0
VERTEX
  8
MATERIAL__EDELSTAHL_
  5
E716
 10
18.1478
 20
-30.2778
 30
191.752
  70
    32
  0
VERTEX
  8
MATERIAL__EDELSTAHL_
  5
E717
 10
19.6116
 20
-29.3509
 30
193.216
  70
    32
  0
VERTEX
  8
MATERIAL__EDELSTAHL_
  5
E718
 10
21.0282
 20
-28.3532
 30
194.633
  70
    32
  0
VERTEX
  8
MATERIAL__EDELSTAHL_
  5
E719
 10
22.3941
 20
-27.2873
 30
195.999
  70
    32
  0
VERTEX
  8
MATERIAL__EDELSTAHL_
  5
E71A
 10
23.7060
 20
-26.1556
 30
197.311
  70
    32
  0
VERTEX
  8
MATERIAL__EDELSTAHL_
  5
E71B
 10
24.9609
 20
-24.9609
 30
198.565
  70
    32
  0
VERTEX
  8
MATERIAL__EDELSTAHL_
  5
E71C
 10
26.1556
 20
-23.7060
 30
199.760
  70
    32
  0
VERTEX
  8
MATERIAL__EDELSTAHL_
  5
E71D
 10
27.2873
 20
-22.3941
 30
200.892
  70
    32
  0
VERTEX
  8
MATERIAL__EDELSTAHL_
  5
E71E
 10
28.3532
 20
-21.0282
 30
201.958
  70
    32
  0
VERTEX
  8
MATERIAL__EDELSTAHL_
  5
E71F
 10
29.3509
 20
-19.6116
 30
202.955
  70
    32
  0
VERTEX
  8
MATERIAL__EDELSTAHL_
  5
E720
 10
30.2778
 20
-18.1478
 30
203.882
  70
    32
  0
VERTEX
  8
MATERIAL__EDELSTAHL_
  5
E721
 10
31.1318
 20
-16.6403
 30
204.736
  70
    32
  0
VERTEX
  8
MATERIAL__EDELSTAHL_
  5
E722
 10
31.9108
 20
-15.0927
 30
205.515
  70
    32
  0
VERTEX
  8
MATERIAL__EDELSTAHL_
  5
E723
 10
32.6129
 20
-13.5087
 30
206.218
  70
    32
  0
VERTEX
  8
MATERIAL__EDELSTAHL_
  5
E724
 10
33.2365
 20
-11.8922
 30
206.841
  70
    32
  0
VERTEX
  8
MATERIAL__EDELSTAHL_
  5
E725
 10
33.7800
 20
-10.2470
 30
207.385
  70
    32
  0
VERTEX
  8
MATERIAL__EDELSTAHL_
  5
E726
 10
34.2421
 20
-8.57720
 30
207.847
  70
    32
  0
VERTEX
  8
MATERIAL__EDELSTAHL_
  5
E727
 10
34.6217
 20
-6.88669
 30
208.226
  70
    32
  0
VERTEX
  8
MATERIAL__EDELSTAHL_
  5
E728
 10
34.9179
 20
-5.17959
 30
208.523
  70
    32
  0
VERTEX
  8
MATERIAL__EDELSTAHL_
  5
E729
 10
35.1300
 20
-3.46001
 30
208.735
  70
    32
  0
VERTEX
  8
MATERIAL__EDELSTAHL_
  5
E72A
 10
35.2575
 20
-1.73209
 30
208.862
  70
    32
  0
VERTEX
  8
MATERIAL__EDELSTAHL_
  5
E72B
 10
35.3000
 20
-5.28000e-14
 30
208.905
  70
    32
  0
VERTEX
  8
MATERIAL__EDELSTAHL_
  5
E72C
 10
35.2575
 20
1.73209
 30
208.862
  70
    32
  0
VERTEX
  8
MATERIAL__EDELSTAHL_
  5
E72D
 10
35.1300
 20
3.46001
 30
208.735
  70
    32
  0
VERTEX
  8
MATERIAL__EDELSTAHL_
  5
E72E
 10
34.9179
 20
5.17959
 30
208.523
  70
    32
  0
VERTEX
  8
MATERIAL__EDELSTAHL_
  5
E72F
 10
34.6217
 20
6.88669
 30
208.226
  70
    32
  0
VERTEX
  8
MATERIAL__EDELSTAHL_
  5
E730
 10
34.2421
 20
8.57720
 30
207.847
  70
    32
  0
VERTEX
  8
MATERIAL__EDELSTAHL_
  5
E731
 10
33.7800
 20
10.2470
 30
207.385
  70
    32
  0
VERTEX
  8
MATERIAL__EDELSTAHL_
  5
E732
 10
33.2365
 20
11.8922
 30
206.841
  70
    32
  0
VERTEX
  8
MATERIAL__EDELSTAHL_
  5
E733
 10
32.6129
 20
13.5087
 30
206.218
  70
    32
  0
VERTEX
  8
MATERIAL__EDELSTAHL_
  5
E734
 10
31.9108
 20
15.0927
 30
205.515
  70
    32
  0
VERTEX
  8
MATERIAL__EDELSTAHL_
  5
E735
 10
31.1318
 20
16.6403
 30
204.736
  70
    32
  0
VERTEX
  8
MATERIAL__EDELSTAHL_
  5
E736
 10
30.2778
 20
18.1478
 30
203.882
  70
    32
  0
VERTEX
  8
MATERIAL__EDELSTAHL_
  5
E737
 10
29.3509
 20
19.6116
 30
202.955
  70
    32
  0
VERTEX
  8
MATERIAL__EDELSTAHL_
  5
E738
 10
28.3532
 20
21.0282
 30
201.958
  70
    32
  0
VERTEX
  8
MATERIAL__EDELSTAHL_
  5
E739
 10
27.2873
 20
22.3941
 30
200.892
  70
    32
  0
VERTEX
  8
MATERIAL__EDELSTAHL_
  5
E73A
 10
26.1556
 20
23.7060
 30
199.760
  70
    32
  0
VERTEX
  8
MATERIAL__EDELSTAHL_
  5
E73B
 10
24.9609
 20
24.9609
 30
198.565
  70
    32
  0
VERTEX
  8
MATERIAL__EDELSTAHL_
  5
E73C
 10
23.7060
 20
26.1556
 30
197.311
  70
    32
  0
VERTEX
  8
MATERIAL__EDELSTAHL_
  5
E73D
 10
22.3941
 20
27.2873
 30
195.999
  70
    32
  0
VERTEX
  8
MATERIAL__EDELSTAHL_
  5
E73E
 10
21.0282
 20
28.3532
 30
194.633
  70
    32
  0
VERTEX
  8
MATERIAL__EDELSTAHL_
  5
E73F
 10
19.6116
 20
29.3509
 30
193.216
  70
    32
  0
VERTEX
  8
MATERIAL__EDELSTAHL_
  5
E740
 10
18.1478
 20
30.2778
 30
191.752
  70
    32
  0
VERTEX
  8
MATERIAL__EDELSTAHL_
  5
E741
 10
16.6403
 20
31.1318
 30
190.245
  70
    32
  0
VERTEX
  8
MATERIAL__EDELSTAHL_
  5
E742
 10
15.0927
 20
31.9108
 30
188.697
  70
    32
  0
VERTEX
  8
MATERIAL__EDELSTAHL_
  5
E743
 10
13.5087
 20
32.6129
 30
187.113
  70
    32
  0
VERTEX
  8
MATERIAL__EDELSTAHL_
  5
E744
 10
11.8922
 20
33.2365
 30
185.497
  70
    32
  0
VERTEX
  8
MATERIAL__EDELSTAHL_
  5
E745
 10
10.2470
 20
33.7800
 30
183.852
  70
    32
  0
VERTEX
  8
MATERIAL__EDELSTAHL_
  5
E746
 10
8.57720
 20
34.2421
 30
182.182
  70
    32
  0
VERTEX
  8
MATERIAL__EDELSTAHL_
  5
E747
 10
6.88669
 20
34.6217
 30
180.491
  70
    32
  0
VERTEX
  8
MATERIAL__EDELSTAHL_
  5
E748
 10
5.17959
 20
34.9179
 30
178.784
  70
    32
  0
VERTEX
  8
MATERIAL__EDELSTAHL_
  5
E749
 10
3.46001
 20
35.1300
 30
177.065
  70
    32
  0
VERTEX
  8
MATERIAL__EDELSTAHL_
  5
E74A
 10
1.73209
 20
35.2575
 30
175.337
  70
    32
  0
VERTEX
  8
MATERIAL__EDELSTAHL_
  5
E74B
 10
2.85615e-14
 20
35.3000
 30
173.605
  70
    32
  0
VERTEX
  8
MATERIAL__EDELSTAHL_
  5
E74C
 10
-1.73209
 20
35.2575
 30
171.872
  70
    32
  0
VERTEX
  8
MATERIAL__EDELSTAHL_
  5
E74D
 10
-3.46001
 20
35.1300
 30
170.145
  70
    32
  0
VERTEX
  8
MATERIAL__EDELSTAHL_
  5
E74E
 10
-5.17959
 20
34.9179
 30
168.425
  70
    32
  0
VERTEX
  8
MATERIAL__EDELSTAHL_
  5
E74F
 10
-6.88669
 20
34.6217
 30
166.718
  70
    32
  0
VERTEX
  8
MATERIAL__EDELSTAHL_
  5
E750
 10
-8.57720
 20
34.2421
 30
165.027
  70
    32
  0
VERTEX
  8
MATERIAL__EDELSTAHL_
  5
E751
 10
-10.2470
 20
33.7800
 30
163.358
  70
    32
  0
VERTEX
  8
MATERIAL__EDELSTAHL_
  5
E752
 10
-11.8922
 20
33.2365
 30
161.712
  70
    32
  0
VERTEX
  8
MATERIAL__EDELSTAHL_
  5
E753
 10
-13.5087
 20
32.6129
 30
160.096
  70
    32
  0
VERTEX
  8
MATERIAL__EDELSTAHL_
  5
E754
 10
-15.0927
 20
31.9108
 30
158.512
  70
    32
  0
VERTEX
  8
MATERIAL__EDELSTAHL_
  5
E755
 10
-16.6403
 20
31.1318
 30
156.964
  70
    32
  0
VERTEX
  8
MATERIAL__EDELSTAHL_
  5
E756
 10
-18.1478
 20
30.2778
 30
155.457
  70
    32
  0
VERTEX
  8
MATERIAL__EDELSTAHL_
  5
E757
 10
-19.6116
 20
29.3509
 30
153.993
  70
    32
  0
VERTEX
  8
MATERIAL__EDELSTAHL_
  5
E758
 10
-21.0282
 20
28.3532
 30
152.576
  70
    32
  0
VERTEX
  8
MATERIAL__EDELSTAHL_
  5
E759
 10
-22.3941
 20
27.2873
 30
151.211
  70
    32
  0
VERTEX
  8
MATERIAL__EDELSTAHL_
  5
E75A
 10
-23.7060
 20
26.1556
 30
149.899
  70
    32
  0
VERTEX
  8
MATERIAL__EDELSTAHL_
  5
E75B
 10
-24.9609
 20
24.9609
 30
148.644
  70
    32
  0
VERTEX
  8
MATERIAL__EDELSTAHL_
  5
E75C
 10
-26.1556
 20
23.7060
 30
147.449
  70
    32
  0
VERTEX
  8
MATERIAL__EDELSTAHL_
  5
E75D
 10
-27.2873
 20
22.3941
 30
146.317
  70
    32
  0
VERTEX
  8
MATERIAL__EDELSTAHL_
  5
E75E
 10
-28.3532
 20
21.0282
 30
145.251
  70
    32
  0
VERTEX
  8
MATERIAL__EDELSTAHL_
  5
E75F
 10
-29.3509
 20
19.6116
 30
144.254
  70
    32
  0
VERTEX
  8
MATERIAL__EDELSTAHL_
  5
E760
 10
-30.2778
 20
18.1478
 30
143.327
  70
    32
  0
VERTEX
  8
MATERIAL__EDELSTAHL_
  5
E761
 10
-31.1318
 20
16.6403
 30
142.473
  70
    32
  0
VERTEX
  8
MATERIAL__EDELSTAHL_
  5
E762
 10
-31.9108
 20
15.0927
 30
141.694
  70
    32
  0
VERTEX
  8
MATERIAL__EDELSTAHL_
  5
E763
 10
-32.6129
 20
13.5087
 30
140.992
  70
    32
  0
VERTEX
  8
MATERIAL__EDELSTAHL_
  5
E764
 10
-33.2365
 20
11.8922
 30
140.368
  70
    32
  0
VERTEX
  8
MATERIAL__EDELSTAHL_
  5
E765
 10
-33.7800
 20
10.2470
 30
139.825
  70
    32
  0
VERTEX
  8
MATERIAL__EDELSTAHL_
  5
E766
 10
-34.2421
 20
8.57720
 30
139.362
  70
    32
  0
VERTEX
  8
MATERIAL__EDELSTAHL_
  5
E767
 10
-34.6217
 20
6.88669
 30
138.983
  70
    32
  0
VERTEX
  8
MATERIAL__EDELSTAHL_
  5
E768
 10
-34.9179
 20
5.17959
 30
138.687
  70
    32
  0
VERTEX
  8
MATERIAL__EDELSTAHL_
  5
E769
 10
-35.1300
 20
3.46001
 30
138.475
  70
    32
  0
VERTEX
  8
MATERIAL__EDELSTAHL_
  5
E76A
 10
-35.2575
 20
1.73209
 30
138.347
  70
    32
  0
VERTEX
  8
MATERIAL__EDELSTAHL_
  5
E76B
 10
-35.3000
 20
5.71230e-14
 30
138.305
  70
    32
  0
SEQEND
  8
MATERIAL__EDELSTAHL_
  5
E76C
  0
CIRCLE
  5
E5E1
  8
MATERIAL__EDELSTAHL_
 10
0.0
 20
-0.0000000000000004
 30
-7.0523931314871779
 40
35.2999999999999616
210
0.0
220
-0.0000000000000001
230
-1.0
  0
POLYLINE
  5
E5E2
  8
MATERIAL__EDELSTAHL_
 10
-36.5
 20
0.0000000000000501
 30
137.1045868912972026
 66
     1
 70
     8
  0
VERTEX
  8
MATERIAL__EDELSTAHL_
  5
E76D
 10
-36.5000
 20
5.01300e-14
 30
137.105
  70
    32
  0
VERTEX
  8
MATERIAL__EDELSTAHL_
  5
E76E
 10
-36.4560
 20
1.79097
 30
137.149
  70
    32
  0
VERTEX
  8
MATERIAL__EDELSTAHL_
  5
E76F
 10
-36.3242
 20
3.57763
 30
137.280
  70
    32
  0
VERTEX
  8
MATERIAL__EDELSTAHL_
  5
E770
 10
-36.1049
 20
5.35566
 30
137.500
  70
    32
  0
VERTEX
  8
MATERIAL__EDELSTAHL_
  5
E771
 10
-35.7987
 20
7.12080
 30
137.806
  70
    32
  0
VERTEX
  8
MATERIAL__EDELSTAHL_
  5
E772
 10
-35.4061
 20
8.86878
 30
138.198
  70
    32
  0
VERTEX
  8
MATERIAL__EDELSTAHL_
  5
E773
 10
-34.9283
 20
10.5954
 30
138.676
  70
    32
  0
VERTEX
  8
MATERIAL__EDELSTAHL_
  5
E774
 10
-34.3664
 20
12.2965
 30
139.238
  70
    32
  0
VERTEX
  8
MATERIAL__EDELSTAHL_
  5
E775
 10
-33.7216
 20
13.9679
 30
139.883
  70
    32
  0
VERTEX
  8
MATERIAL__EDELSTAHL_
  5
E776
 10
-32.9956
 20
15.6058
 30
140.609
  70
    32
  0
VERTEX
  8
MATERIAL__EDELSTAHL_
  5
E777
 10
-32.1901
 20
17.2060
 30
141.414
  70
    32
  0
VERTEX
  8
MATERIAL__EDELSTAHL_
  5
E778
 10
-31.3071
 20
18.7648
 30
142.297
  70
    32
  0
VERTEX
  8
MATERIAL__EDELSTAHL_
  5
E779
 10
-30.3486
 20
20.2783
 30
143.256
  70
    32
  0
VERTEX
  8
MATERIAL__EDELSTAHL_
  5
E77A
 10
-29.3171
 20
21.7430
 30
144.288
  70
    32
  0
VERTEX
  8
MATERIAL__EDELSTAHL_
  5
E77B
 10
-28.2149
 20
23.1554
 30
145.390
  70
    32
  0
VERTEX
  8
MATERIAL__EDELSTAHL_
  5
E77C
 10
-27.0447
 20
24.5119
 30
146.560
  70
    32
  0
VERTEX
  8
MATERIAL__EDELSTAHL_
  5
E77D
 10
-25.8094
 20
25.8094
 30
147.795
  70
    32
  0
VERTEX
  8
MATERIAL__EDELSTAHL_
  5
E77E
 10
-24.5119
 20
27.0447
 30
149.093
  70
    32
  0
VERTEX
  8
MATERIAL__EDELSTAHL_
  5
E77F
 10
-23.1554
 20
28.2149
 30
150.449
  70
    32
  0
VERTEX
  8
MATERIAL__EDELSTAHL_
  5
E780
 10
-21.7430
 20
29.3171
 30
151.862
  70
    32
  0
VERTEX
  8
MATERIAL__EDELSTAHL_
  5
E781
 10
-20.2783
 20
30.3486
 30
153.326
  70
    32
  0
VERTEX
  8
MATERIAL__EDELSTAHL_
  5
E782
 10
-18.7648
 20
31.3071
 30
154.840
  70
    32
  0
VERTEX
  8
MATERIAL__EDELSTAHL_
  5
E783
 10
-17.2060
 20
32.1901
 30
156.399
  70
    32
  0
VERTEX
  8
MATERIAL__EDELSTAHL_
  5
E784
 10
-15.6058
 20
32.9956
 30
157.999
  70
    32
  0
VERTEX
  8
MATERIAL__EDELSTAHL_
  5
E785
 10
-13.9679
 20
33.7216
 30
159.637
  70
    32
  0
VERTEX
  8
MATERIAL__EDELSTAHL_
  5
E786
 10
-12.2965
 20
34.3664
 30
161.308
  70
    32
  0
VERTEX
  8
MATERIAL__EDELSTAHL_
  5
E787
 10
-10.5954
 20
34.9283
 30
163.009
  70
    32
  0
VERTEX
  8
MATERIAL__EDELSTAHL_
  5
E788
 10
-8.86878
 20
35.4061
 30
164.736
  70
    32
  0
VERTEX
  8
MATERIAL__EDELSTAHL_
  5
E789
 10
-7.12080
 20
35.7987
 30
166.484
  70
    32
  0
VERTEX
  8
MATERIAL__EDELSTAHL_
  5
E78A
 10
-5.35566
 20
36.1049
 30
168.249
  70
    32
  0
VERTEX
  8
MATERIAL__EDELSTAHL_
  5
E78B
 10
-3.57763
 20
36.3242
 30
170.027
  70
    32
  0
VERTEX
  8
MATERIAL__EDELSTAHL_
  5
E78C
 10
-1.79097
 20
36.4560
 30
171.814
  70
    32
  0
VERTEX
  8
MATERIAL__EDELSTAHL_
  5
E78D
 10
2.05951e-14
 20
36.5000
 30
173.605
  70
    32
  0
VERTEX
  8
MATERIAL__EDELSTAHL_
  5
E78E
 10
1.79097
 20
36.4560
 30
175.396
  70
    32
  0
VERTEX
  8
MATERIAL__EDELSTAHL_
  5
E78F
 10
3.57763
 20
36.3242
 30
177.182
  70
    32
  0
VERTEX
  8
MATERIAL__EDELSTAHL_
  5
E790
 10
5.35566
 20
36.1049
 30
178.960
  70
    32
  0
VERTEX
  8
MATERIAL__EDELSTAHL_
  5
E791
 10
7.12080
 20
35.7987
 30
180.725
  70
    32
  0
VERTEX
  8
MATERIAL__EDELSTAHL_
  5
E792
 10
8.86878
 20
35.4061
 30
182.473
  70
    32
  0
VERTEX
  8
MATERIAL__EDELSTAHL_
  5
E793
 10
10.5954
 20
34.9283
 30
184.200
  70
    32
  0
VERTEX
  8
MATERIAL__EDELSTAHL_
  5
E794
 10
12.2965
 20
34.3664
 30
185.901
  70
    32
  0
VERTEX
  8
MATERIAL__EDELSTAHL_
  5
E795
 10
13.9679
 20
33.7216
 30
187.573
  70
    32
  0
VERTEX
  8
MATERIAL__EDELSTAHL_
  5
E796
 10
15.6058
 20
32.9956
 30
189.210
  70
    32
  0
VERTEX
  8
MATERIAL__EDELSTAHL_
  5
E797
 10
17.2060
 20
32.1901
 30
190.811
  70
    32
  0
VERTEX
  8
MATERIAL__EDELSTAHL_
  5
E798
 10
18.7648
 20
31.3071
 30
192.369
  70
    32
  0
VERTEX
  8
MATERIAL__EDELSTAHL_
  5
E799
 10
20.2783
 20
30.3486
 30
193.883
  70
    32
  0
VERTEX
  8
MATERIAL__EDELSTAHL_
  5
E79A
 10
21.7430
 20
29.3171
 30
195.348
  70
    32
  0
VERTEX
  8
MATERIAL__EDELSTAHL_
  5
E79B
 10
23.1554
 20
28.2149
 30
196.760
  70
    32
  0
VERTEX
  8
MATERIAL__EDELSTAHL_
  5
E79C
 10
24.5119
 20
27.0447
 30
198.116
  70
    32
  0
VERTEX
  8
MATERIAL__EDELSTAHL_
  5
E79D
 10
25.8094
 20
25.8094
 30
199.414
  70
    32
  0
VERTEX
  8
MATERIAL__EDELSTAHL_
  5
E79E
 10
27.0447
 20
24.5119
 30
200.649
  70
    32
  0
VERTEX
  8
MATERIAL__EDELSTAHL_
  5
E79F
 10
28.2149
 20
23.1554
 30
201.819
  70
    32
  0
VERTEX
  8
MATERIAL__EDELSTAHL_
  5
E7A0
 10
29.3171
 20
21.7430
 30
202.922
  70
    32
  0
VERTEX
  8
MATERIAL__EDELSTAHL_
  5
E7A1
 10
30.3486
 20
20.2783
 30
203.953
  70
    32
  0
VERTEX
  8
MATERIAL__EDELSTAHL_
  5
E7A2
 10
31.3071
 20
18.7648
 30
204.912
  70
    32
  0
VERTEX
  8
MATERIAL__EDELSTAHL_
  5
E7A3
 10
32.1901
 20
17.2060
 30
205.795
  70
    32
  0
VERTEX
  8
MATERIAL__EDELSTAHL_
  5
E7A4
 10
32.9956
 20
15.6058
 30
206.600
  70
    32
  0
VERTEX
  8
MATERIAL__EDELSTAHL_
  5
E7A5
 10
33.7216
 20
13.9679
 30
207.326
  70
    32
  0
VERTEX
  8
MATERIAL__EDELSTAHL_
  5
E7A6
 10
34.3664
 20
12.2965
 30
207.971
  70
    32
  0
VERTEX
  8
MATERIAL__EDELSTAHL_
  5
E7A7
 10
34.9283
 20
10.5954
 30
208.533
  70
    32
  0
VERTEX
  8
MATERIAL__EDELSTAHL_
  5
E7A8
 10
35.4061
 20
8.86878
 30
209.011
  70
    32
  0
VERTEX
  8
MATERIAL__EDELSTAHL_
  5
E7A9
 10
35.7987
 20
7.12080
 30
209.403
  70
    32
  0
VERTEX
  8
MATERIAL__EDELSTAHL_
  5
E7AA
 10
36.1049
 20
5.35566
 30
209.710
  70
    32
  0
VERTEX
  8
MATERIAL__EDELSTAHL_
  5
E7AB
 10
36.3242
 20
3.57763
 30
209.929
  70
    32
  0
VERTEX
  8
MATERIAL__EDELSTAHL_
  5
E7AC
 10
36.4560
 20
1.79097
 30
210.061
  70
    32
  0
VERTEX
  8
MATERIAL__EDELSTAHL_
  5
E7AD
 10
36.5000
 20
-5.46000e-14
 30
210.105
  70
    32
  0
VERTEX
  8
MATERIAL__EDELSTAHL_
  5
E7AE
 10
36.4560
 20
-1.79097
 30
210.061
  70
    32
  0
VERTEX
  8
MATERIAL__EDELSTAHL_
  5
E7AF
 10
36.3242
 20
-3.57763
 30
209.929
  70
    32
  0
VERTEX
  8
MATERIAL__EDELSTAHL_
  5
E7B0
 10
36.1049
 20
-5.35566
 30
209.710
  70
    32
  0
VERTEX
  8
MATERIAL__EDELSTAHL_
  5
E7B1
 10
35.7987
 20
-7.12080
 30
209.403
  70
    32
  0
VERTEX
  8
MATERIAL__EDELSTAHL_
  5
E7B2
 10
35.4061
 20
-8.86878
 30
209.011
  70
    32
  0
VERTEX
  8
MATERIAL__EDELSTAHL_
  5
E7B3
 10
34.9283
 20
-10.5954
 30
208.533
  70
    32
  0
VERTEX
  8
MATERIAL__EDELSTAHL_
  5
E7B4
 10
34.3664
 20
-12.2965
 30
207.971
  70
    32
  0
VERTEX
  8
MATERIAL__EDELSTAHL_
  5
E7B5
 10
33.7216
 20
-13.9679
 30
207.326
  70
    32
  0
VERTEX
  8
MATERIAL__EDELSTAHL_
  5
E7B6
 10
32.9956
 20
-15.6058
 30
206.600
  70
    32
  0
VERTEX
  8
MATERIAL__EDELSTAHL_
  5
E7B7
 10
32.1901
 20
-17.2060
 30
205.795
  70
    32
  0
VERTEX
  8
MATERIAL__EDELSTAHL_
  5
E7B8
 10
31.3071
 20
-18.7648
 30
204.912
  70
    32
  0
VERTEX
  8
MATERIAL__EDELSTAHL_
  5
E7B9
 10
30.3486
 20
-20.2783
 30
203.953
  70
    32
  0
VERTEX
  8
MATERIAL__EDELSTAHL_
  5
E7BA
 10
29.3171
 20
-21.7430
 30
202.922
  70
    32
  0
VERTEX
  8
MATERIAL__EDELSTAHL_
  5
E7BB
 10
28.2149
 20
-23.1554
 30
201.819
  70
    32
  0
VERTEX
  8
MATERIAL__EDELSTAHL_
  5
E7BC
 10
27.0447
 20
-24.5119
 30
200.649
  70
    32
  0
VERTEX
  8
MATERIAL__EDELSTAHL_
  5
E7BD
 10
25.8094
 20
-25.8094
 30
199.414
  70
    32
  0
VERTEX
  8
MATERIAL__EDELSTAHL_
  5
E7BE
 10
24.5119
 20
-27.0447
 30
198.116
  70
    32
  0
VERTEX
  8
MATERIAL__EDELSTAHL_
  5
E7BF
 10
23.1554
 20
-28.2149
 30
196.760
  70
    32
  0
VERTEX
  8
MATERIAL__EDELSTAHL_
  5
E7C0
 10
21.7430
 20
-29.3171
 30
195.348
  70
    32
  0
VERTEX
  8
MATERIAL__EDELSTAHL_
  5
E7C1
 10
20.2783
 20
-30.3486
 30
193.883
  70
    32
  0
VERTEX
  8
MATERIAL__EDELSTAHL_
  5
E7C2
 10
18.7648
 20
-31.3071
 30
192.369
  70
    32
  0
VERTEX
  8
MATERIAL__EDELSTAHL_
  5
E7C3
 10
17.2060
 20
-32.1901
 30
190.811
  70
    32
  0
VERTEX
  8
MATERIAL__EDELSTAHL_
  5
E7C4
 10
15.6058
 20
-32.9956
 30
189.210
  70
    32
  0
VERTEX
  8
MATERIAL__EDELSTAHL_
  5
E7C5
 10
13.9679
 20
-33.7216
 30
187.573
  70
    32
  0
VERTEX
  8
MATERIAL__EDELSTAHL_
  5
E7C6
 10
12.2965
 20
-34.3664
 30
185.901
  70
    32
  0
VERTEX
  8
MATERIAL__EDELSTAHL_
  5
E7C7
 10
10.5954
 20
-34.9283
 30
184.200
  70
    32
  0
VERTEX
  8
MATERIAL__EDELSTAHL_
  5
E7C8
 10
8.86878
 20
-35.4061
 30
182.473
  70
    32
  0
VERTEX
  8
MATERIAL__EDELSTAHL_
  5
E7C9
 10
7.12080
 20
-35.7987
 30
180.725
  70
    32
  0
VERTEX
  8
MATERIAL__EDELSTAHL_
  5
E7CA
 10
5.35566
 20
-36.1049
 30
178.960
  70
    32
  0
VERTEX
  8
MATERIAL__EDELSTAHL_
  5
E7CB
 10
3.57763
 20
-36.3242
 30
177.182
  70
    32
  0
VERTEX
  8
MATERIAL__EDELSTAHL_
  5
E7CC
 10
1.79097
 20
-36.4560
 30
175.396
  70
    32
  0
VERTEX
  8
MATERIAL__EDELSTAHL_
  5
E7CD
 10
-2.50650e-14
 20
-36.5000
 30
173.605
  70
    32
  0
VERTEX
  8
MATERIAL__EDELSTAHL_
  5
E7CE
 10
-1.79097
 20
-36.4560
 30
171.814
  70
    32
  0
VERTEX
  8
MATERIAL__EDELSTAHL_
  5
E7CF
 10
-3.57763
 20
-36.3242
 30
170.027
  70
    32
  0
VERTEX
  8
MATERIAL__EDELSTAHL_
  5
E7D0
 10
-5.35566
 20
-36.1049
 30
168.249
  70
    32
  0
VERTEX
  8
MATERIAL__EDELSTAHL_
  5
E7D1
 10
-7.12080
 20
-35.7987
 30
166.484
  70
    32
  0
VERTEX
  8
MATERIAL__EDELSTAHL_
  5
E7D2
 10
-8.86878
 20
-35.4061
 30
164.736
  70
    32
  0
VERTEX
  8
MATERIAL__EDELSTAHL_
  5
E7D3
 10
-10.5954
 20
-34.9283
 30
163.009
  70
    32
  0
VERTEX
  8
MATERIAL__EDELSTAHL_
  5
E7D4
 10
-12.2965
 20
-34.3664
 30
161.308
  70
    32
  0
VERTEX
  8
MATERIAL__EDELSTAHL_
  5
E7D5
 10
-13.9679
 20
-33.7216
 30
159.637
  70
    32
  0
VERTEX
  8
MATERIAL__EDELSTAHL_
  5
E7D6
 10
-15.6058
 20
-32.9956
 30
157.999
  70
    32
  0
VERTEX
  8
MATERIAL__EDELSTAHL_
  5
E7D7
 10
-17.2060
 20
-32.1901
 30
156.399
  70
    32
  0
VERTEX
  8
MATERIAL__EDELSTAHL_
  5
E7D8
 10
-18.7648
 20
-31.3071
 30
154.840
  70
    32
  0
VERTEX
  8
MATERIAL__EDELSTAHL_
  5
E7D9
 10
-20.2783
 20
-30.3486
 30
153.326
  70
    32
  0
VERTEX
  8
MATERIAL__EDELSTAHL_
  5
E7DA
 10
-21.7430
 20
-29.3171
 30
151.862
  70
    32
  0
VERTEX
  8
MATERIAL__EDELSTAHL_
  5
E7DB
 10
-23.1554
 20
-28.2149
 30
150.449
  70
    32
  0
VERTEX
  8
MATERIAL__EDELSTAHL_
  5
E7DC
 10
-24.5119
 20
-27.0447
 30
149.093
  70
    32
  0
VERTEX
  8
MATERIAL__EDELSTAHL_
  5
E7DD
 10
-25.8094
 20
-25.8094
 30
147.795
  70
    32
  0
VERTEX
  8
MATERIAL__EDELSTAHL_
  5
E7DE
 10
-27.0447
 20
-24.5119
 30
146.560
  70
    32
  0
VERTEX
  8
MATERIAL__EDELSTAHL_
  5
E7DF
 10
-28.2149
 20
-23.1554
 30
145.390
  70
    32
  0
VERTEX
  8
MATERIAL__EDELSTAHL_
  5
E7E0
 10
-29.3171
 20
-21.7430
 30
144.288
  70
    32
  0
VERTEX
  8
MATERIAL__EDELSTAHL_
  5
E7E1
 10
-30.3486
 20
-20.2783
 30
143.256
  70
    32
  0
VERTEX
  8
MATERIAL__EDELSTAHL_
  5
E7E2
 10
-31.3071
 20
-18.7648
 30
142.297
  70
    32
  0
VERTEX
  8
MATERIAL__EDELSTAHL_
  5
E7E3
 10
-32.1901
 20
-17.2060
 30
141.414
  70
    32
  0
VERTEX
  8
MATERIAL__EDELSTAHL_
  5
E7E4
 10
-32.9956
 20
-15.6058
 30
140.609
  70
    32
  0
VERTEX
  8
MATERIAL__EDELSTAHL_
  5
E7E5
 10
-33.7216
 20
-13.9679
 30
139.883
  70
    32
  0
VERTEX
  8
MATERIAL__EDELSTAHL_
  5
E7E6
 10
-34.3664
 20
-12.2965
 30
139.238
  70
    32
  0
VERTEX
  8
MATERIAL__EDELSTAHL_
  5
E7E7
 10
-34.9283
 20
-10.5954
 30
138.676
  70
    32
  0
VERTEX
  8
MATERIAL__EDELSTAHL_
  5
E7E8
 10
-35.4061
 20
-8.86878
 30
138.198
  70
    32
  0
VERTEX
  8
MATERIAL__EDELSTAHL_
  5
E7E9
 10
-35.7987
 20
-7.12080
 30
137.806
  70
    32
  0
VERTEX
  8
MATERIAL__EDELSTAHL_
  5
E7EA
 10
-36.1049
 20
-5.35566
 30
137.500
  70
    32
  0
VERTEX
  8
MATERIAL__EDELSTAHL_
  5
E7EB
 10
-36.3242
 20
-3.57763
 30
137.280
  70
    32
  0
VERTEX
  8
MATERIAL__EDELSTAHL_
  5
E7EC
 10
-36.4560
 20
-1.79097
 30
137.149
  70
    32
  0
VERTEX
  8
MATERIAL__EDELSTAHL_
  5
E7ED
 10
-36.5000
 20
5.01300e-14
 30
137.105
  70
    32
  0
SEQEND
  8
MATERIAL__EDELSTAHL_
  5
E7EE
  0
CIRCLE
  5
E5E3
  8
MATERIAL__EDELSTAHL_
 10
0.0
 20
-0.0000000000000004
 30
-6.9999999999982938
 40
36.5
210
0.0
220
-0.0000000000000001
230
-1.0
  0
ENDBLK
  5
E5E5
  8
0
  0
ENDSEC
  0
SECTION
  2
ENTITIES
  0
TEXT
  5
A55
  8
TEXT
 62
     1
 10
790.1294755517468502
 20
62.9470459695668723
 30
0.0
 40
7.0
  1

 41
0.8
  7
GREEKS
 72
     1
 11
790.1294755517468502
 21
62.9470459695668723
 31
0.0
  0
INSERT
  5
30AA
  8
ADSK_ASSOC_ENTITY_BACKUPS
  2
*S0
 10
0.0
 20
0.0
 30
0.0
  0
INSERT
  5
DE4B
  8
STEMPEL
  2
*U9
 10
0.0
 20
0.0
 30
0.0
  0
VIEWPORT
  5
2672
 67
     1
  8
0
 10
99.3585313714809359
 20
145.4660764878944974
 30
0.0
 40
558.2865320259104465
 41
298.8370330734960021
 68
     1
 69
     1
1001
ACAD
1000
MVIEW
1002
{
1070
    16
1010
0.0
1020
0.0
1030
0.0
1010
0.0
1020
0.0
1030
1.0
1040
0.0
1040
298.8370330734960021
1040
99.3585313714809359
1040
145.4660764878944974
1040
50.0
1040
0.0
1040
0.0
1070
     0
1070
  1500
1070
     1
1070
     1
1070
     0
1070
     0
1070
     0
1070
     0
1040
0.0
1040
0.0
1040
0.0
1040
10.0
1040
10.0
1040
10.0
1040
10.0
1070
     0
1002
{
1002
}
1002
}
  0
ENDSEC
  0
EOF
