  0
SECTION
  2
HEADER
  9
$ACADVER
  1
AC1009
  9
$INSBASE
 10
0.0
 20
0.0
 30
0.0
  9
$EXTMIN
 10
-26.5
 20
-26.5000000000000213
 30
0.0
  9
$EXTMAX
 10
26.5
 20
26.4999999999999893
 30
185.0
  9
$LIMMIN
 10
0.0
 20
0.0
  9
$LIMMAX
 10
594.0000000000002274
 20
840.0
  9
$ORTHOMODE
 70
     1
  9
$REGENMODE
 70
     1
  9
$FILLMODE
 70
     1
  9
$QTEXTMODE
 70
     0
  9
$MIRRTEXT
 70
     1
  9
$DRAGMODE
 70
     2
  9
$LTSCALE
 40
20.0
  9
$OSMODE
 70
  2559
  9
$ATTMODE
 70
     1
  9
$TEXTSIZE
 40
3.5
  9
$TRACEWID
 40
1.0
  9
$TEXTSTYLE
  7
STANDARD
  9
$CLAYER
  8
STEMPEL
  9
$CELTYPE
  6
BYLAYER
  9
$CECOLOR
 62
   256
  9
$DIMSCALE
 40
1.0
  9
$DIMASZ
 40
3.5
  9
$DIMEXO
 40
1.0
  9
$DIMDLI
 40
7.0
  9
$DIMRND
 40
0.0
  9
$DIMDLE
 40
0.0
  9
$DIMEXE
 40
1.0
  9
$DIMTP
 40
0.0
  9
$DIMTM
 40
0.0
  9
$DIMTXT
 40
3.5
  9
$DIMCEN
 40
1.5
  9
$DIMTSZ
 40
0.0
  9
$DIMTOL
 70
     0
  9
$DIMLIM
 70
     0
  9
$DIMTIH
 70
     0
  9
$DIMTOH
 70
     0
  9
$DIMSE1
 70
     0
  9
$DIMSE2
 70
     0
  9
$DIMTAD
 70
     1
  9
$DIMZIN
 70
     8
  9
$DIMBLK
  1

  9
$DIMASO
 70
     1
  9
$DIMSHO
 70
     0
  9
$DIMPOST
  1

  9
$DIMAPOST
  1

  9
$DIMALT
 70
     0
  9
$DIMALTD
 70
     2
  9
$DIMALTF
 40
25.3999999999999986
  9
$DIMLFAC
 40
2.0
  9
$DIMTOFL
 70
     1
  9
$DIMTVP
 40
0.0
  9
$DIMTIX
 70
     0
  9
$DIMSOXD
 70
     0
  9
$DIMSAH
 70
     0
  9
$DIMBLK1
  1

  9
$DIMBLK2
  1

  9
$DIMSTYLE
  2
STANDARD
  9
$DIMCLRD
 70
     0
  9
$DIMCLRE
 70
     0
  9
$DIMCLRT
 70
     1
  9
$DIMTFAC
 40
0.5
  9
$DIMGAP
 40
1.5
  9
$LUNITS
 70
     2
  9
$LUPREC
 70
     2
  9
$SKETCHINC
 40
1.0
  9
$FILLETRAD
 40
6.0
  9
$AUNITS
 70
     0
  9
$AUPREC
 70
     0
  9
$MENU
  1
ACAD
  9
$ELEVATION
 40
0.0
  9
$PELEVATION
 40
0.0
  9
$THICKNESS
 40
0.0
  9
$LIMCHECK
 70
     0
  9
$BLIPMODE
 70
     0
  9
$CHAMFERA
 40
0.0
  9
$CHAMFERB
 40
0.0
  9
$SKPOLY
 70
     0
  9
$TDCREATE
 40
2455397.867048610933125
  9
$TDUPDATE
 40
2458885.4188425932079554
  9
$TDINDWG
 40
2.6470277431000002
  9
$TDUSRTIMER
 40
2.6470277431000002
  9
$USRTIMER
 70
     1
  9
$ANGBASE
 50
0.0
  9
$ANGDIR
 70
     0
  9
$PDMODE
 70
     0
  9
$PDSIZE
 40
0.0
  9
$PLINEWID
 40
0.0
  9
$COORDS
 70
     1
  9
$SPLFRAME
 70
     0
  9
$SPLINETYPE
 70
     6
  9
$SPLINESEGS
 70
     8
  9
$ATTDIA
 70
     1
  9
$ATTREQ
 70
     1
  9
$HANDLING
 70
     1
  9
$HANDSEED
  5
E792
  9
$SURFTAB1
 70
     6
  9
$SURFTAB2
 70
     6
  9
$SURFTYPE
 70
     6
  9
$SURFU
 70
     6
  9
$SURFV
 70
     6
  9
$UCSNAME
  2

  9
$UCSORG
 10
0.0
 20
0.0
 30
0.0
  9
$UCSXDIR
 10
1.0
 20
0.0
 30
0.0
  9
$UCSYDIR
 10
0.0
 20
1.0
 30
0.0
  9
$PUCSNAME
  2

  9
$PUCSORG
 10
0.0
 20
0.0
 30
0.0
  9
$PUCSXDIR
 10
1.0
 20
0.0
 30
0.0
  9
$PUCSYDIR
 10
0.0
 20
1.0
 30
0.0
  9
$USERI1
 70
     0
  9
$USERI2
 70
     0
  9
$USERI3
 70
     0
  9
$USERI4
 70
     0
  9
$USERI5
 70
     0
  9
$USERR1
 40
0.0
  9
$USERR2
 40
0.0
  9
$USERR3
 40
0.0
  9
$USERR4
 40
0.0
  9
$USERR5
 40
0.0
  9
$WORLDVIEW
 70
     1
  9
$SHADEDGE
 70
     3
  9
$SHADEDIF
 70
    70
  9
$TILEMODE
 70
     1
  9
$MAXACTVP
 70
    16
  9
$PLIMCHECK
 70
     0
  9
$PEXTMIN
 10
0.0000000461132004
 20
-0.0000002526496843
 30
-411.1988790163717908
  9
$PEXTMAX
 10
198.7328323365676965
 20
290.9435757473502804
 30
0.0000000000000568
  9
$PLIMMIN
 10
-5.7615221439136342
 20
-3.1946115626146931
  9
$PLIMMAX
 10
204.4614340910306112
 20
294.1267645384037905
  9
$UNITMODE
 70
     0
  9
$VISRETAIN
 70
     0
  9
$PLINEGEN
 70
     0
  9
$PSLTSCALE
 70
     0
  0
ENDSEC
  0
SECTION
  2
TABLES
  0
TABLE
  2
VPORT
 70
     1
  0
VPORT
  2
*ACTIVE
 70
     0
 10
0.0
 20
0.0
 11
1.0
 21
1.0
 12
15.9442321178275908
 22
-31.5562927332004506
 13
0.0
 23
0.0
 14
1.0
 24
1.0
 15
10.0
 25
10.0
 16
-284.4659015842148051
 26
-284.4669391296300773
 36
284.4659015842149188
 17
3.9417958528924659
 27
26.4904006538521415
 37
115.9322931263871936
 40
195.3168434433879952
 41
1.868197278911564
 42
49.9999999999999929
 43
0.0
 44
0.0
 50
0.0
 51
0.0000000000000153
 71
     0
 72
  1500
 73
     1
 74
     1
 75
     0
 76
     0
 77
     0
 78
     0
  0
ENDTAB
  0
TABLE
  2
LTYPE
 70
     4
  0
LTYPE
  2
CONTINUOUS
 70
     0
  3
Solid line
 72
    65
 73
     0
 40
0.0
  0
LTYPE
  2
STRICHPUNKT
 70
     0
  3
__ . __ . __ . __ . __ . __ . __ . __ . __ . __
 72
    65
 73
     4
 40
1.0
 49
0.5
 49
-0.25
 49
0.0
 49
-0.25
  0
LTYPE
  2
AUSGEZOGEN
 70
     0
  3
Ausgezogene Linie
 72
    65
 73
     0
 40
0.0
  0
ENDTAB
  0
TABLE
  2
LAYER
 70
    14
  0
LAYER
  2
0
 70
     0
 62
     7
  6
CONTINUOUS
  0
LAYER
  2
STEMPEL
 70
     0
 62
     3
  6
CONTINUOUS
  0
LAYER
  2
TEXT
 70
     0
 62
     7
  6
CONTINUOUS
  0
LAYER
  2
DEFPOINTS
 70
     0
 62
     7
  6
CONTINUOUS
  0
LAYER
  2
ADSK_ASSOC_ENTITY_BACKUPS
 70
     1
 62
    -7
  6
CONTINUOUS
  0
LAYER
  2
MATERIAL__EDELSTAHL_
 70
     0
 62
   254
  6
CONTINUOUS
  0
ENDTAB
  0
TABLE
  2
STYLE
 70
     3
  0
STYLE
  2
STANDARD
 70
     0
 40
0.0
 41
0.8
 50
0.0
 71
     0
 42
3.5
  3
simplex.shx
  4

  0
STYLE
  2
GREEKS
 70
     0
 40
0.0
 41
0.8
 50
0.0
 71
     0
 42
2.5
  3
SIMPLEX.shx
  4

  0
ENDTAB
  0
TABLE
  2
VIEW
 70
     1
  0
ENDTAB
  0
TABLE
  2
UCS
 70
     0
  0
ENDTAB
  0
TABLE
  2
APPID
 70
    47
  0
APPID
  2
ACAD
 70
     0
  0
APPID
  2
ACAD_EXEMPT_FROM_CAD_STANDARDS
 70
     0
  0
APPID
  2
ACAD_NAV_VCDISPLAY
 70
     0
  0
APPID
  2
ACAD_PSEXT
 70
     0
  0
APPID
  2
ACAECLAYERSTANDARD
 70
     0
  0
APPID
  2
ACCMTRANSPARENCY
 70
     0
  0
APPID
  2
ACAD_STEPID
 70
     0
  0
APPID
  2
ACADANNOMONITORALERTICONDI
 70
     0
  0
APPID
  2
ACAD_MLEADERVER
 70
     0
  0
APPID
  2
ACAD_OBJECT_CHANGE_GUID
 70
     0
  0
APPID
  2
ACADANNOPO
 70
     0
  0
APPID
  2
GRADIENTCOLOR1ACI
 70
     0
  0
APPID
  2
GRADIENTCOLOR2ACI
 70
     0
  0
APPID
  2
ACAD_DSTYLE_DIMRADIAL_EXTENSION
 70
     0
  0
APPID
  2
MCAD_NO_VIS
 70
     0
  0
APPID
  2
ACAD_TEMP_GRAPHIC
 70
     0
  0
APPID
  2
ACATTRIBSERVICES
 70
     0
  0
APPID
  2
DESIGNERASSEMBLIES
 70
     0
  0
APPID
  2
ACAD_DSTYLE_DIMJAG
 70
     0
  0
APPID
  2
ACAD_DSTYLE_DIMBREAK
 70
     0
  0
APPID
  2
GENIUS_GENSCREG_15
 70
     0
  0
APPID
  2
GENIUS_GENOBJ-N-SDF_13
 70
     0
  0
APPID
  2
GENIUS_GENODEF_13
 70
     0
  0
APPID
  2
ACAD_DSTYLE_DIMARC_LENGTH_
 70
     0
  0
APPID
  2
ACAD_DSTYLE_DIM_LINETYPE
 70
     0
  0
APPID
  2
ACAD_DSTYLE_DIM_EXT1_LINETYPE
 70
     0
  0
APPID
  2
ACAD_DSTYLE_DIM_EXT2_LINETYPE
 70
     0
  0
APPID
  2
RAK
 70
     0
  0
APPID
  2
ACSYNERGY
 70
     0
  0
APPID
  2
SYNERGY_BODY_TBR_ID
 70
     0
  0
APPID
  2
ACAD_VIEW_EDGE_ID
 70
     0
  0
APPID
  2
ACSYNERGYSKETCH
 70
     0
  0
APPID
  2
ACAD_MODELDOC_XFORM
 70
     0
  0
APPID
  2
GENIUS_GENDTOL_13
 70
     0
  0
APPID
  2
ACAD_DSTYLE_DIMINSPECT
 70
     0
  0
APPID
  2
ACAD_DSTYLE_DIMANGULAR_EXT
 70
     0
  0
APPID
  2
PLOTTRANSPARENCY
 70
     0
  0
APPID
  2
ACAUTHENVIRON
 70
     0
  0
APPID
  2
ACDBDYNAMICBLOCKTRUENAME
 70
     0
  0
APPID
  2
ACDBDYNAMICBLOCKGUID
 70
     0
  0
APPID
  2
PE_URL
 70
     0
  0
APPID
  2
SYNERGY_EXCLUDED_FROM_SNAPSHOT
 70
     0
  0
APPID
  2
ACAD_DSTYLE_DIMTALN
 70
     0
  0
APPID
  2
ACAD_DIMASSOC_CALC_DIMLFAC
 70
     0
  0
APPID
  2
ACAD_DIMASSOC_DIMLFAC
 70
     0
  0
APPID
  2
ACAD_DIMASSOC_OVERRIDDEN_D
 70
     0
  0
APPID
  2
AcDbAttr
 70
     0
  0
ENDTAB
  0
TABLE
  2
DIMSTYLE
 70
     4
  0
DIMSTYLE
  2
STANDARD
 70
     0
  3

  4

  5

  6

  7

 40
1.0
 41
0.18
 42
0.0625
 43
0.38
 44
0.18
 45
0.0
 46
0.0
 47
0.0
 48
0.0
140
0.18
141
0.09
142
0.0
143
25.3999999999999986
144
1.0
145
0.0
146
1.0
147
0.09
 71
     0
 72
     0
 73
     1
 74
     1
 75
     0
 76
     0
 77
     0
 78
     0
170
     0
171
     2
172
     0
173
     0
174
     0
175
     0
176
     0
177
     0
178
     0
  0
ENDTAB
  0
ENDSEC
  0
SECTION
  2
BLOCKS
  0
BLOCK
  8
0
  2
$MODEL_SPACE
 70
     0
 10
0.0
 20
0.0
 30
0.0
  3
$MODEL_SPACE
  1

  0
ENDBLK
  5
38
  8
0
  0
BLOCK
 67
     1
  8
0
  2
$PAPER_SPACE
 70
     0
 10
0.0
 20
0.0
 30
0.0
  3
$PAPER_SPACE
  1

  0
ENDBLK
  5
36
 67
     1
  8
0
  0
BLOCK
  8
0
  2
*S0
 70
     1
 10
0.0
 20
0.0
 30
0.0
  3
*S0
  1

  0
ENDBLK
  5
30A9
  8
0
  0
BLOCK
  8
0
  2
*U10
 70
     1
 10
0.0
 20
0.0
 30
0.0
  3
*U10
  1

  0
POLYLINE
  5
E57B
  8
MATERIAL__EDELSTAHL_
 10
-25.5
 20
-0.0000000000000117
 30
133.0000000000001137
 66
     1
 70
     8
  0
VERTEX
  8
MATERIAL__EDELSTAHL_
  5
E58A
 10
-25.5000
 20
-1.16772e-14
 30
133.000
  70
    32
  0
VERTEX
  8
MATERIAL__EDELSTAHL_
  5
E58B
 10
-25.4693
 20
-1.25123
 30
133.031
  70
    32
  0
VERTEX
  8
MATERIAL__EDELSTAHL_
  5
E58C
 10
-25.3772
 20
-2.49944
 30
133.123
  70
    32
  0
VERTEX
  8
MATERIAL__EDELSTAHL_
  5
E58D
 10
-25.2240
 20
-3.74163
 30
133.276
  70
    32
  0
VERTEX
  8
MATERIAL__EDELSTAHL_
  5
E58E
 10
-25.0100
 20
-4.97480
 30
133.490
  70
    32
  0
VERTEX
  8
MATERIAL__EDELSTAHL_
  5
E58F
 10
-24.7358
 20
-6.19599
 30
133.764
  70
    32
  0
VERTEX
  8
MATERIAL__EDELSTAHL_
  5
E590
 10
-24.4020
 20
-7.40226
 30
134.098
  70
    32
  0
VERTEX
  8
MATERIAL__EDELSTAHL_
  5
E591
 10
-24.0094
 20
-8.59069
 30
134.491
  70
    32
  0
VERTEX
  8
MATERIAL__EDELSTAHL_
  5
E592
 10
-23.5589
 20
-9.75843
 30
134.941
  70
    32
  0
VERTEX
  8
MATERIAL__EDELSTAHL_
  5
E593
 10
-23.0517
 20
-10.9027
 30
135.448
  70
    32
  0
VERTEX
  8
MATERIAL__EDELSTAHL_
  5
E594
 10
-22.4890
 20
-12.0206
 30
136.011
  70
    32
  0
VERTEX
  8
MATERIAL__EDELSTAHL_
  5
E595
 10
-21.8721
 20
-13.1096
 30
136.628
  70
    32
  0
VERTEX
  8
MATERIAL__EDELSTAHL_
  5
E596
 10
-21.2025
 20
-14.1670
 30
137.298
  70
    32
  0
VERTEX
  8
MATERIAL__EDELSTAHL_
  5
E597
 10
-20.4818
 20
-15.1903
 30
138.018
  70
    32
  0
VERTEX
  8
MATERIAL__EDELSTAHL_
  5
E598
 10
-19.7118
 20
-16.1770
 30
138.788
  70
    32
  0
VERTEX
  8
MATERIAL__EDELSTAHL_
  5
E599
 10
-18.8943
 20
-17.1248
 30
139.606
  70
    32
  0
VERTEX
  8
MATERIAL__EDELSTAHL_
  5
E59A
 10
-18.0312
 20
-18.0312
 30
140.469
  70
    32
  0
VERTEX
  8
MATERIAL__EDELSTAHL_
  5
E59B
 10
-17.1248
 20
-18.8943
 30
141.375
  70
    32
  0
VERTEX
  8
MATERIAL__EDELSTAHL_
  5
E59C
 10
-16.1770
 20
-19.7118
 30
142.323
  70
    32
  0
VERTEX
  8
MATERIAL__EDELSTAHL_
  5
E59D
 10
-15.1903
 20
-20.4818
 30
143.310
  70
    32
  0
VERTEX
  8
MATERIAL__EDELSTAHL_
  5
E59E
 10
-14.1670
 20
-21.2025
 30
144.333
  70
    32
  0
VERTEX
  8
MATERIAL__EDELSTAHL_
  5
E59F
 10
-13.1096
 20
-21.8721
 30
145.390
  70
    32
  0
VERTEX
  8
MATERIAL__EDELSTAHL_
  5
E5A0
 10
-12.0206
 20
-22.4890
 30
146.479
  70
    32
  0
VERTEX
  8
MATERIAL__EDELSTAHL_
  5
E5A1
 10
-10.9027
 20
-23.0517
 30
147.597
  70
    32
  0
VERTEX
  8
MATERIAL__EDELSTAHL_
  5
E5A2
 10
-9.75843
 20
-23.5589
 30
148.742
  70
    32
  0
VERTEX
  8
MATERIAL__EDELSTAHL_
  5
E5A3
 10
-8.59069
 20
-24.0094
 30
149.909
  70
    32
  0
VERTEX
  8
MATERIAL__EDELSTAHL_
  5
E5A4
 10
-7.40226
 20
-24.4020
 30
151.098
  70
    32
  0
VERTEX
  8
MATERIAL__EDELSTAHL_
  5
E5A5
 10
-6.19599
 20
-24.7358
 30
152.304
  70
    32
  0
VERTEX
  8
MATERIAL__EDELSTAHL_
  5
E5A6
 10
-4.97480
 20
-25.0100
 30
153.525
  70
    32
  0
VERTEX
  8
MATERIAL__EDELSTAHL_
  5
E5A7
 10
-3.74163
 20
-25.2240
 30
154.758
  70
    32
  0
VERTEX
  8
MATERIAL__EDELSTAHL_
  5
E5A8
 10
-2.49944
 20
-25.3772
 30
156.001
  70
    32
  0
VERTEX
  8
MATERIAL__EDELSTAHL_
  5
E5A9
 10
-1.25123
 20
-25.4693
 30
157.249
  70
    32
  0
VERTEX
  8
MATERIAL__EDELSTAHL_
  5
E5AA
 10
-3.88427e-15
 20
-25.5000
 30
158.500
  70
    32
  0
VERTEX
  8
MATERIAL__EDELSTAHL_
  5
E5AB
 10
1.25123
 20
-25.4693
 30
159.751
  70
    32
  0
VERTEX
  8
MATERIAL__EDELSTAHL_
  5
E5AC
 10
2.49944
 20
-25.3772
 30
160.999
  70
    32
  0
VERTEX
  8
MATERIAL__EDELSTAHL_
  5
E5AD
 10
3.74163
 20
-25.2240
 30
162.242
  70
    32
  0
VERTEX
  8
MATERIAL__EDELSTAHL_
  5
E5AE
 10
4.97480
 20
-25.0100
 30
163.475
  70
    32
  0
VERTEX
  8
MATERIAL__EDELSTAHL_
  5
E5AF
 10
6.19599
 20
-24.7358
 30
164.696
  70
    32
  0
VERTEX
  8
MATERIAL__EDELSTAHL_
  5
E5B0
 10
7.40226
 20
-24.4020
 30
165.902
  70
    32
  0
VERTEX
  8
MATERIAL__EDELSTAHL_
  5
E5B1
 10
8.59069
 20
-24.0094
 30
167.091
  70
    32
  0
VERTEX
  8
MATERIAL__EDELSTAHL_
  5
E5B2
 10
9.75843
 20
-23.5589
 30
168.258
  70
    32
  0
VERTEX
  8
MATERIAL__EDELSTAHL_
  5
E5B3
 10
10.9027
 20
-23.0517
 30
169.403
  70
    32
  0
VERTEX
  8
MATERIAL__EDELSTAHL_
  5
E5B4
 10
12.0206
 20
-22.4890
 30
170.521
  70
    32
  0
VERTEX
  8
MATERIAL__EDELSTAHL_
  5
E5B5
 10
13.1096
 20
-21.8721
 30
171.610
  70
    32
  0
VERTEX
  8
MATERIAL__EDELSTAHL_
  5
E5B6
 10
14.1670
 20
-21.2025
 30
172.667
  70
    32
  0
VERTEX
  8
MATERIAL__EDELSTAHL_
  5
E5B7
 10
15.1903
 20
-20.4818
 30
173.690
  70
    32
  0
VERTEX
  8
MATERIAL__EDELSTAHL_
  5
E5B8
 10
16.1770
 20
-19.7118
 30
174.677
  70
    32
  0
VERTEX
  8
MATERIAL__EDELSTAHL_
  5
E5B9
 10
17.1248
 20
-18.8943
 30
175.625
  70
    32
  0
VERTEX
  8
MATERIAL__EDELSTAHL_
  5
E5BA
 10
18.0312
 20
-18.0312
 30
176.531
  70
    32
  0
VERTEX
  8
MATERIAL__EDELSTAHL_
  5
E5BB
 10
18.8943
 20
-17.1248
 30
177.394
  70
    32
  0
VERTEX
  8
MATERIAL__EDELSTAHL_
  5
E5BC
 10
19.7118
 20
-16.1770
 30
178.212
  70
    32
  0
VERTEX
  8
MATERIAL__EDELSTAHL_
  5
E5BD
 10
20.4818
 20
-15.1903
 30
178.982
  70
    32
  0
VERTEX
  8
MATERIAL__EDELSTAHL_
  5
E5BE
 10
21.2025
 20
-14.1670
 30
179.702
  70
    32
  0
VERTEX
  8
MATERIAL__EDELSTAHL_
  5
E5BF
 10
21.8721
 20
-13.1096
 30
180.372
  70
    32
  0
VERTEX
  8
MATERIAL__EDELSTAHL_
  5
E5C0
 10
22.4890
 20
-12.0206
 30
180.989
  70
    32
  0
VERTEX
  8
MATERIAL__EDELSTAHL_
  5
E5C1
 10
23.0517
 20
-10.9027
 30
181.552
  70
    32
  0
VERTEX
  8
MATERIAL__EDELSTAHL_
  5
E5C2
 10
23.5589
 20
-9.75843
 30
182.059
  70
    32
  0
VERTEX
  8
MATERIAL__EDELSTAHL_
  5
E5C3
 10
24.0094
 20
-8.59069
 30
182.509
  70
    32
  0
VERTEX
  8
MATERIAL__EDELSTAHL_
  5
E5C4
 10
24.4020
 20
-7.40226
 30
182.902
  70
    32
  0
VERTEX
  8
MATERIAL__EDELSTAHL_
  5
E5C5
 10
24.7358
 20
-6.19599
 30
183.236
  70
    32
  0
VERTEX
  8
MATERIAL__EDELSTAHL_
  5
E5C6
 10
25.0100
 20
-4.97480
 30
183.510
  70
    32
  0
VERTEX
  8
MATERIAL__EDELSTAHL_
  5
E5C7
 10
25.2240
 20
-3.74163
 30
183.724
  70
    32
  0
VERTEX
  8
MATERIAL__EDELSTAHL_
  5
E5C8
 10
25.3772
 20
-2.49944
 30
183.877
  70
    32
  0
VERTEX
  8
MATERIAL__EDELSTAHL_
  5
E5C9
 10
25.4693
 20
-1.25123
 30
183.969
  70
    32
  0
VERTEX
  8
MATERIAL__EDELSTAHL_
  5
E5CA
 10
25.5000
 20
-1.16000e-14
 30
184.000
  70
    32
  0
VERTEX
  8
MATERIAL__EDELSTAHL_
  5
E5CB
 10
25.4693
 20
1.25123
 30
183.969
  70
    32
  0
VERTEX
  8
MATERIAL__EDELSTAHL_
  5
E5CC
 10
25.3772
 20
2.49944
 30
183.877
  70
    32
  0
VERTEX
  8
MATERIAL__EDELSTAHL_
  5
E5CD
 10
25.2240
 20
3.74163
 30
183.724
  70
    32
  0
VERTEX
  8
MATERIAL__EDELSTAHL_
  5
E5CE
 10
25.0100
 20
4.97480
 30
183.510
  70
    32
  0
VERTEX
  8
MATERIAL__EDELSTAHL_
  5
E5CF
 10
24.7358
 20
6.19599
 30
183.236
  70
    32
  0
VERTEX
  8
MATERIAL__EDELSTAHL_
  5
E5D0
 10
24.4020
 20
7.40226
 30
182.902
  70
    32
  0
VERTEX
  8
MATERIAL__EDELSTAHL_
  5
E5D1
 10
24.0094
 20
8.59069
 30
182.509
  70
    32
  0
VERTEX
  8
MATERIAL__EDELSTAHL_
  5
E5D2
 10
23.5589
 20
9.75843
 30
182.059
  70
    32
  0
VERTEX
  8
MATERIAL__EDELSTAHL_
  5
E5D3
 10
23.0517
 20
10.9027
 30
181.552
  70
    32
  0
VERTEX
  8
MATERIAL__EDELSTAHL_
  5
E5D4
 10
22.4890
 20
12.0206
 30
180.989
  70
    32
  0
VERTEX
  8
MATERIAL__EDELSTAHL_
  5
E5D5
 10
21.8721
 20
13.1096
 30
180.372
  70
    32
  0
VERTEX
  8
MATERIAL__EDELSTAHL_
  5
E5D6
 10
21.2025
 20
14.1670
 30
179.702
  70
    32
  0
VERTEX
  8
MATERIAL__EDELSTAHL_
  5
E5D7
 10
20.4818
 20
15.1903
 30
178.982
  70
    32
  0
VERTEX
  8
MATERIAL__EDELSTAHL_
  5
E5D8
 10
19.7118
 20
16.1770
 30
178.212
  70
    32
  0
VERTEX
  8
MATERIAL__EDELSTAHL_
  5
E5D9
 10
18.8943
 20
17.1248
 30
177.394
  70
    32
  0
VERTEX
  8
MATERIAL__EDELSTAHL_
  5
E5DA
 10
18.0312
 20
18.0312
 30
176.531
  70
    32
  0
VERTEX
  8
MATERIAL__EDELSTAHL_
  5
E5DB
 10
17.1248
 20
18.8943
 30
175.625
  70
    32
  0
VERTEX
  8
MATERIAL__EDELSTAHL_
  5
E5DC
 10
16.1770
 20
19.7118
 30
174.677
  70
    32
  0
VERTEX
  8
MATERIAL__EDELSTAHL_
  5
E5DD
 10
15.1903
 20
20.4818
 30
173.690
  70
    32
  0
VERTEX
  8
MATERIAL__EDELSTAHL_
  5
E5DE
 10
14.1670
 20
21.2025
 30
172.667
  70
    32
  0
VERTEX
  8
MATERIAL__EDELSTAHL_
  5
E5DF
 10
13.1096
 20
21.8721
 30
171.610
  70
    32
  0
VERTEX
  8
MATERIAL__EDELSTAHL_
  5
E5E0
 10
12.0206
 20
22.4890
 30
170.521
  70
    32
  0
VERTEX
  8
MATERIAL__EDELSTAHL_
  5
E5E1
 10
10.9027
 20
23.0517
 30
169.403
  70
    32
  0
VERTEX
  8
MATERIAL__EDELSTAHL_
  5
E5E2
 10
9.75843
 20
23.5589
 30
168.258
  70
    32
  0
VERTEX
  8
MATERIAL__EDELSTAHL_
  5
E5E3
 10
8.59069
 20
24.0094
 30
167.091
  70
    32
  0
VERTEX
  8
MATERIAL__EDELSTAHL_
  5
E5E4
 10
7.40226
 20
24.4020
 30
165.902
  70
    32
  0
VERTEX
  8
MATERIAL__EDELSTAHL_
  5
E5E5
 10
6.19599
 20
24.7358
 30
164.696
  70
    32
  0
VERTEX
  8
MATERIAL__EDELSTAHL_
  5
E5E6
 10
4.97480
 20
25.0100
 30
163.475
  70
    32
  0
VERTEX
  8
MATERIAL__EDELSTAHL_
  5
E5E7
 10
3.74163
 20
25.2240
 30
162.242
  70
    32
  0
VERTEX
  8
MATERIAL__EDELSTAHL_
  5
E5E8
 10
2.49944
 20
25.3772
 30
160.999
  70
    32
  0
VERTEX
  8
MATERIAL__EDELSTAHL_
  5
E5E9
 10
1.25123
 20
25.4693
 30
159.751
  70
    32
  0
VERTEX
  8
MATERIAL__EDELSTAHL_
  5
E5EA
 10
7.61425e-16
 20
25.5000
 30
158.500
  70
    32
  0
VERTEX
  8
MATERIAL__EDELSTAHL_
  5
E5EB
 10
-1.25123
 20
25.4693
 30
157.249
  70
    32
  0
VERTEX
  8
MATERIAL__EDELSTAHL_
  5
E5EC
 10
-2.49944
 20
25.3772
 30
156.001
  70
    32
  0
VERTEX
  8
MATERIAL__EDELSTAHL_
  5
E5ED
 10
-3.74163
 20
25.2240
 30
154.758
  70
    32
  0
VERTEX
  8
MATERIAL__EDELSTAHL_
  5
E5EE
 10
-4.97480
 20
25.0100
 30
153.525
  70
    32
  0
VERTEX
  8
MATERIAL__EDELSTAHL_
  5
E5EF
 10
-6.19599
 20
24.7358
 30
152.304
  70
    32
  0
VERTEX
  8
MATERIAL__EDELSTAHL_
  5
E5F0
 10
-7.40226
 20
24.4020
 30
151.098
  70
    32
  0
VERTEX
  8
MATERIAL__EDELSTAHL_
  5
E5F1
 10
-8.59069
 20
24.0094
 30
149.909
  70
    32
  0
VERTEX
  8
MATERIAL__EDELSTAHL_
  5
E5F2
 10
-9.75843
 20
23.5589
 30
148.742
  70
    32
  0
VERTEX
  8
MATERIAL__EDELSTAHL_
  5
E5F3
 10
-10.9027
 20
23.0517
 30
147.597
  70
    32
  0
VERTEX
  8
MATERIAL__EDELSTAHL_
  5
E5F4
 10
-12.0206
 20
22.4890
 30
146.479
  70
    32
  0
VERTEX
  8
MATERIAL__EDELSTAHL_
  5
E5F5
 10
-13.1096
 20
21.8721
 30
145.390
  70
    32
  0
VERTEX
  8
MATERIAL__EDELSTAHL_
  5
E5F6
 10
-14.1670
 20
21.2025
 30
144.333
  70
    32
  0
VERTEX
  8
MATERIAL__EDELSTAHL_
  5
E5F7
 10
-15.1903
 20
20.4818
 30
143.310
  70
    32
  0
VERTEX
  8
MATERIAL__EDELSTAHL_
  5
E5F8
 10
-16.1770
 20
19.7118
 30
142.323
  70
    32
  0
VERTEX
  8
MATERIAL__EDELSTAHL_
  5
E5F9
 10
-17.1248
 20
18.8943
 30
141.375
  70
    32
  0
VERTEX
  8
MATERIAL__EDELSTAHL_
  5
E5FA
 10
-18.0312
 20
18.0312
 30
140.469
  70
    32
  0
VERTEX
  8
MATERIAL__EDELSTAHL_
  5
E5FB
 10
-18.8943
 20
17.1248
 30
139.606
  70
    32
  0
VERTEX
  8
MATERIAL__EDELSTAHL_
  5
E5FC
 10
-19.7118
 20
16.1770
 30
138.788
  70
    32
  0
VERTEX
  8
MATERIAL__EDELSTAHL_
  5
E5FD
 10
-20.4818
 20
15.1903
 30
138.018
  70
    32
  0
VERTEX
  8
MATERIAL__EDELSTAHL_
  5
E5FE
 10
-21.2025
 20
14.1670
 30
137.298
  70
    32
  0
VERTEX
  8
MATERIAL__EDELSTAHL_
  5
E5FF
 10
-21.8721
 20
13.1096
 30
136.628
  70
    32
  0
VERTEX
  8
MATERIAL__EDELSTAHL_
  5
E600
 10
-22.4890
 20
12.0206
 30
136.011
  70
    32
  0
VERTEX
  8
MATERIAL__EDELSTAHL_
  5
E601
 10
-23.0517
 20
10.9027
 30
135.448
  70
    32
  0
VERTEX
  8
MATERIAL__EDELSTAHL_
  5
E602
 10
-23.5589
 20
9.75843
 30
134.941
  70
    32
  0
VERTEX
  8
MATERIAL__EDELSTAHL_
  5
E603
 10
-24.0094
 20
8.59069
 30
134.491
  70
    32
  0
VERTEX
  8
MATERIAL__EDELSTAHL_
  5
E604
 10
-24.4020
 20
7.40226
 30
134.098
  70
    32
  0
VERTEX
  8
MATERIAL__EDELSTAHL_
  5
E605
 10
-24.7358
 20
6.19599
 30
133.764
  70
    32
  0
VERTEX
  8
MATERIAL__EDELSTAHL_
  5
E606
 10
-25.0100
 20
4.97480
 30
133.490
  70
    32
  0
VERTEX
  8
MATERIAL__EDELSTAHL_
  5
E607
 10
-25.2240
 20
3.74163
 30
133.276
  70
    32
  0
VERTEX
  8
MATERIAL__EDELSTAHL_
  5
E608
 10
-25.3772
 20
2.49944
 30
133.123
  70
    32
  0
VERTEX
  8
MATERIAL__EDELSTAHL_
  5
E609
 10
-25.4693
 20
1.25123
 30
133.031
  70
    32
  0
VERTEX
  8
MATERIAL__EDELSTAHL_
  5
E60A
 10
-25.5000
 20
-1.16772e-14
 30
133.000
  70
    32
  0
SEQEND
  8
MATERIAL__EDELSTAHL_
  5
E60B
  0
POLYLINE
  5
E57C
  8
MATERIAL__EDELSTAHL_
 10
-26.5
 20
-0.0000000000000116
 30
132.0
 66
     1
 70
     8
  0
VERTEX
  8
MATERIAL__EDELSTAHL_
  5
E60C
 10
-26.5000
 20
-1.15547e-14
 30
132.000
  70
    32
  0
VERTEX
  8
MATERIAL__EDELSTAHL_
  5
E60D
 10
-26.4681
 20
-1.30029
 30
132.032
  70
    32
  0
VERTEX
  8
MATERIAL__EDELSTAHL_
  5
E60E
 10
-26.3724
 20
-2.59745
 30
132.128
  70
    32
  0
VERTEX
  8
MATERIAL__EDELSTAHL_
  5
E60F
 10
-26.2132
 20
-3.88836
 30
132.287
  70
    32
  0
VERTEX
  8
MATERIAL__EDELSTAHL_
  5
E610
 10
-25.9908
 20
-5.16989
 30
132.509
  70
    32
  0
VERTEX
  8
MATERIAL__EDELSTAHL_
  5
E611
 10
-25.7058
 20
-6.43897
 30
132.794
  70
    32
  0
VERTEX
  8
MATERIAL__EDELSTAHL_
  5
E612
 10
-25.3589
 20
-7.69254
 30
133.141
  70
    32
  0
VERTEX
  8
MATERIAL__EDELSTAHL_
  5
E613
 10
-24.9509
 20
-8.92758
 30
133.549
  70
    32
  0
VERTEX
  8
MATERIAL__EDELSTAHL_
  5
E614
 10
-24.4828
 20
-10.1411
 30
134.017
  70
    32
  0
VERTEX
  8
MATERIAL__EDELSTAHL_
  5
E615
 10
-23.9557
 20
-11.3302
 30
134.544
  70
    32
  0
VERTEX
  8
MATERIAL__EDELSTAHL_
  5
E616
 10
-23.3709
 20
-12.4920
 30
135.129
  70
    32
  0
VERTEX
  8
MATERIAL__EDELSTAHL_
  5
E617
 10
-22.7298
 20
-13.6237
 30
135.770
  70
    32
  0
VERTEX
  8
MATERIAL__EDELSTAHL_
  5
E618
 10
-22.0339
 20
-14.7226
 30
136.466
  70
    32
  0
VERTEX
  8
MATERIAL__EDELSTAHL_
  5
E619
 10
-21.2850
 20
-15.7860
 30
137.215
  70
    32
  0
VERTEX
  8
MATERIAL__EDELSTAHL_
  5
E61A
 10
-20.4848
 20
-16.8114
 30
138.015
  70
    32
  0
VERTEX
  8
MATERIAL__EDELSTAHL_
  5
E61B
 10
-19.6352
 20
-17.7963
 30
138.865
  70
    32
  0
VERTEX
  8
MATERIAL__EDELSTAHL_
  5
E61C
 10
-18.7383
 20
-18.7383
 30
139.762
  70
    32
  0
VERTEX
  8
MATERIAL__EDELSTAHL_
  5
E61D
 10
-17.7963
 20
-19.6352
 30
140.704
  70
    32
  0
VERTEX
  8
MATERIAL__EDELSTAHL_
  5
E61E
 10
-16.8114
 20
-20.4848
 30
141.689
  70
    32
  0
VERTEX
  8
MATERIAL__EDELSTAHL_
  5
E61F
 10
-15.7860
 20
-21.2850
 30
142.714
  70
    32
  0
VERTEX
  8
MATERIAL__EDELSTAHL_
  5
E620
 10
-14.7226
 20
-22.0339
 30
143.777
  70
    32
  0
VERTEX
  8
MATERIAL__EDELSTAHL_
  5
E621
 10
-13.6237
 20
-22.7298
 30
144.876
  70
    32
  0
VERTEX
  8
MATERIAL__EDELSTAHL_
  5
E622
 10
-12.4920
 20
-23.3709
 30
146.008
  70
    32
  0
VERTEX
  8
MATERIAL__EDELSTAHL_
  5
E623
 10
-11.3302
 20
-23.9557
 30
147.170
  70
    32
  0
VERTEX
  8
MATERIAL__EDELSTAHL_
  5
E624
 10
-10.1411
 20
-24.4828
 30
148.359
  70
    32
  0
VERTEX
  8
MATERIAL__EDELSTAHL_
  5
E625
 10
-8.92758
 20
-24.9509
 30
149.572
  70
    32
  0
VERTEX
  8
MATERIAL__EDELSTAHL_
  5
E626
 10
-7.69254
 20
-25.3589
 30
150.807
  70
    32
  0
VERTEX
  8
MATERIAL__EDELSTAHL_
  5
E627
 10
-6.43897
 20
-25.7058
 30
152.061
  70
    32
  0
VERTEX
  8
MATERIAL__EDELSTAHL_
  5
E628
 10
-5.16989
 20
-25.9908
 30
153.330
  70
    32
  0
VERTEX
  8
MATERIAL__EDELSTAHL_
  5
E629
 10
-3.88836
 20
-26.2132
 30
154.612
  70
    32
  0
VERTEX
  8
MATERIAL__EDELSTAHL_
  5
E62A
 10
-2.59745
 20
-26.3724
 30
155.903
  70
    32
  0
VERTEX
  8
MATERIAL__EDELSTAHL_
  5
E62B
 10
-1.30029
 20
-26.4681
 30
157.200
  70
    32
  0
VERTEX
  8
MATERIAL__EDELSTAHL_
  5
E62C
 10
-4.06797e-15
 20
-26.5000
 30
158.500
  70
    32
  0
VERTEX
  8
MATERIAL__EDELSTAHL_
  5
E62D
 10
1.30029
 20
-26.4681
 30
159.800
  70
    32
  0
VERTEX
  8
MATERIAL__EDELSTAHL_
  5
E62E
 10
2.59745
 20
-26.3724
 30
161.097
  70
    32
  0
VERTEX
  8
MATERIAL__EDELSTAHL_
  5
E62F
 10
3.88836
 20
-26.2132
 30
162.388
  70
    32
  0
VERTEX
  8
MATERIAL__EDELSTAHL_
  5
E630
 10
5.16989
 20
-25.9908
 30
163.670
  70
    32
  0
VERTEX
  8
MATERIAL__EDELSTAHL_
  5
E631
 10
6.43897
 20
-25.7058
 30
164.939
  70
    32
  0
VERTEX
  8
MATERIAL__EDELSTAHL_
  5
E632
 10
7.69254
 20
-25.3589
 30
166.193
  70
    32
  0
VERTEX
  8
MATERIAL__EDELSTAHL_
  5
E633
 10
8.92758
 20
-24.9509
 30
167.428
  70
    32
  0
VERTEX
  8
MATERIAL__EDELSTAHL_
  5
E634
 10
10.1411
 20
-24.4828
 30
168.641
  70
    32
  0
VERTEX
  8
MATERIAL__EDELSTAHL_
  5
E635
 10
11.3302
 20
-23.9557
 30
169.830
  70
    32
  0
VERTEX
  8
MATERIAL__EDELSTAHL_
  5
E636
 10
12.4920
 20
-23.3709
 30
170.992
  70
    32
  0
VERTEX
  8
MATERIAL__EDELSTAHL_
  5
E637
 10
13.6237
 20
-22.7298
 30
172.124
  70
    32
  0
VERTEX
  8
MATERIAL__EDELSTAHL_
  5
E638
 10
14.7226
 20
-22.0339
 30
173.223
  70
    32
  0
VERTEX
  8
MATERIAL__EDELSTAHL_
  5
E639
 10
15.7860
 20
-21.2850
 30
174.286
  70
    32
  0
VERTEX
  8
MATERIAL__EDELSTAHL_
  5
E63A
 10
16.8114
 20
-20.4848
 30
175.311
  70
    32
  0
VERTEX
  8
MATERIAL__EDELSTAHL_
  5
E63B
 10
17.7963
 20
-19.6352
 30
176.296
  70
    32
  0
VERTEX
  8
MATERIAL__EDELSTAHL_
  5
E63C
 10
18.7383
 20
-18.7383
 30
177.238
  70
    32
  0
VERTEX
  8
MATERIAL__EDELSTAHL_
  5
E63D
 10
19.6352
 20
-17.7963
 30
178.135
  70
    32
  0
VERTEX
  8
MATERIAL__EDELSTAHL_
  5
E63E
 10
20.4848
 20
-16.8114
 30
178.985
  70
    32
  0
VERTEX
  8
MATERIAL__EDELSTAHL_
  5
E63F
 10
21.2850
 20
-15.7860
 30
179.785
  70
    32
  0
VERTEX
  8
MATERIAL__EDELSTAHL_
  5
E640
 10
22.0339
 20
-14.7226
 30
180.534
  70
    32
  0
VERTEX
  8
MATERIAL__EDELSTAHL_
  5
E641
 10
22.7298
 20
-13.6237
 30
181.230
  70
    32
  0
VERTEX
  8
MATERIAL__EDELSTAHL_
  5
E642
 10
23.3709
 20
-12.4920
 30
181.871
  70
    32
  0
VERTEX
  8
MATERIAL__EDELSTAHL_
  5
E643
 10
23.9557
 20
-11.3302
 30
182.456
  70
    32
  0
VERTEX
  8
MATERIAL__EDELSTAHL_
  5
E644
 10
24.4828
 20
-10.1411
 30
182.983
  70
    32
  0
VERTEX
  8
MATERIAL__EDELSTAHL_
  5
E645
 10
24.9509
 20
-8.92758
 30
183.451
  70
    32
  0
VERTEX
  8
MATERIAL__EDELSTAHL_
  5
E646
 10
25.3589
 20
-7.69254
 30
183.859
  70
    32
  0
VERTEX
  8
MATERIAL__EDELSTAHL_
  5
E647
 10
25.7058
 20
-6.43897
 30
184.206
  70
    32
  0
VERTEX
  8
MATERIAL__EDELSTAHL_
  5
E648
 10
25.9908
 20
-5.16989
 30
184.491
  70
    32
  0
VERTEX
  8
MATERIAL__EDELSTAHL_
  5
E649
 10
26.2132
 20
-3.88836
 30
184.713
  70
    32
  0
VERTEX
  8
MATERIAL__EDELSTAHL_
  5
E64A
 10
26.3724
 20
-2.59745
 30
184.872
  70
    32
  0
VERTEX
  8
MATERIAL__EDELSTAHL_
  5
E64B
 10
26.4681
 20
-1.30029
 30
184.968
  70
    32
  0
VERTEX
  8
MATERIAL__EDELSTAHL_
  5
E64C
 10
26.5000
 20
-1.16000e-14
 30
185.000
  70
    32
  0
VERTEX
  8
MATERIAL__EDELSTAHL_
  5
E64D
 10
26.4681
 20
1.30029
 30
184.968
  70
    32
  0
VERTEX
  8
MATERIAL__EDELSTAHL_
  5
E64E
 10
26.3724
 20
2.59745
 30
184.872
  70
    32
  0
VERTEX
  8
MATERIAL__EDELSTAHL_
  5
E64F
 10
26.2132
 20
3.88836
 30
184.713
  70
    32
  0
VERTEX
  8
MATERIAL__EDELSTAHL_
  5
E650
 10
25.9908
 20
5.16989
 30
184.491
  70
    32
  0
VERTEX
  8
MATERIAL__EDELSTAHL_
  5
E651
 10
25.7058
 20
6.43897
 30
184.206
  70
    32
  0
VERTEX
  8
MATERIAL__EDELSTAHL_
  5
E652
 10
25.3589
 20
7.69254
 30
183.859
  70
    32
  0
VERTEX
  8
MATERIAL__EDELSTAHL_
  5
E653
 10
24.9509
 20
8.92758
 30
183.451
  70
    32
  0
VERTEX
  8
MATERIAL__EDELSTAHL_
  5
E654
 10
24.4828
 20
10.1411
 30
182.983
  70
    32
  0
VERTEX
  8
MATERIAL__EDELSTAHL_
  5
E655
 10
23.9557
 20
11.3302
 30
182.456
  70
    32
  0
VERTEX
  8
MATERIAL__EDELSTAHL_
  5
E656
 10
23.3709
 20
12.4920
 30
181.871
  70
    32
  0
VERTEX
  8
MATERIAL__EDELSTAHL_
  5
E657
 10
22.7298
 20
13.6237
 30
181.230
  70
    32
  0
VERTEX
  8
MATERIAL__EDELSTAHL_
  5
E658
 10
22.0339
 20
14.7226
 30
180.534
  70
    32
  0
VERTEX
  8
MATERIAL__EDELSTAHL_
  5
E659
 10
21.2850
 20
15.7860
 30
179.785
  70
    32
  0
VERTEX
  8
MATERIAL__EDELSTAHL_
  5
E65A
 10
20.4848
 20
16.8114
 30
178.985
  70
    32
  0
VERTEX
  8
MATERIAL__EDELSTAHL_
  5
E65B
 10
19.6352
 20
17.7963
 30
178.135
  70
    32
  0
VERTEX
  8
MATERIAL__EDELSTAHL_
  5
E65C
 10
18.7383
 20
18.7383
 30
177.238
  70
    32
  0
VERTEX
  8
MATERIAL__EDELSTAHL_
  5
E65D
 10
17.7963
 20
19.6352
 30
176.296
  70
    32
  0
VERTEX
  8
MATERIAL__EDELSTAHL_
  5
E65E
 10
16.8114
 20
20.4848
 30
175.311
  70
    32
  0
VERTEX
  8
MATERIAL__EDELSTAHL_
  5
E65F
 10
15.7860
 20
21.2850
 30
174.286
  70
    32
  0
VERTEX
  8
MATERIAL__EDELSTAHL_
  5
E660
 10
14.7226
 20
22.0339
 30
173.223
  70
    32
  0
VERTEX
  8
MATERIAL__EDELSTAHL_
  5
E661
 10
13.6237
 20
22.7298
 30
172.124
  70
    32
  0
VERTEX
  8
MATERIAL__EDELSTAHL_
  5
E662
 10
12.4920
 20
23.3709
 30
170.992
  70
    32
  0
VERTEX
  8
MATERIAL__EDELSTAHL_
  5
E663
 10
11.3302
 20
23.9557
 30
169.830
  70
    32
  0
VERTEX
  8
MATERIAL__EDELSTAHL_
  5
E664
 10
10.1411
 20
24.4828
 30
168.641
  70
    32
  0
VERTEX
  8
MATERIAL__EDELSTAHL_
  5
E665
 10
8.92758
 20
24.9509
 30
167.428
  70
    32
  0
VERTEX
  8
MATERIAL__EDELSTAHL_
  5
E666
 10
7.69254
 20
25.3589
 30
166.193
  70
    32
  0
VERTEX
  8
MATERIAL__EDELSTAHL_
  5
E667
 10
6.43897
 20
25.7058
 30
164.939
  70
    32
  0
VERTEX
  8
MATERIAL__EDELSTAHL_
  5
E668
 10
5.16989
 20
25.9908
 30
163.670
  70
    32
  0
VERTEX
  8
MATERIAL__EDELSTAHL_
  5
E669
 10
3.88836
 20
26.2132
 30
162.388
  70
    32
  0
VERTEX
  8
MATERIAL__EDELSTAHL_
  5
E66A
 10
2.59745
 20
26.3724
 30
161.097
  70
    32
  0
VERTEX
  8
MATERIAL__EDELSTAHL_
  5
E66B
 10
1.30029
 20
26.4681
 30
159.800
  70
    32
  0
VERTEX
  8
MATERIAL__EDELSTAHL_
  5
E66C
 10
8.22657e-16
 20
26.5000
 30
158.500
  70
    32
  0
VERTEX
  8
MATERIAL__EDELSTAHL_
  5
E66D
 10
-1.30029
 20
26.4681
 30
157.200
  70
    32
  0
VERTEX
  8
MATERIAL__EDELSTAHL_
  5
E66E
 10
-2.59745
 20
26.3724
 30
155.903
  70
    32
  0
VERTEX
  8
MATERIAL__EDELSTAHL_
  5
E66F
 10
-3.88836
 20
26.2132
 30
154.612
  70
    32
  0
VERTEX
  8
MATERIAL__EDELSTAHL_
  5
E670
 10
-5.16989
 20
25.9908
 30
153.330
  70
    32
  0
VERTEX
  8
MATERIAL__EDELSTAHL_
  5
E671
 10
-6.43897
 20
25.7058
 30
152.061
  70
    32
  0
VERTEX
  8
MATERIAL__EDELSTAHL_
  5
E672
 10
-7.69254
 20
25.3589
 30
150.807
  70
    32
  0
VERTEX
  8
MATERIAL__EDELSTAHL_
  5
E673
 10
-8.92758
 20
24.9509
 30
149.572
  70
    32
  0
VERTEX
  8
MATERIAL__EDELSTAHL_
  5
E674
 10
-10.1411
 20
24.4828
 30
148.359
  70
    32
  0
VERTEX
  8
MATERIAL__EDELSTAHL_
  5
E675
 10
-11.3302
 20
23.9557
 30
147.170
  70
    32
  0
VERTEX
  8
MATERIAL__EDELSTAHL_
  5
E676
 10
-12.4920
 20
23.3709
 30
146.008
  70
    32
  0
VERTEX
  8
MATERIAL__EDELSTAHL_
  5
E677
 10
-13.6237
 20
22.7298
 30
144.876
  70
    32
  0
VERTEX
  8
MATERIAL__EDELSTAHL_
  5
E678
 10
-14.7226
 20
22.0339
 30
143.777
  70
    32
  0
VERTEX
  8
MATERIAL__EDELSTAHL_
  5
E679
 10
-15.7860
 20
21.2850
 30
142.714
  70
    32
  0
VERTEX
  8
MATERIAL__EDELSTAHL_
  5
E67A
 10
-16.8114
 20
20.4848
 30
141.689
  70
    32
  0
VERTEX
  8
MATERIAL__EDELSTAHL_
  5
E67B
 10
-17.7963
 20
19.6352
 30
140.704
  70
    32
  0
VERTEX
  8
MATERIAL__EDELSTAHL_
  5
E67C
 10
-18.7383
 20
18.7383
 30
139.762
  70
    32
  0
VERTEX
  8
MATERIAL__EDELSTAHL_
  5
E67D
 10
-19.6352
 20
17.7963
 30
138.865
  70
    32
  0
VERTEX
  8
MATERIAL__EDELSTAHL_
  5
E67E
 10
-20.4848
 20
16.8114
 30
138.015
  70
    32
  0
VERTEX
  8
MATERIAL__EDELSTAHL_
  5
E67F
 10
-21.2850
 20
15.7860
 30
137.215
  70
    32
  0
VERTEX
  8
MATERIAL__EDELSTAHL_
  5
E680
 10
-22.0339
 20
14.7226
 30
136.466
  70
    32
  0
VERTEX
  8
MATERIAL__EDELSTAHL_
  5
E681
 10
-22.7298
 20
13.6237
 30
135.770
  70
    32
  0
VERTEX
  8
MATERIAL__EDELSTAHL_
  5
E682
 10
-23.3709
 20
12.4920
 30
135.129
  70
    32
  0
VERTEX
  8
MATERIAL__EDELSTAHL_
  5
E683
 10
-23.9557
 20
11.3302
 30
134.544
  70
    32
  0
VERTEX
  8
MATERIAL__EDELSTAHL_
  5
E684
 10
-24.4828
 20
10.1411
 30
134.017
  70
    32
  0
VERTEX
  8
MATERIAL__EDELSTAHL_
  5
E685
 10
-24.9509
 20
8.92758
 30
133.549
  70
    32
  0
VERTEX
  8
MATERIAL__EDELSTAHL_
  5
E686
 10
-25.3589
 20
7.69254
 30
133.141
  70
    32
  0
VERTEX
  8
MATERIAL__EDELSTAHL_
  5
E687
 10
-25.7058
 20
6.43897
 30
132.794
  70
    32
  0
VERTEX
  8
MATERIAL__EDELSTAHL_
  5
E688
 10
-25.9908
 20
5.16989
 30
132.509
  70
    32
  0
VERTEX
  8
MATERIAL__EDELSTAHL_
  5
E689
 10
-26.2132
 20
3.88836
 30
132.287
  70
    32
  0
VERTEX
  8
MATERIAL__EDELSTAHL_
  5
E68A
 10
-26.3724
 20
2.59745
 30
132.128
  70
    32
  0
VERTEX
  8
MATERIAL__EDELSTAHL_
  5
E68B
 10
-26.4681
 20
1.30029
 30
132.032
  70
    32
  0
VERTEX
  8
MATERIAL__EDELSTAHL_
  5
E68C
 10
-26.5000
 20
-1.15547e-14
 30
132.000
  70
    32
  0
SEQEND
  8
MATERIAL__EDELSTAHL_
  5
E68D
  0
POLYLINE
  5
E57D
  8
MATERIAL__EDELSTAHL_
 10
-25.5
 20
-0.0000000000000117
 30
133.0000000000001137
 66
     1
 70
     8
  0
VERTEX
  8
MATERIAL__EDELSTAHL_
  5
E68E
 10
-25.5000
 20
-1.16772e-14
 30
133.000
  70
    32
  0
VERTEX
  8
MATERIAL__EDELSTAHL_
  5
E68F
 10
-25.4693
 20
-1.25123
 30
133.031
  70
    32
  0
VERTEX
  8
MATERIAL__EDELSTAHL_
  5
E690
 10
-25.3772
 20
-2.49944
 30
133.123
  70
    32
  0
VERTEX
  8
MATERIAL__EDELSTAHL_
  5
E691
 10
-25.2240
 20
-3.74163
 30
133.276
  70
    32
  0
VERTEX
  8
MATERIAL__EDELSTAHL_
  5
E692
 10
-25.0100
 20
-4.97480
 30
133.490
  70
    32
  0
VERTEX
  8
MATERIAL__EDELSTAHL_
  5
E693
 10
-24.7358
 20
-6.19599
 30
133.764
  70
    32
  0
VERTEX
  8
MATERIAL__EDELSTAHL_
  5
E694
 10
-24.4020
 20
-7.40226
 30
134.098
  70
    32
  0
VERTEX
  8
MATERIAL__EDELSTAHL_
  5
E695
 10
-24.0094
 20
-8.59069
 30
134.491
  70
    32
  0
VERTEX
  8
MATERIAL__EDELSTAHL_
  5
E696
 10
-23.5589
 20
-9.75843
 30
134.941
  70
    32
  0
VERTEX
  8
MATERIAL__EDELSTAHL_
  5
E697
 10
-23.0517
 20
-10.9027
 30
135.448
  70
    32
  0
VERTEX
  8
MATERIAL__EDELSTAHL_
  5
E698
 10
-22.4890
 20
-12.0206
 30
136.011
  70
    32
  0
VERTEX
  8
MATERIAL__EDELSTAHL_
  5
E699
 10
-21.8721
 20
-13.1096
 30
136.628
  70
    32
  0
VERTEX
  8
MATERIAL__EDELSTAHL_
  5
E69A
 10
-21.2025
 20
-14.1670
 30
137.298
  70
    32
  0
VERTEX
  8
MATERIAL__EDELSTAHL_
  5
E69B
 10
-20.4818
 20
-15.1903
 30
138.018
  70
    32
  0
VERTEX
  8
MATERIAL__EDELSTAHL_
  5
E69C
 10
-19.7118
 20
-16.1770
 30
138.788
  70
    32
  0
VERTEX
  8
MATERIAL__EDELSTAHL_
  5
E69D
 10
-18.8943
 20
-17.1248
 30
139.606
  70
    32
  0
VERTEX
  8
MATERIAL__EDELSTAHL_
  5
E69E
 10
-18.0312
 20
-18.0312
 30
140.469
  70
    32
  0
VERTEX
  8
MATERIAL__EDELSTAHL_
  5
E69F
 10
-17.1248
 20
-18.8943
 30
141.375
  70
    32
  0
VERTEX
  8
MATERIAL__EDELSTAHL_
  5
E6A0
 10
-16.1770
 20
-19.7118
 30
142.323
  70
    32
  0
VERTEX
  8
MATERIAL__EDELSTAHL_
  5
E6A1
 10
-15.1903
 20
-20.4818
 30
143.310
  70
    32
  0
VERTEX
  8
MATERIAL__EDELSTAHL_
  5
E6A2
 10
-14.1670
 20
-21.2025
 30
144.333
  70
    32
  0
VERTEX
  8
MATERIAL__EDELSTAHL_
  5
E6A3
 10
-13.1096
 20
-21.8721
 30
145.390
  70
    32
  0
VERTEX
  8
MATERIAL__EDELSTAHL_
  5
E6A4
 10
-12.0206
 20
-22.4890
 30
146.479
  70
    32
  0
VERTEX
  8
MATERIAL__EDELSTAHL_
  5
E6A5
 10
-10.9027
 20
-23.0517
 30
147.597
  70
    32
  0
VERTEX
  8
MATERIAL__EDELSTAHL_
  5
E6A6
 10
-9.75843
 20
-23.5589
 30
148.742
  70
    32
  0
VERTEX
  8
MATERIAL__EDELSTAHL_
  5
E6A7
 10
-8.59069
 20
-24.0094
 30
149.909
  70
    32
  0
VERTEX
  8
MATERIAL__EDELSTAHL_
  5
E6A8
 10
-7.40226
 20
-24.4020
 30
151.098
  70
    32
  0
VERTEX
  8
MATERIAL__EDELSTAHL_
  5
E6A9
 10
-6.19599
 20
-24.7358
 30
152.304
  70
    32
  0
VERTEX
  8
MATERIAL__EDELSTAHL_
  5
E6AA
 10
-4.97480
 20
-25.0100
 30
153.525
  70
    32
  0
VERTEX
  8
MATERIAL__EDELSTAHL_
  5
E6AB
 10
-3.74163
 20
-25.2240
 30
154.758
  70
    32
  0
VERTEX
  8
MATERIAL__EDELSTAHL_
  5
E6AC
 10
-2.49944
 20
-25.3772
 30
156.001
  70
    32
  0
VERTEX
  8
MATERIAL__EDELSTAHL_
  5
E6AD
 10
-1.25123
 20
-25.4693
 30
157.249
  70
    32
  0
VERTEX
  8
MATERIAL__EDELSTAHL_
  5
E6AE
 10
-3.88427e-15
 20
-25.5000
 30
158.500
  70
    32
  0
VERTEX
  8
MATERIAL__EDELSTAHL_
  5
E6AF
 10
1.25123
 20
-25.4693
 30
159.751
  70
    32
  0
VERTEX
  8
MATERIAL__EDELSTAHL_
  5
E6B0
 10
2.49944
 20
-25.3772
 30
160.999
  70
    32
  0
VERTEX
  8
MATERIAL__EDELSTAHL_
  5
E6B1
 10
3.74163
 20
-25.2240
 30
162.242
  70
    32
  0
VERTEX
  8
MATERIAL__EDELSTAHL_
  5
E6B2
 10
4.97480
 20
-25.0100
 30
163.475
  70
    32
  0
VERTEX
  8
MATERIAL__EDELSTAHL_
  5
E6B3
 10
6.19599
 20
-24.7358
 30
164.696
  70
    32
  0
VERTEX
  8
MATERIAL__EDELSTAHL_
  5
E6B4
 10
7.40226
 20
-24.4020
 30
165.902
  70
    32
  0
VERTEX
  8
MATERIAL__EDELSTAHL_
  5
E6B5
 10
8.59069
 20
-24.0094
 30
167.091
  70
    32
  0
VERTEX
  8
MATERIAL__EDELSTAHL_
  5
E6B6
 10
9.75843
 20
-23.5589
 30
168.258
  70
    32
  0
VERTEX
  8
MATERIAL__EDELSTAHL_
  5
E6B7
 10
10.9027
 20
-23.0517
 30
169.403
  70
    32
  0
VERTEX
  8
MATERIAL__EDELSTAHL_
  5
E6B8
 10
12.0206
 20
-22.4890
 30
170.521
  70
    32
  0
VERTEX
  8
MATERIAL__EDELSTAHL_
  5
E6B9
 10
13.1096
 20
-21.8721
 30
171.610
  70
    32
  0
VERTEX
  8
MATERIAL__EDELSTAHL_
  5
E6BA
 10
14.1670
 20
-21.2025
 30
172.667
  70
    32
  0
VERTEX
  8
MATERIAL__EDELSTAHL_
  5
E6BB
 10
15.1903
 20
-20.4818
 30
173.690
  70
    32
  0
VERTEX
  8
MATERIAL__EDELSTAHL_
  5
E6BC
 10
16.1770
 20
-19.7118
 30
174.677
  70
    32
  0
VERTEX
  8
MATERIAL__EDELSTAHL_
  5
E6BD
 10
17.1248
 20
-18.8943
 30
175.625
  70
    32
  0
VERTEX
  8
MATERIAL__EDELSTAHL_
  5
E6BE
 10
18.0312
 20
-18.0312
 30
176.531
  70
    32
  0
VERTEX
  8
MATERIAL__EDELSTAHL_
  5
E6BF
 10
18.8943
 20
-17.1248
 30
177.394
  70
    32
  0
VERTEX
  8
MATERIAL__EDELSTAHL_
  5
E6C0
 10
19.7118
 20
-16.1770
 30
178.212
  70
    32
  0
VERTEX
  8
MATERIAL__EDELSTAHL_
  5
E6C1
 10
20.4818
 20
-15.1903
 30
178.982
  70
    32
  0
VERTEX
  8
MATERIAL__EDELSTAHL_
  5
E6C2
 10
21.2025
 20
-14.1670
 30
179.702
  70
    32
  0
VERTEX
  8
MATERIAL__EDELSTAHL_
  5
E6C3
 10
21.8721
 20
-13.1096
 30
180.372
  70
    32
  0
VERTEX
  8
MATERIAL__EDELSTAHL_
  5
E6C4
 10
22.4890
 20
-12.0206
 30
180.989
  70
    32
  0
VERTEX
  8
MATERIAL__EDELSTAHL_
  5
E6C5
 10
23.0517
 20
-10.9027
 30
181.552
  70
    32
  0
VERTEX
  8
MATERIAL__EDELSTAHL_
  5
E6C6
 10
23.5589
 20
-9.75843
 30
182.059
  70
    32
  0
VERTEX
  8
MATERIAL__EDELSTAHL_
  5
E6C7
 10
24.0094
 20
-8.59069
 30
182.509
  70
    32
  0
VERTEX
  8
MATERIAL__EDELSTAHL_
  5
E6C8
 10
24.4020
 20
-7.40226
 30
182.902
  70
    32
  0
VERTEX
  8
MATERIAL__EDELSTAHL_
  5
E6C9
 10
24.7358
 20
-6.19599
 30
183.236
  70
    32
  0
VERTEX
  8
MATERIAL__EDELSTAHL_
  5
E6CA
 10
25.0100
 20
-4.97480
 30
183.510
  70
    32
  0
VERTEX
  8
MATERIAL__EDELSTAHL_
  5
E6CB
 10
25.2240
 20
-3.74163
 30
183.724
  70
    32
  0
VERTEX
  8
MATERIAL__EDELSTAHL_
  5
E6CC
 10
25.3772
 20
-2.49944
 30
183.877
  70
    32
  0
VERTEX
  8
MATERIAL__EDELSTAHL_
  5
E6CD
 10
25.4693
 20
-1.25123
 30
183.969
  70
    32
  0
VERTEX
  8
MATERIAL__EDELSTAHL_
  5
E6CE
 10
25.5000
 20
-1.16000e-14
 30
184.000
  70
    32
  0
VERTEX
  8
MATERIAL__EDELSTAHL_
  5
E6CF
 10
25.4693
 20
1.25123
 30
183.969
  70
    32
  0
VERTEX
  8
MATERIAL__EDELSTAHL_
  5
E6D0
 10
25.3772
 20
2.49944
 30
183.877
  70
    32
  0
VERTEX
  8
MATERIAL__EDELSTAHL_
  5
E6D1
 10
25.2240
 20
3.74163
 30
183.724
  70
    32
  0
VERTEX
  8
MATERIAL__EDELSTAHL_
  5
E6D2
 10
25.0100
 20
4.97480
 30
183.510
  70
    32
  0
VERTEX
  8
MATERIAL__EDELSTAHL_
  5
E6D3
 10
24.7358
 20
6.19599
 30
183.236
  70
    32
  0
VERTEX
  8
MATERIAL__EDELSTAHL_
  5
E6D4
 10
24.4020
 20
7.40226
 30
182.902
  70
    32
  0
VERTEX
  8
MATERIAL__EDELSTAHL_
  5
E6D5
 10
24.0094
 20
8.59069
 30
182.509
  70
    32
  0
VERTEX
  8
MATERIAL__EDELSTAHL_
  5
E6D6
 10
23.5589
 20
9.75843
 30
182.059
  70
    32
  0
VERTEX
  8
MATERIAL__EDELSTAHL_
  5
E6D7
 10
23.0517
 20
10.9027
 30
181.552
  70
    32
  0
VERTEX
  8
MATERIAL__EDELSTAHL_
  5
E6D8
 10
22.4890
 20
12.0206
 30
180.989
  70
    32
  0
VERTEX
  8
MATERIAL__EDELSTAHL_
  5
E6D9
 10
21.8721
 20
13.1096
 30
180.372
  70
    32
  0
VERTEX
  8
MATERIAL__EDELSTAHL_
  5
E6DA
 10
21.2025
 20
14.1670
 30
179.702
  70
    32
  0
VERTEX
  8
MATERIAL__EDELSTAHL_
  5
E6DB
 10
20.4818
 20
15.1903
 30
178.982
  70
    32
  0
VERTEX
  8
MATERIAL__EDELSTAHL_
  5
E6DC
 10
19.7118
 20
16.1770
 30
178.212
  70
    32
  0
VERTEX
  8
MATERIAL__EDELSTAHL_
  5
E6DD
 10
18.8943
 20
17.1248
 30
177.394
  70
    32
  0
VERTEX
  8
MATERIAL__EDELSTAHL_
  5
E6DE
 10
18.0312
 20
18.0312
 30
176.531
  70
    32
  0
VERTEX
  8
MATERIAL__EDELSTAHL_
  5
E6DF
 10
17.1248
 20
18.8943
 30
175.625
  70
    32
  0
VERTEX
  8
MATERIAL__EDELSTAHL_
  5
E6E0
 10
16.1770
 20
19.7118
 30
174.677
  70
    32
  0
VERTEX
  8
MATERIAL__EDELSTAHL_
  5
E6E1
 10
15.1903
 20
20.4818
 30
173.690
  70
    32
  0
VERTEX
  8
MATERIAL__EDELSTAHL_
  5
E6E2
 10
14.1670
 20
21.2025
 30
172.667
  70
    32
  0
VERTEX
  8
MATERIAL__EDELSTAHL_
  5
E6E3
 10
13.1096
 20
21.8721
 30
171.610
  70
    32
  0
VERTEX
  8
MATERIAL__EDELSTAHL_
  5
E6E4
 10
12.0206
 20
22.4890
 30
170.521
  70
    32
  0
VERTEX
  8
MATERIAL__EDELSTAHL_
  5
E6E5
 10
10.9027
 20
23.0517
 30
169.403
  70
    32
  0
VERTEX
  8
MATERIAL__EDELSTAHL_
  5
E6E6
 10
9.75843
 20
23.5589
 30
168.258
  70
    32
  0
VERTEX
  8
MATERIAL__EDELSTAHL_
  5
E6E7
 10
8.59069
 20
24.0094
 30
167.091
  70
    32
  0
VERTEX
  8
MATERIAL__EDELSTAHL_
  5
E6E8
 10
7.40226
 20
24.4020
 30
165.902
  70
    32
  0
VERTEX
  8
MATERIAL__EDELSTAHL_
  5
E6E9
 10
6.19599
 20
24.7358
 30
164.696
  70
    32
  0
VERTEX
  8
MATERIAL__EDELSTAHL_
  5
E6EA
 10
4.97480
 20
25.0100
 30
163.475
  70
    32
  0
VERTEX
  8
MATERIAL__EDELSTAHL_
  5
E6EB
 10
3.74163
 20
25.2240
 30
162.242
  70
    32
  0
VERTEX
  8
MATERIAL__EDELSTAHL_
  5
E6EC
 10
2.49944
 20
25.3772
 30
160.999
  70
    32
  0
VERTEX
  8
MATERIAL__EDELSTAHL_
  5
E6ED
 10
1.25123
 20
25.4693
 30
159.751
  70
    32
  0
VERTEX
  8
MATERIAL__EDELSTAHL_
  5
E6EE
 10
7.61425e-16
 20
25.5000
 30
158.500
  70
    32
  0
VERTEX
  8
MATERIAL__EDELSTAHL_
  5
E6EF
 10
-1.25123
 20
25.4693
 30
157.249
  70
    32
  0
VERTEX
  8
MATERIAL__EDELSTAHL_
  5
E6F0
 10
-2.49944
 20
25.3772
 30
156.001
  70
    32
  0
VERTEX
  8
MATERIAL__EDELSTAHL_
  5
E6F1
 10
-3.74163
 20
25.2240
 30
154.758
  70
    32
  0
VERTEX
  8
MATERIAL__EDELSTAHL_
  5
E6F2
 10
-4.97480
 20
25.0100
 30
153.525
  70
    32
  0
VERTEX
  8
MATERIAL__EDELSTAHL_
  5
E6F3
 10
-6.19599
 20
24.7358
 30
152.304
  70
    32
  0
VERTEX
  8
MATERIAL__EDELSTAHL_
  5
E6F4
 10
-7.40226
 20
24.4020
 30
151.098
  70
    32
  0
VERTEX
  8
MATERIAL__EDELSTAHL_
  5
E6F5
 10
-8.59069
 20
24.0094
 30
149.909
  70
    32
  0
VERTEX
  8
MATERIAL__EDELSTAHL_
  5
E6F6
 10
-9.75843
 20
23.5589
 30
148.742
  70
    32
  0
VERTEX
  8
MATERIAL__EDELSTAHL_
  5
E6F7
 10
-10.9027
 20
23.0517
 30
147.597
  70
    32
  0
VERTEX
  8
MATERIAL__EDELSTAHL_
  5
E6F8
 10
-12.0206
 20
22.4890
 30
146.479
  70
    32
  0
VERTEX
  8
MATERIAL__EDELSTAHL_
  5
E6F9
 10
-13.1096
 20
21.8721
 30
145.390
  70
    32
  0
VERTEX
  8
MATERIAL__EDELSTAHL_
  5
E6FA
 10
-14.1670
 20
21.2025
 30
144.333
  70
    32
  0
VERTEX
  8
MATERIAL__EDELSTAHL_
  5
E6FB
 10
-15.1903
 20
20.4818
 30
143.310
  70
    32
  0
VERTEX
  8
MATERIAL__EDELSTAHL_
  5
E6FC
 10
-16.1770
 20
19.7118
 30
142.323
  70
    32
  0
VERTEX
  8
MATERIAL__EDELSTAHL_
  5
E6FD
 10
-17.1248
 20
18.8943
 30
141.375
  70
    32
  0
VERTEX
  8
MATERIAL__EDELSTAHL_
  5
E6FE
 10
-18.0312
 20
18.0312
 30
140.469
  70
    32
  0
VERTEX
  8
MATERIAL__EDELSTAHL_
  5
E6FF
 10
-18.8943
 20
17.1248
 30
139.606
  70
    32
  0
VERTEX
  8
MATERIAL__EDELSTAHL_
  5
E700
 10
-19.7118
 20
16.1770
 30
138.788
  70
    32
  0
VERTEX
  8
MATERIAL__EDELSTAHL_
  5
E701
 10
-20.4818
 20
15.1903
 30
138.018
  70
    32
  0
VERTEX
  8
MATERIAL__EDELSTAHL_
  5
E702
 10
-21.2025
 20
14.1670
 30
137.298
  70
    32
  0
VERTEX
  8
MATERIAL__EDELSTAHL_
  5
E703
 10
-21.8721
 20
13.1096
 30
136.628
  70
    32
  0
VERTEX
  8
MATERIAL__EDELSTAHL_
  5
E704
 10
-22.4890
 20
12.0206
 30
136.011
  70
    32
  0
VERTEX
  8
MATERIAL__EDELSTAHL_
  5
E705
 10
-23.0517
 20
10.9027
 30
135.448
  70
    32
  0
VERTEX
  8
MATERIAL__EDELSTAHL_
  5
E706
 10
-23.5589
 20
9.75843
 30
134.941
  70
    32
  0
VERTEX
  8
MATERIAL__EDELSTAHL_
  5
E707
 10
-24.0094
 20
8.59069
 30
134.491
  70
    32
  0
VERTEX
  8
MATERIAL__EDELSTAHL_
  5
E708
 10
-24.4020
 20
7.40226
 30
134.098
  70
    32
  0
VERTEX
  8
MATERIAL__EDELSTAHL_
  5
E709
 10
-24.7358
 20
6.19599
 30
133.764
  70
    32
  0
VERTEX
  8
MATERIAL__EDELSTAHL_
  5
E70A
 10
-25.0100
 20
4.97480
 30
133.490
  70
    32
  0
VERTEX
  8
MATERIAL__EDELSTAHL_
  5
E70B
 10
-25.2240
 20
3.74163
 30
133.276
  70
    32
  0
VERTEX
  8
MATERIAL__EDELSTAHL_
  5
E70C
 10
-25.3772
 20
2.49944
 30
133.123
  70
    32
  0
VERTEX
  8
MATERIAL__EDELSTAHL_
  5
E70D
 10
-25.4693
 20
1.25123
 30
133.031
  70
    32
  0
VERTEX
  8
MATERIAL__EDELSTAHL_
  5
E70E
 10
-25.5000
 20
-1.16772e-14
 30
133.000
  70
    32
  0
SEQEND
  8
MATERIAL__EDELSTAHL_
  5
E70F
  0
CIRCLE
  5
E57E
  8
MATERIAL__EDELSTAHL_
 10
0.0
 20
-0.0000000000000226
 30
5.0436609429091837
 40
25.5
  0
CIRCLE
  5
E57F
  8
MATERIAL__EDELSTAHL_
 10
0.0
 20
-0.0000000000000229
 30
0.0871557427476546
 40
25.0663619842787284
  0
CIRCLE
  5
E580
  8
MATERIAL__EDELSTAHL_
 10
0.0
 20
-0.0000000000000226
 30
5.0436609429091837
 40
25.5
  0
CIRCLE
  5
E581
  8
MATERIAL__EDELSTAHL_
 10
0.0
 20
-0.0000000000000229
 30
0.0
 40
26.0625566823704311
  0
CIRCLE
  5
E582
  8
MATERIAL__EDELSTAHL_
 10
0.0
 20
-0.0000000000000229
 30
0.0871557427476546
 40
25.0663619842787284
  0
CIRCLE
  5
E583
  8
MATERIAL__EDELSTAHL_
 10
0.0
 20
-0.0000000000000226
 30
4.999999999997442
 40
26.5
  0
CIRCLE
  5
E584
  8
MATERIAL__EDELSTAHL_
 10
0.0
 20
-0.0000000000000229
 30
0.0
 40
26.0625566823704311
  0
POLYLINE
  5
E585
  8
MATERIAL__EDELSTAHL_
 10
-26.5
 20
-0.000000000000018
 30
132.0
 66
     1
 70
     8
  0
VERTEX
  8
MATERIAL__EDELSTAHL_
  5
E710
 10
-26.5000
 20
-1.80453e-14
 30
132.000
  70
    32
  0
VERTEX
  8
MATERIAL__EDELSTAHL_
  5
E711
 10
-26.4681
 20
1.30029
 30
132.032
  70
    32
  0
VERTEX
  8
MATERIAL__EDELSTAHL_
  5
E712
 10
-26.3724
 20
2.59745
 30
132.128
  70
    32
  0
VERTEX
  8
MATERIAL__EDELSTAHL_
  5
E713
 10
-26.2132
 20
3.88836
 30
132.287
  70
    32
  0
VERTEX
  8
MATERIAL__EDELSTAHL_
  5
E714
 10
-25.9908
 20
5.16989
 30
132.509
  70
    32
  0
VERTEX
  8
MATERIAL__EDELSTAHL_
  5
E715
 10
-25.7058
 20
6.43897
 30
132.794
  70
    32
  0
VERTEX
  8
MATERIAL__EDELSTAHL_
  5
E716
 10
-25.3589
 20
7.69254
 30
133.141
  70
    32
  0
VERTEX
  8
MATERIAL__EDELSTAHL_
  5
E717
 10
-24.9509
 20
8.92758
 30
133.549
  70
    32
  0
VERTEX
  8
MATERIAL__EDELSTAHL_
  5
E718
 10
-24.4828
 20
10.1411
 30
134.017
  70
    32
  0
VERTEX
  8
MATERIAL__EDELSTAHL_
  5
E719
 10
-23.9557
 20
11.3302
 30
134.544
  70
    32
  0
VERTEX
  8
MATERIAL__EDELSTAHL_
  5
E71A
 10
-23.3709
 20
12.4920
 30
135.129
  70
    32
  0
VERTEX
  8
MATERIAL__EDELSTAHL_
  5
E71B
 10
-22.7298
 20
13.6237
 30
135.770
  70
    32
  0
VERTEX
  8
MATERIAL__EDELSTAHL_
  5
E71C
 10
-22.0339
 20
14.7226
 30
136.466
  70
    32
  0
VERTEX
  8
MATERIAL__EDELSTAHL_
  5
E71D
 10
-21.2850
 20
15.7860
 30
137.215
  70
    32
  0
VERTEX
  8
MATERIAL__EDELSTAHL_
  5
E71E
 10
-20.4848
 20
16.8114
 30
138.015
  70
    32
  0
VERTEX
  8
MATERIAL__EDELSTAHL_
  5
E71F
 10
-19.6352
 20
17.7963
 30
138.865
  70
    32
  0
VERTEX
  8
MATERIAL__EDELSTAHL_
  5
E720
 10
-18.7383
 20
18.7383
 30
139.762
  70
    32
  0
VERTEX
  8
MATERIAL__EDELSTAHL_
  5
E721
 10
-17.7963
 20
19.6352
 30
140.704
  70
    32
  0
VERTEX
  8
MATERIAL__EDELSTAHL_
  5
E722
 10
-16.8114
 20
20.4848
 30
141.689
  70
    32
  0
VERTEX
  8
MATERIAL__EDELSTAHL_
  5
E723
 10
-15.7860
 20
21.2850
 30
142.714
  70
    32
  0
VERTEX
  8
MATERIAL__EDELSTAHL_
  5
E724
 10
-14.7226
 20
22.0339
 30
143.777
  70
    32
  0
VERTEX
  8
MATERIAL__EDELSTAHL_
  5
E725
 10
-13.6237
 20
22.7298
 30
144.876
  70
    32
  0
VERTEX
  8
MATERIAL__EDELSTAHL_
  5
E726
 10
-12.4920
 20
23.3709
 30
146.008
  70
    32
  0
VERTEX
  8
MATERIAL__EDELSTAHL_
  5
E727
 10
-11.3302
 20
23.9557
 30
147.170
  70
    32
  0
VERTEX
  8
MATERIAL__EDELSTAHL_
  5
E728
 10
-10.1411
 20
24.4828
 30
148.359
  70
    32
  0
VERTEX
  8
MATERIAL__EDELSTAHL_
  5
E729
 10
-8.92758
 20
24.9509
 30
149.572
  70
    32
  0
VERTEX
  8
MATERIAL__EDELSTAHL_
  5
E72A
 10
-7.69254
 20
25.3589
 30
150.807
  70
    32
  0
VERTEX
  8
MATERIAL__EDELSTAHL_
  5
E72B
 10
-6.43897
 20
25.7058
 30
152.061
  70
    32
  0
VERTEX
  8
MATERIAL__EDELSTAHL_
  5
E72C
 10
-5.16989
 20
25.9908
 30
153.330
  70
    32
  0
VERTEX
  8
MATERIAL__EDELSTAHL_
  5
E72D
 10
-3.88836
 20
26.2132
 30
154.612
  70
    32
  0
VERTEX
  8
MATERIAL__EDELSTAHL_
  5
E72E
 10
-2.59745
 20
26.3724
 30
155.903
  70
    32
  0
VERTEX
  8
MATERIAL__EDELSTAHL_
  5
E72F
 10
-1.30029
 20
26.4681
 30
157.200
  70
    32
  0
VERTEX
  8
MATERIAL__EDELSTAHL_
  5
E730
 10
-5.66797e-15
 20
26.5000
 30
158.500
  70
    32
  0
VERTEX
  8
MATERIAL__EDELSTAHL_
  5
E731
 10
1.30029
 20
26.4681
 30
159.800
  70
    32
  0
VERTEX
  8
MATERIAL__EDELSTAHL_
  5
E732
 10
2.59745
 20
26.3724
 30
161.097
  70
    32
  0
VERTEX
  8
MATERIAL__EDELSTAHL_
  5
E733
 10
3.88836
 20
26.2132
 30
162.388
  70
    32
  0
VERTEX
  8
MATERIAL__EDELSTAHL_
  5
E734
 10
5.16989
 20
25.9908
 30
163.670
  70
    32
  0
VERTEX
  8
MATERIAL__EDELSTAHL_
  5
E735
 10
6.43897
 20
25.7058
 30
164.939
  70
    32
  0
VERTEX
  8
MATERIAL__EDELSTAHL_
  5
E736
 10
7.69254
 20
25.3589
 30
166.193
  70
    32
  0
VERTEX
  8
MATERIAL__EDELSTAHL_
  5
E737
 10
8.92758
 20
24.9509
 30
167.428
  70
    32
  0
VERTEX
  8
MATERIAL__EDELSTAHL_
  5
E738
 10
10.1411
 20
24.4828
 30
168.641
  70
    32
  0
VERTEX
  8
MATERIAL__EDELSTAHL_
  5
E739
 10
11.3302
 20
23.9557
 30
169.830
  70
    32
  0
VERTEX
  8
MATERIAL__EDELSTAHL_
  5
E73A
 10
12.4920
 20
23.3709
 30
170.992
  70
    32
  0
VERTEX
  8
MATERIAL__EDELSTAHL_
  5
E73B
 10
13.6237
 20
22.7298
 30
172.124
  70
    32
  0
VERTEX
  8
MATERIAL__EDELSTAHL_
  5
E73C
 10
14.7226
 20
22.0339
 30
173.223
  70
    32
  0
VERTEX
  8
MATERIAL__EDELSTAHL_
  5
E73D
 10
15.7860
 20
21.2850
 30
174.286
  70
    32
  0
VERTEX
  8
MATERIAL__EDELSTAHL_
  5
E73E
 10
16.8114
 20
20.4848
 30
175.311
  70
    32
  0
VERTEX
  8
MATERIAL__EDELSTAHL_
  5
E73F
 10
17.7963
 20
19.6352
 30
176.296
  70
    32
  0
VERTEX
  8
MATERIAL__EDELSTAHL_
  5
E740
 10
18.7383
 20
18.7383
 30
177.238
  70
    32
  0
VERTEX
  8
MATERIAL__EDELSTAHL_
  5
E741
 10
19.6352
 20
17.7963
 30
178.135
  70
    32
  0
VERTEX
  8
MATERIAL__EDELSTAHL_
  5
E742
 10
20.4848
 20
16.8114
 30
178.985
  70
    32
  0
VERTEX
  8
MATERIAL__EDELSTAHL_
  5
E743
 10
21.2850
 20
15.7860
 30
179.785
  70
    32
  0
VERTEX
  8
MATERIAL__EDELSTAHL_
  5
E744
 10
22.0339
 20
14.7226
 30
180.534
  70
    32
  0
VERTEX
  8
MATERIAL__EDELSTAHL_
  5
E745
 10
22.7298
 20
13.6237
 30
181.230
  70
    32
  0
VERTEX
  8
MATERIAL__EDELSTAHL_
  5
E746
 10
23.3709
 20
12.4920
 30
181.871
  70
    32
  0
VERTEX
  8
MATERIAL__EDELSTAHL_
  5
E747
 10
23.9557
 20
11.3302
 30
182.456
  70
    32
  0
VERTEX
  8
MATERIAL__EDELSTAHL_
  5
E748
 10
24.4828
 20
10.1411
 30
182.983
  70
    32
  0
VERTEX
  8
MATERIAL__EDELSTAHL_
  5
E749
 10
24.9509
 20
8.92758
 30
183.451
  70
    32
  0
VERTEX
  8
MATERIAL__EDELSTAHL_
  5
E74A
 10
25.3589
 20
7.69254
 30
183.859
  70
    32
  0
VERTEX
  8
MATERIAL__EDELSTAHL_
  5
E74B
 10
25.7058
 20
6.43897
 30
184.206
  70
    32
  0
VERTEX
  8
MATERIAL__EDELSTAHL_
  5
E74C
 10
25.9908
 20
5.16989
 30
184.491
  70
    32
  0
VERTEX
  8
MATERIAL__EDELSTAHL_
  5
E74D
 10
26.2132
 20
3.88836
 30
184.713
  70
    32
  0
VERTEX
  8
MATERIAL__EDELSTAHL_
  5
E74E
 10
26.3724
 20
2.59745
 30
184.872
  70
    32
  0
VERTEX
  8
MATERIAL__EDELSTAHL_
  5
E74F
 10
26.4681
 20
1.30029
 30
184.968
  70
    32
  0
VERTEX
  8
MATERIAL__EDELSTAHL_
  5
E750
 10
26.5000
 20
-1.16000e-14
 30
185.000
  70
    32
  0
VERTEX
  8
MATERIAL__EDELSTAHL_
  5
E751
 10
26.4681
 20
-1.30029
 30
184.968
  70
    32
  0
VERTEX
  8
MATERIAL__EDELSTAHL_
  5
E752
 10
26.3724
 20
-2.59745
 30
184.872
  70
    32
  0
VERTEX
  8
MATERIAL__EDELSTAHL_
  5
E753
 10
26.2132
 20
-3.88836
 30
184.713
  70
    32
  0
VERTEX
  8
MATERIAL__EDELSTAHL_
  5
E754
 10
25.9908
 20
-5.16989
 30
184.491
  70
    32
  0
VERTEX
  8
MATERIAL__EDELSTAHL_
  5
E755
 10
25.7058
 20
-6.43897
 30
184.206
  70
    32
  0
VERTEX
  8
MATERIAL__EDELSTAHL_
  5
E756
 10
25.3589
 20
-7.69254
 30
183.859
  70
    32
  0
VERTEX
  8
MATERIAL__EDELSTAHL_
  5
E757
 10
24.9509
 20
-8.92758
 30
183.451
  70
    32
  0
VERTEX
  8
MATERIAL__EDELSTAHL_
  5
E758
 10
24.4828
 20
-10.1411
 30
182.983
  70
    32
  0
VERTEX
  8
MATERIAL__EDELSTAHL_
  5
E759
 10
23.9557
 20
-11.3302
 30
182.456
  70
    32
  0
VERTEX
  8
MATERIAL__EDELSTAHL_
  5
E75A
 10
23.3709
 20
-12.4920
 30
181.871
  70
    32
  0
VERTEX
  8
MATERIAL__EDELSTAHL_
  5
E75B
 10
22.7298
 20
-13.6237
 30
181.230
  70
    32
  0
VERTEX
  8
MATERIAL__EDELSTAHL_
  5
E75C
 10
22.0339
 20
-14.7226
 30
180.534
  70
    32
  0
VERTEX
  8
MATERIAL__EDELSTAHL_
  5
E75D
 10
21.2850
 20
-15.7860
 30
179.785
  70
    32
  0
VERTEX
  8
MATERIAL__EDELSTAHL_
  5
E75E
 10
20.4848
 20
-16.8114
 30
178.985
  70
    32
  0
VERTEX
  8
MATERIAL__EDELSTAHL_
  5
E75F
 10
19.6352
 20
-17.7963
 30
178.135
  70
    32
  0
VERTEX
  8
MATERIAL__EDELSTAHL_
  5
E760
 10
18.7383
 20
-18.7383
 30
177.238
  70
    32
  0
VERTEX
  8
MATERIAL__EDELSTAHL_
  5
E761
 10
17.7963
 20
-19.6352
 30
176.296
  70
    32
  0
VERTEX
  8
MATERIAL__EDELSTAHL_
  5
E762
 10
16.8114
 20
-20.4848
 30
175.311
  70
    32
  0
VERTEX
  8
MATERIAL__EDELSTAHL_
  5
E763
 10
15.7860
 20
-21.2850
 30
174.286
  70
    32
  0
VERTEX
  8
MATERIAL__EDELSTAHL_
  5
E764
 10
14.7226
 20
-22.0339
 30
173.223
  70
    32
  0
VERTEX
  8
MATERIAL__EDELSTAHL_
  5
E765
 10
13.6237
 20
-22.7298
 30
172.124
  70
    32
  0
VERTEX
  8
MATERIAL__EDELSTAHL_
  5
E766
 10
12.4920
 20
-23.3709
 30
170.992
  70
    32
  0
VERTEX
  8
MATERIAL__EDELSTAHL_
  5
E767
 10
11.3302
 20
-23.9557
 30
169.830
  70
    32
  0
VERTEX
  8
MATERIAL__EDELSTAHL_
  5
E768
 10
10.1411
 20
-24.4828
 30
168.641
  70
    32
  0
VERTEX
  8
MATERIAL__EDELSTAHL_
  5
E769
 10
8.92758
 20
-24.9509
 30
167.428
  70
    32
  0
VERTEX
  8
MATERIAL__EDELSTAHL_
  5
E76A
 10
7.69254
 20
-25.3589
 30
166.193
  70
    32
  0
VERTEX
  8
MATERIAL__EDELSTAHL_
  5
E76B
 10
6.43897
 20
-25.7058
 30
164.939
  70
    32
  0
VERTEX
  8
MATERIAL__EDELSTAHL_
  5
E76C
 10
5.16989
 20
-25.9908
 30
163.670
  70
    32
  0
VERTEX
  8
MATERIAL__EDELSTAHL_
  5
E76D
 10
3.88836
 20
-26.2132
 30
162.388
  70
    32
  0
VERTEX
  8
MATERIAL__EDELSTAHL_
  5
E76E
 10
2.59745
 20
-26.3724
 30
161.097
  70
    32
  0
VERTEX
  8
MATERIAL__EDELSTAHL_
  5
E76F
 10
1.30029
 20
-26.4681
 30
159.800
  70
    32
  0
VERTEX
  8
MATERIAL__EDELSTAHL_
  5
E770
 10
2.42266e-15
 20
-26.5000
 30
158.500
  70
    32
  0
VERTEX
  8
MATERIAL__EDELSTAHL_
  5
E771
 10
-1.30029
 20
-26.4681
 30
157.200
  70
    32
  0
VERTEX
  8
MATERIAL__EDELSTAHL_
  5
E772
 10
-2.59745
 20
-26.3724
 30
155.903
  70
    32
  0
VERTEX
  8
MATERIAL__EDELSTAHL_
  5
E773
 10
-3.88836
 20
-26.2132
 30
154.612
  70
    32
  0
VERTEX
  8
MATERIAL__EDELSTAHL_
  5
E774
 10
-5.16989
 20
-25.9908
 30
153.330
  70
    32
  0
VERTEX
  8
MATERIAL__EDELSTAHL_
  5
E775
 10
-6.43897
 20
-25.7058
 30
152.061
  70
    32
  0
VERTEX
  8
MATERIAL__EDELSTAHL_
  5
E776
 10
-7.69254
 20
-25.3589
 30
150.807
  70
    32
  0
VERTEX
  8
MATERIAL__EDELSTAHL_
  5
E777
 10
-8.92758
 20
-24.9509
 30
149.572
  70
    32
  0
VERTEX
  8
MATERIAL__EDELSTAHL_
  5
E778
 10
-10.1411
 20
-24.4828
 30
148.359
  70
    32
  0
VERTEX
  8
MATERIAL__EDELSTAHL_
  5
E779
 10
-11.3302
 20
-23.9557
 30
147.170
  70
    32
  0
VERTEX
  8
MATERIAL__EDELSTAHL_
  5
E77A
 10
-12.4920
 20
-23.3709
 30
146.008
  70
    32
  0
VERTEX
  8
MATERIAL__EDELSTAHL_
  5
E77B
 10
-13.6237
 20
-22.7298
 30
144.876
  70
    32
  0
VERTEX
  8
MATERIAL__EDELSTAHL_
  5
E77C
 10
-14.7226
 20
-22.0339
 30
143.777
  70
    32
  0
VERTEX
  8
MATERIAL__EDELSTAHL_
  5
E77D
 10
-15.7860
 20
-21.2850
 30
142.714
  70
    32
  0
VERTEX
  8
MATERIAL__EDELSTAHL_
  5
E77E
 10
-16.8114
 20
-20.4848
 30
141.689
  70
    32
  0
VERTEX
  8
MATERIAL__EDELSTAHL_
  5
E77F
 10
-17.7963
 20
-19.6352
 30
140.704
  70
    32
  0
VERTEX
  8
MATERIAL__EDELSTAHL_
  5
E780
 10
-18.7383
 20
-18.7383
 30
139.762
  70
    32
  0
VERTEX
  8
MATERIAL__EDELSTAHL_
  5
E781
 10
-19.6352
 20
-17.7963
 30
138.865
  70
    32
  0
VERTEX
  8
MATERIAL__EDELSTAHL_
  5
E782
 10
-20.4848
 20
-16.8114
 30
138.015
  70
    32
  0
VERTEX
  8
MATERIAL__EDELSTAHL_
  5
E783
 10
-21.2850
 20
-15.7860
 30
137.215
  70
    32
  0
VERTEX
  8
MATERIAL__EDELSTAHL_
  5
E784
 10
-22.0339
 20
-14.7226
 30
136.466
  70
    32
  0
VERTEX
  8
MATERIAL__EDELSTAHL_
  5
E785
 10
-22.7298
 20
-13.6237
 30
135.770
  70
    32
  0
VERTEX
  8
MATERIAL__EDELSTAHL_
  5
E786
 10
-23.3709
 20
-12.4920
 30
135.129
  70
    32
  0
VERTEX
  8
MATERIAL__EDELSTAHL_
  5
E787
 10
-23.9557
 20
-11.3302
 30
134.544
  70
    32
  0
VERTEX
  8
MATERIAL__EDELSTAHL_
  5
E788
 10
-24.4828
 20
-10.1411
 30
134.017
  70
    32
  0
VERTEX
  8
MATERIAL__EDELSTAHL_
  5
E789
 10
-24.9509
 20
-8.92758
 30
133.549
  70
    32
  0
VERTEX
  8
MATERIAL__EDELSTAHL_
  5
E78A
 10
-25.3589
 20
-7.69254
 30
133.141
  70
    32
  0
VERTEX
  8
MATERIAL__EDELSTAHL_
  5
E78B
 10
-25.7058
 20
-6.43897
 30
132.794
  70
    32
  0
VERTEX
  8
MATERIAL__EDELSTAHL_
  5
E78C
 10
-25.9908
 20
-5.16989
 30
132.509
  70
    32
  0
VERTEX
  8
MATERIAL__EDELSTAHL_
  5
E78D
 10
-26.2132
 20
-3.88836
 30
132.287
  70
    32
  0
VERTEX
  8
MATERIAL__EDELSTAHL_
  5
E78E
 10
-26.3724
 20
-2.59745
 30
132.128
  70
    32
  0
VERTEX
  8
MATERIAL__EDELSTAHL_
  5
E78F
 10
-26.4681
 20
-1.30029
 30
132.032
  70
    32
  0
VERTEX
  8
MATERIAL__EDELSTAHL_
  5
E790
 10
-26.5000
 20
-1.80453e-14
 30
132.000
  70
    32
  0
SEQEND
  8
MATERIAL__EDELSTAHL_
  5
E791
  0
CIRCLE
  5
E586
  8
MATERIAL__EDELSTAHL_
 10
0.0
 20
-0.0000000000000226
 30
4.999999999997442
 40
26.5
  0
ENDBLK
  5
E588
  8
0
  0
ENDSEC
  0
SECTION
  2
ENTITIES
  0
TEXT
  5
A55
  8
TEXT
 62
     1
 10
790.1294755517468502
 20
62.9470459695668723
 30
0.0
 40
7.0
  1

 41
0.8
  7
GREEKS
 72
     1
 11
790.1294755517468502
 21
62.9470459695668723
 31
0.0
  0
INSERT
  5
30AA
  8
ADSK_ASSOC_ENTITY_BACKUPS
  2
*S0
 10
0.0
 20
0.0
 30
0.0
  0
INSERT
  5
DE47
  8
STEMPEL
  2
*U10
 10
0.0
 20
0.0
 30
0.0
  0
VIEWPORT
  5
2672
 67
     1
  8
0
 10
97.375791163608028
 20
99.6396396956777153
 30
0.0
 40
874.4461919228042461
 41
468.0695137465716016
 68
     1
 69
     1
1001
ACAD
1000
MVIEW
1002
{
1070
    16
1010
0.0
1020
0.0
1030
0.0
1010
0.0
1020
0.0
1030
1.0
1040
0.0
1040
468.0695137465716016
1040
97.375791163608028
1040
99.6396396956777153
1040
50.0
1040
0.0
1040
0.0
1070
     0
1070
  1500
1070
     1
1070
     1
1070
     0
1070
     0
1070
     0
1070
     0
1040
0.0
1040
0.0
1040
0.0
1040
10.0
1040
10.0
1040
10.0
1040
10.0
1070
     0
1002
{
1002
}
1002
}
  0
ENDSEC
  0
EOF
